  0
SECTION
  2
HEADER
  9
$ACADVER
  1
AC1009
  9
$INSBASE
 10
3137.0271048515610346
 20
102.6673154374097976
 30
0.0
  9
$EXTMIN
 10
3132.4300442084149836
 20
102.6600623233323972
 30
-0.0000000349181948
  9
$EXTMAX
 10
3137.9227666404531192
 20
108.0607968419072051
 30
0.0000000814935746
  9
$LIMMIN
 10
0.0
 20
0.0
  9
$LIMMAX
 10
11.6929133858000007
 20
8.2677165353999982
  9
$ORTHOMODE
 70
     0
  9
$REGENMODE
 70
     1
  9
$FILLMODE
 70
     1
  9
$QTEXTMODE
 70
     0
  9
$MIRRTEXT
 70
     0
  9
$DRAGMODE
 70
     2
  9
$LTSCALE
 40
0.6431102362
  9
$OSMODE
 70
   575
  9
$ATTMODE
 70
     1
  9
$TEXTSIZE
 40
0.2
  9
$TRACEWID
 40
0.05
  9
$TEXTSTYLE
  7
STANDARD
  9
$CLAYER
  8
0
  9
$CELTYPE
  6
BYLAYER
  9
$CECOLOR
 62
   256
  9
$DIMSCALE
 40
1.0
  9
$DIMASZ
 40
0.1875
  9
$DIMEXO
 40
0.0625
  9
$DIMDLI
 40
0.4443307087
  9
$DIMRND
 40
0.0
  9
$DIMDLE
 40
0.0
  9
$DIMEXE
 40
0.125
  9
$DIMTP
 40
0.01
  9
$DIMTM
 40
0.01
  9
$DIMTXT
 40
2.0
  9
$DIMCEN
 40
0.1052362205
  9
$DIMTSZ
 40
0.0
  9
$DIMTOL
 70
     1
  9
$DIMLIM
 70
     0
  9
$DIMTIH
 70
     1
  9
$DIMTOH
 70
     1
  9
$DIMSE1
 70
     0
  9
$DIMSE2
 70
     0
  9
$DIMTAD
 70
     0
  9
$DIMZIN
 70
     0
  9
$DIMBLK
  1

  9
$DIMASO
 70
     1
  9
$DIMSHO
 70
     1
  9
$DIMPOST
  1
\X
  9
$DIMAPOST
  1

  9
$DIMALT
 70
     1
  9
$DIMALTD
 70
     2
  9
$DIMALTF
 40
25.3999999999999986
  9
$DIMLFAC
 40
1.0
  9
$DIMTOFL
 70
     0
  9
$DIMTVP
 40
0.0
  9
$DIMTIX
 70
     0
  9
$DIMSOXD
 70
     0
  9
$DIMSAH
 70
     0
  9
$DIMBLK1
  1

  9
$DIMBLK2
  1

  9
$DIMSTYLE
  2
STANDARD
  9
$DIMCLRD
 70
     0
  9
$DIMCLRE
 70
     0
  9
$DIMCLRT
 70
     0
  9
$DIMTFAC
 40
1.0
  9
$DIMGAP
 40
0.09
  9
$LUNITS
 70
     2
  9
$LUPREC
 70
     4
  9
$SKETCHINC
 40
0.1
  9
$FILLETRAD
 40
0.0
  9
$AUNITS
 70
     0
  9
$AUPREC
 70
     0
  9
$MENU
  1
.
  9
$ELEVATION
 40
0.0
  9
$PELEVATION
 40
0.0
  9
$THICKNESS
 40
0.0
  9
$LIMCHECK
 70
     0
  9
$BLIPMODE
 70
     0
  9
$CHAMFERA
 40
0.0
  9
$CHAMFERB
 40
0.0
  9
$SKPOLY
 70
     0
  9
$TDCREATE
 40
2458060.468368056230247
  9
$TDUPDATE
 40
2459667.818530092947185
  9
$TDINDWG
 40
0.2967778935
  9
$TDUSRTIMER
 40
0.2967778935
  9
$USRTIMER
 70
     1
  9
$ANGBASE
 50
0.0
  9
$ANGDIR
 70
     0
  9
$PDMODE
 70
     0
  9
$PDSIZE
 40
0.3125
  9
$PLINEWID
 40
0.0
  9
$COORDS
 70
     1
  9
$SPLFRAME
 70
     0
  9
$SPLINETYPE
 70
     6
  9
$SPLINESEGS
 70
     8
  9
$ATTDIA
 70
     1
  9
$ATTREQ
 70
     1
  9
$HANDLING
 70
     1
  9
$HANDSEED
  5
7DBB
  9
$SURFTAB1
 70
     6
  9
$SURFTAB2
 70
     6
  9
$SURFTYPE
 70
     6
  9
$SURFU
 70
     6
  9
$SURFV
 70
     6
  9
$UCSNAME
  2

  9
$UCSORG
 10
0.0
 20
0.0
 30
0.0
  9
$UCSXDIR
 10
1.0
 20
0.0
 30
0.0
  9
$UCSYDIR
 10
0.0
 20
1.0
 30
0.0
  9
$PUCSNAME
  2

  9
$PUCSORG
 10
0.0
 20
0.0
 30
0.0
  9
$PUCSXDIR
 10
1.0
 20
0.0
 30
0.0
  9
$PUCSYDIR
 10
0.0
 20
1.0
 30
0.0
  9
$USERI1
 70
     0
  9
$USERI2
 70
     0
  9
$USERI3
 70
     0
  9
$USERI4
 70
     0
  9
$USERI5
 70
     0
  9
$USERR1
 40
0.0
  9
$USERR2
 40
0.0
  9
$USERR3
 40
0.0
  9
$USERR4
 40
0.0
  9
$USERR5
 40
0.0
  9
$WORLDVIEW
 70
     1
  9
$SHADEDGE
 70
     3
  9
$SHADEDIF
 70
    70
  9
$TILEMODE
 70
     1
  9
$MAXACTVP
 70
    64
  9
$PLIMCHECK
 70
     0
  9
$PEXTMIN
 10
1.0000000000000000E+20
 20
1.0000000000000000E+20
 30
1.0000000000000000E+20
  9
$PEXTMAX
 10
-1.0000000000000000E+20
 20
-1.0000000000000000E+20
 30
-1.0000000000000000E+20
  9
$PLIMMIN
 10
0.0
 20
0.0
  9
$PLIMMAX
 10
12.0
 20
9.0
  9
$UNITMODE
 70
     0
  9
$VISRETAIN
 70
     1
  9
$PLINEGEN
 70
     0
  9
$PSLTSCALE
 70
     1
  0
ENDSEC
  0
SECTION
  2
TABLES
  0
TABLE
  2
VPORT
 70
     1
  0
VPORT
  2
*ACTIVE
 70
     0
 10
0.0
 20
0.0
 11
1.0
 21
1.0
 12
118.1970352988204951
 22
2.0242250511785409
 13
0.0
 23
0.0
 14
1.0
 24
1.0
 15
0.0
 25
0.0
 16
0.0
 26
0.0
 36
106.320558520324596
 17
3016.9793701171879547
 27
103.3362045288085938
 37
0.0
 40
8.2257161315688112
 41
2.2268786127167619
 42
50.0
 43
0.0
 44
0.0
 50
0.0
 51
0.0
 71
     0
 72
   100
 73
     1
 74
     1
 75
     0
 76
     0
 77
     0
 78
     0
  0
ENDTAB
  0
TABLE
  2
LTYPE
 70
     2
  0
LTYPE
  2
CONTINUOUS
 70
     0
  3
Solid line
 72
    65
 73
     0
 40
0.0
  0
LTYPE
  2
PHANTOM2
 70
     0
  3
___ _ _ ___ _ _ ___ _ _ ___ _ _
 72
    65
 73
     6
 40
1.25
 49
0.625
 49
-0.125
 49
0.125
 49
-0.125
 49
0.125
 49
-0.125
  0
ENDTAB
  0
TABLE
  2
LAYER
 70
     2
  0
LAYER
  2
0
 70
     0
 62
   255
  6
CONTINUOUS
  0
LAYER
  2
DEFPOINTS
 70
     0
 62
     7
  6
CONTINUOUS
  0
ENDTAB
  0
TABLE
  2
STYLE
 70
     1
  0
STYLE
  2
STANDARD
 70
     0
 40
0.0
 41
0.8
 50
0.0
 71
     0
 42
0.2
  3
txt
  4

  0
ENDTAB
  0
TABLE
  2
VIEW
 70
     0
  0
ENDTAB
  0
TABLE
  2
UCS
 70
     0
  0
ENDTAB
  0
TABLE
  2
APPID
 70
     9
  0
APPID
  2
ACAD
 70
     0
  0
APPID
  2
ACAD_MLEADERVER
 70
     0
  0
APPID
  2
ACAD_EXEMPT_FROM_CAD_STANDARDS
 70
     0
  0
APPID
  2
ACAD_NAV_VCDISPLAY
 70
     0
  0
APPID
  2
ACAECLAYERSTANDARD
 70
     0
  0
APPID
  2
ACCMTRANSPARENCY
 70
     0
  0
APPID
  2
ACAD_DSTYLE_DIMJAG
 70
     0
  0
APPID
  2
ACAD_DSTYLE_DIMTALN
 70
     0
  0
APPID
  2
ACDBATTR
 70
     0
  0
ENDTAB
  0
TABLE
  2
DIMSTYLE
 70
     1
  0
DIMSTYLE
  2
STANDARD
 70
     0
  3

  4

  5

  6

  7

 40
1.0
 41
0.1875
 42
0.0625
 43
0.38
 44
0.125
 45
0.0
 46
0.0
 47
0.01
 48
0.01
140
0.15625
141
0.09
142
0.0
143
25.3999999999999986
144
1.0
145
0.0
146
1.0
147
0.09
 71
     1
 72
     0
 73
     1
 74
     1
 75
     0
 76
     0
 77
     0
 78
     4
170
     0
171
     2
172
     0
173
     0
174
     0
175
     0
176
     0
177
     0
178
     0
  0
ENDTAB
  0
ENDSEC
  0
SECTION
  2
BLOCKS
  0
BLOCK
  8
0
  2
$MODEL_SPACE
 70
     0
 10
0.0
 20
0.0
 30
0.0
  3
$MODEL_SPACE
  1

  0
ENDBLK
  5
21
  8
0
  0
BLOCK
 67
     1
  8
0
  2
$PAPER_SPACE
 70
     0
 10
0.0
 20
0.0
 30
0.0
  3
$PAPER_SPACE
  1

  0
ENDBLK
  5
1D
 67
     1
  8
0
  0
BLOCK
  8
0
  2
_FILLED
 70
     0
 10
0.0
 20
0.0
 30
0.0
  3
_FILLED
  1

  0
SOLID
  5
7B06
  8
0
  6
BYBLOCK
 62
     0
 10
0.0
 20
0.0
 30
0.0
 11
-1.0
 21
0.1666666667
 31
0.0
 12
-1.0
 22
-0.1666666667
 32
0.0
 13
-1.0
 23
-0.1666666667
 33
0.0
  0
ENDBLK
  5
7B07
  8
0
  6
BYBLOCK
 62
     0
  0
ENDSEC
  0
SECTION
  2
ENTITIES
  0
ATTDEF
  5
3930
  8
DEFPOINTS
 10
3137.0271242569069727
 20
102.6707184899226064
 30
0.0
 40
0.001
  1
K-26042IN-4
  3

  2
MODELNUMBER
 70
     0
1001
ACDBATTR
1070
     0
1070
     1
  0
ATTDEF
  5
3931
  8
DEFPOINTS
 10
3137.0271242569069727
 20
102.6690518232558986
 30
0.0
 40
0.001
  1

  3

  2
TRADENAME
 70
     0
1001
ACDBATTR
1070
     0
1070
     1
  0
ATTDEF
  5
3932
  8
DEFPOINTS
 10
3137.0271242569069727
 20
102.6673851565893045
 30
0.0
 40
0.001
  1
BATHROOM SINK FAUCET 
  3

  2
PRODUCT
 70
     0
1001
ACDBATTR
1070
     0
1070
     1
  0
LINE
  5
7C02
  8
0
 10
3136.1392104613610172
 20
102.6673154374097976
 30
0.0
 11
3137.9149992417619615
 21
102.6673154374097976
 31
0.0
  0
LINE
  5
7C03
  8
0
 10
3137.8932495819608448
 20
102.8051107130097961
 30
0.0
 11
3136.1609601211612244
 21
102.8051107130097961
 31
0.0
  0
LINE
  5
7C04
  8
0
 10
3133.1423361837601078
 20
106.0927973549224959
 30
0.0
 11
3133.1598985744608399
 21
106.1468488355098003
 31
0.0
  0
LINE
  5
7C05
  8
0
 10
3133.1772468688609479
 20
106.0983179948098041
 30
0.0
 11
3133.1801570216612163
 21
106.1072745242097994
 31
0.0
  0
LINE
  5
7C06
  8
0
 10
3133.174497689160944
 20
106.0898568896098055
 30
0.0
 11
3133.1762110788608879
 21
106.0951301609098039
 31
0.0
  0
LINE
  5
7C07
  8
0
 10
3133.1734013308969224
 20
106.0864826457628993
 30
0.0
 11
3133.1739869545608599
 21
106.0882850103098036
 31
0.0
  0
LINE
  5
7C08
  8
0
 10
3133.1817486093609659
 20
106.1121729273097998
 30
0.0
 11
3133.1859459572610831
 21
106.1250910358098025
 31
0.0
  0
LINE
  5
7C09
  8
0
 10
3133.1881454757608481
 20
106.1318604577098057
 30
0.0
 11
3133.1898531103729511
 21
106.1371160167477967
 31
0.0
  0
LINE
  5
7C0A
  8
0
 10
3133.178051496660828
 20
106.0980780821097937
 30
0.0
 11
3133.1810358405609804
 21
106.1072629481098062
 31
0.0
  0
LINE
  5
7C0B
  8
0
 10
3133.1753165676609569
 20
106.0896608362098021
 30
0.0
 11
3133.1770736202611261
 21
106.0950684879097992
 31
0.0
  0
LINE
  5
7C0C
  8
0
 10
3133.1742373269162272
 20
106.086339274688001
 30
0.0
 11
3133.1748343920608022
 21
106.0881768522097985
 31
0.0
  0
LINE
  5
7C0D
  8
0
 10
3133.1825384522608147
 20
106.1118875116097939
 30
0.0
 11
3133.1868428810607838
 21
106.1251351811097976
 31
0.0
  0
LINE
  5
7C0E
  8
0
 10
3133.1889194678610693
 20
106.1315262580097993
 30
0.0
 11
3133.1906514116681137
 21
106.136856632933501
 31
0.0
  0
LINE
  5
7C0F
  8
0
 10
3133.1999613905609294
 20
106.1305890510098067
 30
0.0
 11
3133.1974462995608519
 21
106.1228483968098004
 31
0.0
  0
LINE
  5
7C10
  8
0
 10
3133.1934990943609591
 20
106.1107001482098013
 30
0.0
 11
3133.1916796133609751
 21
106.1051003617098019
 31
0.0
  0
LINE
  5
7C11
  8
0
 10
3133.186148701960974
 20
106.0880779666098022
 30
0.0
 11
3133.1855649816611731
 21
106.0862814601098023
 31
0.0
  0
LINE
  5
7C12
  8
0
 10
3133.188943407260922
 20
106.0966791852097941
 30
0.0
 11
3133.1877594946608951
 21
106.0930354769098045
 31
0.0
  0
LINE
  5
7C13
  8
0
 10
3133.1913036837991058
 20
106.0836964611577997
 30
0.0
 11
3133.1916585581611798
 21
106.0847886523097969
 31
0.0
  0
LINE
  5
7C14
  8
0
 10
3133.1927281514608694
 20
106.0880805221098058
 30
0.0
 11
3133.1936104342607905
 21
106.0907959091098007
 31
0.0
  0
LINE
  5
7C15
  8
0
 10
3133.195779958561161
 20
106.0974730185098025
 30
0.0
 11
3133.1972787317608891
 21
106.1020857679097986
 31
0.0
  0
LINE
  5
7C16
  8
0
 10
3133.2006133708609923
 20
106.1123487319098047
 30
0.0
 11
3133.2027756273610066
 21
106.1190034730097977
 31
0.0
  0
LINE
  5
7C17
  8
0
 10
3133.2044052859610019
 20
106.0890982957098032
 30
0.0
 11
3133.2067870041610149
 21
106.0964284704098048
 31
0.0
  0
LINE
  5
7C18
  8
0
 10
3133.2024977951609799
 20
106.0832276428098027
 30
0.0
 11
3133.203671879860849
 21
106.0868411038098031
 31
0.0
  0
LINE
  5
7C19
  8
0
 10
3133.2080330373610195
 20
106.100263366609795
 30
0.0
 11
3133.2116944925760436
 21
106.1115321670166054
 31
0.0
  0
LINE
  5
7C1A
  8
0
 10
3133.2134925351610946
 20
106.1170659730098009
 30
0.0
 11
3133.2171277309630568
 21
106.1282539553146052
 31
0.0
  0
LINE
  5
7C1B
  8
0
 10
3133.2191299290611823
 20
106.0994953363098006
 30
0.0
 11
3133.2176197406611209
 21
106.0948474546098055
 31
0.0
  0
LINE
  5
7C1C
  8
0
 10
3133.2246704517610851
 20
106.1165473120098
 30
0.0
 11
3133.2224906944611575
 21
106.1098387088098036
 31
0.0
  0
LINE
  5
7C1D
  8
0
 10
3133.2134679442610832
 20
106.0820695389098063
 30
0.0
 11
3133.2131332002668387
 21
106.0810393027880991
 31
0.0
  0
LINE
  5
7C1E
  8
0
 10
3133.2154340377610424
 20
106.0881205527097961
 30
0.0
 11
3133.2145452895611015
 21
106.0853852669097961
 31
0.0
  0
LINE
  5
7C1F
  8
0
 10
3133.2200219743608613
 20
106.0819938614097993
 30
0.0
 11
3133.2206123911610121
 21
106.083810977509799
 31
0.0
  0
LINE
  5
7C20
  8
0
 10
3133.2222418956612273
 20
106.0888260767097933
 30
0.0
 11
3133.2234397831612114
 21
106.0925127955098048
 31
0.0
  0
LINE
  5
7C21
  8
0
 10
3133.2262090306608115
 20
106.1010356629097942
 30
0.0
 11
3133.2280510769610373
 21
106.1067048984098022
 31
0.0
  0
LINE
  5
7C22
  8
0
 10
3133.232048951761044
 20
106.119009091709799
 30
0.0
 11
3133.2333410991718665
 21
106.1229859126433013
 31
0.0
  0
LINE
  5
7C23
  8
0
 10
3133.2315969614610367
 20
106.0826972579097998
 30
0.0
 11
3133.2333875263611844
 21
106.0882080498097935
 31
0.0
  0
LINE
  5
7C24
  8
0
 10
3133.2305563030631674
 20
106.0794944405297002
 30
0.0
 11
3133.2311057069609888
 21
106.0811853319097935
 31
0.0
  0
LINE
  5
7C25
  8
0
 10
3133.2343843506610028
 20
106.0912759597098045
 30
0.0
 11
3133.2374278784609487
 21
106.100642975009805
 31
0.0
  0
LINE
  5
7C26
  8
0
 10
3133.2389610887607887
 20
106.1053617112097953
 30
0.0
 11
3133.2433562970609273
 21
106.1188887713097984
 31
0.0
  0
LINE
  5
7C27
  8
0
 10
3133.2456207441341576
 20
106.0909372719565056
 30
0.0
 11
3133.2444115293410505
 21
106.087215691713098
 31
0.0
  0
LINE
  5
7C28
  8
0
 10
3133.2502776325609375
 20
106.1052697007097976
 30
0.0
 11
3133.2484171241608237
 21
106.099543644809799
 31
0.0
  0
LINE
  5
7C29
  8
0
 10
3133.2427666816088276
 20
106.0821533708493973
 30
0.0
 11
3133.2421708518118066
 21
106.0803195950965971
 31
0.0
  0
LINE
  5
7C2A
  8
0
 10
3133.2481417473250076
 20
106.078449214009197
 30
0.0
 11
3133.2484567850610802
 21
106.0794188003097958
 31
0.0
  0
LINE
  5
7C2B
  8
0
 10
3133.2495499470610412
 20
106.0827832069097951
 30
0.0
 11
3133.2504518919608927
 21
106.0855591081098055
 31
0.0
  0
LINE
  5
7C2C
  8
0
 10
3133.2526706360608841
 20
106.0923877003097999
 30
0.0
 11
3133.2542041543611049
 21
106.097107384309794
 31
0.0
  0
LINE
  5
7C2D
  8
0
 10
3133.2576183693608982
 20
106.1076152575098064
 30
0.0
 11
3133.2598174185732205
 21
106.114383234989603
 31
0.0
  0
LINE
  5
7C2E
  8
0
 10
3133.2615905320608363
 20
106.0849195662098055
 30
0.0
 11
3133.2640314380610107
 21
106.0924319027098051
 31
0.0
  0
LINE
  5
7C2F
  8
0
 10
3133.2596368167610308
 20
106.0789066488098058
 30
0.0
 11
3133.2608392314609773
 21
106.0826073008097978
 31
0.0
  0
LINE
  5
7C30
  8
0
 10
3133.2653091093611692
 20
106.0963641706098031
 30
0.0
 11
3133.2690663486609992
 21
106.1079277640098013
 31
0.0
  0
LINE
  5
7C31
  8
0
 10
3133.2729721291611895
 20
106.0850277694098054
 30
0.0
 11
3133.272059757660827
 21
106.0822197788098009
 31
0.0
  0
LINE
  5
7C32
  8
0
 10
3133.276768977761094
 20
106.0967132680097933
 30
0.0
 11
3133.2752169973609853
 21
106.0919367633098034
 31
0.0
  0
LINE
  5
7C33
  8
0
 10
3133.2709539941929506
 20
106.0788165886161067
 30
0.0
 11
3133.2706434457309115
 21
106.0778608189535959
 31
0.0
  0
LINE
  5
7C34
  8
0
 10
3133.2777164354720298
 20
106.0793823347396057
 30
0.0
 11
3133.2783230013610591
 21
106.0812491526098
 31
0.0
  0
LINE
  5
7C35
  8
0
 10
3133.2799980375821178
 20
106.0864043839782056
 30
0.0
 11
3133.2812298703438501
 21
106.0901955753780044
 31
0.0
  0
LINE
  5
7C36
  8
0
 10
3133.2840796887890065
 20
106.0989664148554965
 30
0.0
 11
3133.2859766257611227
 21
106.1048045864097986
 31
0.0
  0
LINE
  5
7C37
  8
0
 10
3133.2896625186608617
 20
106.0812278476097958
 30
0.0
 11
3133.2915071534612252
 21
106.0869050497097987
 31
0.0
  0
LINE
  5
7C38
  8
0
 10
3133.288611549514826
 20
106.0779932971166062
 30
0.0
 11
3133.2891566298608268
 21
106.079670881809804
 31
0.0
  0
LINE
  5
7C39
  8
0
 10
3133.2925345852609098
 20
106.0900671595098004
 30
0.0
 11
3133.2956738860611949
 21
106.0997289340098035
 31
0.0
  0
LINE
  5
7C3A
  8
0
 10
3133.3011970079610364
 20
106.0818066045097936
 30
0.0
 11
3133.3005819790610076
 21
106.0799137400098004
 31
0.0
  0
LINE
  5
7C3B
  8
0
 10
3133.3041447263608461
 20
106.0908787489098017
 30
0.0
 11
3133.3028953554608051
 21
106.0870335804097948
 31
0.0
  0
LINE
  5
7C3C
  8
0
 10
3133.3067565302230832
 20
106.0786701463423043
 30
0.0
 11
3133.3070743265889178
 21
106.0796482231750986
 31
0.0
  0
LINE
  5
7C3D
  8
0
 10
3133.3082041035609109
 20
106.0831253190097954
 30
0.0
 11
3133.3091366783610283
 21
106.0859954893097949
 31
0.0
  0
LINE
  5
7C3E
  8
0
 10
3133.3114323728877935
 20
106.0930609105661944
 30
0.0
 11
3133.3127700572608774
 21
106.097177879709804
 31
0.0
  0
LINE
  5
7C3F
  8
0
 10
3133.3186248841611814
 20
106.0802764332098036
 30
0.0
 11
3133.319870644160801
 21
106.0841104880097987
 31
0.0
  0
LINE
  5
7C40
  8
0
 10
3133.3206493512611814
 20
106.0865071021098061
 30
0.0
 11
3133.3230330084679736
 21
106.0938432447319002
 31
0.0
  0
LINE
  5
7C41
  8
0
 10
3133.3324193301509695
 20
106.0878106216794947
 30
0.0
 11
3133.3314712735759713
 21
106.0848928034557019
 31
0.0
  0
LINE
  5
7C42
  8
0
 10
3133.3303229078610457
 20
106.0813584972098056
 30
0.0
 11
3133.3299909199081412
 21
106.0803367433145041
 31
0.0
  0
LINE
  5
7C43
  8
0
 10
3133.3373165009611512
 20
106.0826356553098009
 30
0.0
 11
3133.3379475337610529
 21
106.0845777747097998
 31
0.0
  0
LINE
  5
7C44
  8
0
 10
3133.3485601168899848
 20
106.0823191960353
 30
0.0
 11
3133.3491524430610298
 21
106.0841421887098051
 31
0.0
  0
LINE
  5
7C45
  8
0
 10
3133.4641377371608542
 20
106.102187964709799
 30
0.0
 11
3133.4593333264610919
 21
106.0874015090097942
 31
0.0
  0
LINE
  5
7C46
  8
0
 10
3134.5552889855971443
 20
108.0298461071530056
 30
0.0
 11
3134.5157218161270976
 21
107.9100099579905958
 31
0.0
  0
LINE
  5
7C47
  8
0
 10
3133.4294893979608787
 20
106.0592534670097962
 30
0.0
 11
3133.4397637982610831
 21
106.0644885354097937
 31
0.0
  0
LINE
  5
7C48
  8
0
 10
3133.1971110910608331
 20
106.1034138056098044
 30
0.0
 11
3133.1975028055608163
 21
106.1032979477098053
 31
0.0
  0
LINE
  5
7C49
  8
0
 10
3133.1971110910608331
 20
106.1034138056098044
 30
0.0
 11
3133.1975020528611822
 21
106.1032955019097983
 31
0.0
  0
LINE
  5
7C4A
  8
0
 10
3133.1137900004409858
 20
106.1618304193114994
 30
0.0
 11
3133.4294893979608787
 21
106.0592534670097962
 31
0.0
  0
LINE
  5
7C4B
  8
0
 10
3136.1412780799610118
 20
102.7857692250098012
 30
0.0
 11
3136.1392104613610172
 21
102.6673154374097976
 31
0.0
  0
LINE
  5
7C4C
  8
0
 10
3136.3521619055609335
 20
105.1035620169098053
 30
0.0
 11
3136.3578247021609968
 21
104.8399218605098042
 31
0.0
  0
LINE
  5
7C4D
  8
0
 10
3136.3578230984608126
 20
107.7500054048097979
 30
0.0
 11
3136.3578230984608126
 21
107.6826476292097965
 31
0.0
  0
LINE
  5
7C4E
  8
0
 10
3136.3578230984608126
 20
107.3913093288097969
 30
0.0
 11
3136.3578230984608126
 21
106.8086319923097989
 31
0.0
  0
LINE
  5
7C4F
  8
0
 10
3136.3578247021609968
 20
104.8399218605098042
 30
0.0
 11
3136.3578247021609968
 21
102.8051107130097961
 31
0.0
  0
LINE
  5
7C50
  8
0
 10
3136.7160812295619507
 20
106.7776916643097991
 30
0.0
 11
3136.7160812295619507
 21
106.8086319923097989
 31
0.0
  0
LINE
  5
7C51
  8
0
 10
3136.3578230984608126
 20
106.8086319923097989
 30
0.0
 11
3137.6963866041610345
 21
106.8086319923097989
 31
0.0
  0
LINE
  5
7C52
  8
0
 10
3137.3381284736610723
 20
106.8086319923097989
 30
0.0
 11
3137.3381284736610723
 21
106.7716416575098037
 31
0.0
  0
LINE
  5
7C53
  8
0
 10
3137.6963850009610724
 20
106.7366988800097971
 30
0.0
 11
3137.6963850009610724
 21
102.8051107130097961
 31
0.0
  0
LINE
  5
7C54
  8
0
 10
3137.6963866048608907
 20
108.0204527918098023
 30
0.0
 11
3137.6963866048608907
 21
106.8086319923097989
 31
0.0
  0
LINE
  5
7C55
  8
0
 10
3137.9129316232611018
 20
102.7857692250098012
 30
0.0
 11
3137.9149992417619615
 21
102.6673154374097976
 31
0.0
  0
ARC
  5
7C56
  8
0
 10
3133.0629034320609207
 20
104.7726284323098014
 30
0.0
 40
1.3901336382
 50
88.1594270299975449
 51
90.7662505120982246
  0
ARC
  5
7C57
  8
0
 10
3133.0639622120870627
 20
104.8032596320709047
 30
0.0
 40
1.3594842376561871
 50
84.8184052427161532
 51
88.1625628242662316
  0
ARC
  5
7C58
  8
0
 10
3132.8576877777609297
 20
106.6028238517098004
 30
0.0
 40
0.5121855412
 50
230.6154989004010076
 51
240.2001293430905946
  0
ARC
  5
7C59
  8
0
 10
3133.4218901565609485
 20
106.0995675324097931
 30
0.0
 40
0.0393700787
 50
297.0000000000013074
 51
341.9999999999977263
  0
ARC
  5
7C5A
  8
0
 10
3133.1933591922488631
 20
106.575335617138407
 30
0.0
 40
0.4734993924340797
 50
276.9041100872021843
 51
279.2004304011035742
  0
ARC
  5
7C5B
  8
0
 10
3133.1920640008738701
 20
106.5719855386781063
 30
0.0
 40
0.4689745550241386
 50
275.739125344382785
 51
278.0352523619358749
  0
ARC
  5
7C5C
  8
0
 10
3133.1760758037130472
 20
106.5800845908212011
 30
0.0
 40
0.466077513581986
 50
275.9847075286847939
 51
278.2999147904469055
  0
ARC
  5
7C5D
  8
0
 10
3133.1746080757611708
 20
106.5779819180339985
 30
0.0
 40
0.4625532504750618
 50
274.8222509810227052
 51
277.1335307838767221
  0
ARC
  5
7C5E
  8
0
 10
3133.1975919489641456
 20
106.5602665168296994
 30
0.0
 40
0.4601216301770886
 50
271.3002684821295816
 51
273.5657895780111062
  0
ARC
  5
7C5F
  8
0
 10
3133.1817548075541708
 20
106.566909010346194
 30
0.0
 40
0.4563600050180667
 50
271.4746523616240097
 51
273.761614752547473
  0
ARC
  5
7C60
  8
0
 10
3133.1591527281611889
 20
106.5833243600097973
 30
0.0
 40
0.4545707942
 50
275.1506086485925948
 51
276.1201625783841109
  0
ARC
  5
7C61
  8
0
 10
3133.1800082589202248
 20
106.5654468494035001
 30
0.0
 40
0.4535663950453656
 50
270.3196227869299832
 51
272.6037916916366726
  0
ARC
  5
7C62
  8
0
 10
3133.1576082477608907
 20
106.5813190471098011
 30
0.0
 40
0.4508812988000001
 50
273.9820809667081107
 51
275.8126642824341843
  0
ARC
  5
7C63
  8
0
 10
3133.2347086111381032
 20
106.5552563896382026
 30
0.0
 40
0.471782844212718
 50
274.6520316464383882
 51
276.9146852156289924
  0
ARC
  5
7C64
  8
0
 10
3133.2331669353611687
 20
106.5521337901098065
 30
0.0
 40
0.4680780190000001
 50
273.4813740074891939
 51
275.7420369630243044
  0
ARC
  5
7C65
  8
0
 10
3133.215315323950108
 20
106.5558751040055938
 30
0.0
 40
0.4649903146599597
 50
272.3503311643398206
 51
274.607860761988718
  0
ARC
  5
7C66
  8
0
 10
3133.2401862418610108
 20
106.5448825928097989
 30
0.0
 40
0.4627364169
 50
270.319510347011601
 51
272.5580920805890059
  0
ARC
  5
7C67
  8
0
 10
3133.2221700433119622
 20
106.5479400175804017
 30
0.0
 40
0.4598688009037331
 50
269.1607204263506219
 51
271.397742546967379
  0
ARC
  5
7C68
  8
0
 10
3133.2383750435878937
 20
106.5419432326157931
 30
0.0
 40
0.4592959913541276
 50
269.154424156231812
 51
271.3941728326150837
  0
ARC
  5
7C69
  8
0
 10
3133.2042701153068265
 20
106.5523969616740061
 30
0.0
 40
0.4559754376772604
 50
268.0737534125773891
 51
270.3162623000441727
  0
ARC
  5
7C6A
  8
0
 10
3133.2202994397798648
 20
106.5460408238312056
 30
0.0
 40
0.4572188733200929
 50
268.0078437191965008
 51
270.2434170266419073
  0
ARC
  5
7C6B
  8
0
 10
3133.226798088734995
 20
106.5392279482194056
 30
0.0
 40
0.4529775695897479
 50
264.851454517294485
 51
267.0735627018029277
  0
ARC
  5
7C6C
  8
0
 10
3133.2059539849688008
 20
106.655599575265299
 30
0.0
 40
0.5582192796464827
 50
267.1348870497668031
 51
268.9556773243800762
  0
ARC
  5
7C6D
  8
0
 10
3133.2247686908949618
 20
106.5378055679008042
 30
0.0
 40
0.4508649609128517
 50
263.7029703291406122
 51
265.924863229606899
  0
ARC
  5
7C6E
  8
0
 10
3133.2283097937997809
 20
106.5676521321973951
 30
0.0
 40
0.4827668132835025
 50
279.0376803282489959
 51
281.216991055472306
  0
ARC
  5
7C6F
  8
0
 10
3133.2107697140108939
 20
106.5712203590185965
 30
0.0
 40
0.4790750277703242
 50
277.9184757244863135
 51
280.2081776227267937
  0
ARC
  5
7C70
  8
0
 10
3133.2271879773611545
 20
106.5637040056097931
 30
0.0
 40
0.478123458
 50
277.8553774152907749
 51
280.1483816533861955
  0
ARC
  5
7C71
  8
0
 10
3133.2096228194609466
 20
106.5670413899115943
 30
0.0
 40
0.4739599220018033
 50
276.7473552957004017
 51
279.0383362229363229
  0
ARC
  5
7C72
  8
0
 10
3133.2168618257610433
 20
106.5593241440098069
 30
0.0
 40
0.4692689392000001
 50
273.513545642974691
 51
275.7689554606988054
  0
ARC
  5
7C73
  8
0
 10
3133.1992580248338527
 20
106.5627779813729035
 30
0.0
 40
0.4637086389040224
 50
272.4561220844378227
 51
274.7216044415196166
  0
ARC
  5
7C74
  8
0
 10
3133.2430075855909308
 20
106.5335434969721007
 30
0.0
 40
0.45213428503055
 50
264.8595876124866777
 51
267.0859399367699893
  0
ARC
  5
7C75
  8
0
 10
3133.2723244514399994
 20
106.5188741136547037
 30
0.0
 40
0.4412069916685857
 50
258.6593864329921075
 51
260.8939224023711745
  0
ARC
  5
7C76
  8
0
 10
3133.2702243193839422
 20
106.5183727578357065
 30
0.0
 40
0.4406447042700973
 50
257.4977415055515166
 51
259.729401943718301
  0
ARC
  5
7C77
  8
0
 10
3133.2462231859608437
 20
106.5632999449098008
 30
0.0
 40
0.4832389386
 50
280.2749294644714269
 51
280.9769993005613742
  0
ARC
  5
7C78
  8
0
 10
3133.244816398660987
 20
106.5612181053098055
 30
0.0
 40
0.480729834
 50
279.0760592590938245
 51
281.0309953681418733
  0
ARC
  5
7C79
  8
0
 10
3133.2525666847182038
 20
106.5527988315784995
 30
0.0
 40
0.4734961312384901
 50
275.8949460353330778
 51
278.1718468615295023
  0
ARC
  5
7C7A
  8
0
 10
3133.2704940781650294
 20
106.551130086539203
 30
0.0
 40
0.4735660830378555
 50
277.2579615972937859
 51
279.5610236929150005
  0
ARC
  5
7C7B
  8
0
 10
3133.2691088443598346
 20
106.5478059921715044
 30
0.0
 40
0.470144367934459
 50
276.045656742008191
 51
278.3418024174259244
  0
ARC
  5
7C7C
  8
0
 10
3133.2511083764520663
 20
106.5495090842989043
 30
0.0
 40
0.4698656601404975
 50
274.7066132586322169
 51
276.9795457729566124
  0
ARC
  5
7C7D
  8
0
 10
3133.258333911660884
 20
106.5420669506105043
 30
0.0
 40
0.4634222312006867
 50
271.5604923974477174
 51
273.8136200727013829
  0
ARC
  5
7C7E
  8
0
 10
3133.2565987981611215
 20
106.538192292310697
 30
0.0
 40
0.4592956910009172
 50
270.3789865999956987
 51
272.6352918786699888
  0
ARC
  5
7C7F
  8
0
 10
3133.2450259348379404
 20
106.5352169715394979
 30
0.0
 40
0.4542449806746395
 50
266.0162523895035065
 51
268.2439097192739723
  0
ARC
  5
7C80
  8
0
 10
3133.2845759522037952
 20
106.5202808431688055
 30
0.0
 40
0.4423391629381645
 50
263.0570699374200103
 51
265.3163032991698174
  0
ARC
  5
7C81
  8
0
 10
3133.3034595288531818
 20
106.5180532160692053
 30
0.0
 40
0.4375267247483297
 50
264.4098460600129101
 51
266.7064631408067044
  0
ARC
  5
7C82
  8
0
 10
3133.2911089378121687
 20
106.5156463835739942
 30
0.0
 40
0.437020160572375
 50
259.9100070552573243
 51
262.1733300278569914
  0
ARC
  5
7C83
  8
0
 10
3133.2889892839680215
 20
106.5149549952587051
 30
0.0
 40
0.4365324312242472
 50
258.7293701734859042
 51
260.9882823387040958
  0
ARC
  5
7C84
  8
0
 10
3133.2955775655200341
 20
106.5117170491466965
 30
0.0
 40
0.4323412949679331
 50
255.5590638733544893
 51
257.8260525712095159
  0
ARC
  5
7C85
  8
0
 10
3133.2934983356949488
 20
106.5115460697674052
 30
0.0
 40
0.4324445519906277
 50
254.3818682108922928
 51
256.6449715756227761
  0
ARC
  5
7C86
  8
0
 10
3133.3006035622788659
 20
106.5278117098878994
 30
0.0
 40
0.4478979703981015
 50
269.997239042482704
 51
272.3059369580266775
  0
ARC
  5
7C87
  8
0
 10
3133.2986791378611997
 20
106.5253834971098001
 30
0.0
 40
0.4458143264000001
 50
268.7760801242117168
 51
271.0790082034254169
  0
ARC
  5
7C88
  8
0
 10
3133.2866788797609843
 20
106.5218420639098014
 30
0.0
 40
0.4437601322999999
 50
264.2436984072883774
 51
266.5063183507062945
  0
ARC
  5
7C89
  8
0
 10
3133.3055326594258077
 20
106.5195434029637056
 30
0.0
 40
0.4386027672001652
 50
265.6230951216077187
 51
267.9263910723843196
  0
ARC
  5
7C8A
  8
0
 10
3133.3245741267419362
 20
106.5184739844398933
 30
0.0
 40
0.4319847119446017
 50
267.1234536364150927
 51
269.4794348901507988
  0
ARC
  5
7C8B
  8
0
 10
3133.3101231002610803
 20
106.5134398266097975
 30
0.0
 40
0.4312598100000001
 50
261.2356343563965879
 51
263.5384323753967237
  0
ARC
  5
7C8C
  8
0
 10
3133.322520332212207
 20
106.5167103592919062
 30
0.0
 40
0.4309227557394208
 50
265.8728988808168765
 51
268.2202141693358044
  0
ARC
  5
7C8D
  8
0
 10
3133.3079602363650338
 20
106.5123137366449981
 30
0.0
 40
0.4306120326375851
 50
260.0273293805944945
 51
262.3252038030444737
  0
ARC
  5
7C8E
  8
0
 10
3133.3145896972359878
 20
106.508892469423003
 30
0.0
 40
0.4252486881458271
 50
256.8188137509063154
 51
259.1284344326898008
  0
ARC
  5
7C8F
  8
0
 10
3133.3124686315359213
 20
106.5085078768267977
 30
0.0
 40
0.4254151425642055
 50
255.6159647148508043
 51
257.920118209947077
  0
ARC
  5
7C90
  8
0
 10
3133.3192967403579132
 20
106.5064986349288034
 30
0.0
 40
0.4211967531285645
 50
252.3629040292329933
 51
254.6829021608687071
  0
ARC
  5
7C91
  8
0
 10
3133.3120347774611218
 20
106.5329829055097974
 30
0.0
 40
0.4503728568
 50
274.7274174241987907
 51
275.1015258249033195
  0
ARC
  5
7C92
  8
0
 10
3133.3175042613697769
 20
106.5255376567100001
 30
0.0
 40
0.4414335113973776
 50
270.3071456764873801
 51
272.6543800806393278
  0
ARC
  5
7C93
  8
0
 10
3133.3194480306610785
 20
106.5255449446098055
 30
0.0
 40
0.4408161384000001
 50
271.5629339675608094
 51
273.7392448318561264
  0
ARC
  5
7C94
  8
0
 10
3133.275463769461112
 20
106.6681474600098056
 30
0.0
 40
0.5905511811000002
 50
256.9718715628778796
 51
260.0706878477909072
  0
ARC
  5
7C95
  8
0
 10
3133.3292946601868607
 20
106.5117035387557962
 30
0.0
 40
0.4232357964363151
 50
262.6591392959570044
 51
265.0173064216219245
  0
ARC
  5
7C96
  8
0
 10
3133.3271136786611351
 20
106.5103143852097958
 30
0.0
 40
0.4226170113000001
 50
261.4156225287911184
 51
263.7670729961560028
  0
ARC
  5
7C97
  8
0
 10
3133.3338442080848836
 20
106.5069408470072005
 30
0.0
 40
0.4162574528173355
 50
258.1572381940155765
 51
260.5233330925153723
  0
ARC
  5
7C98
  8
0
 10
3133.3316847402920757
 20
106.5063197928910057
 30
0.0
 40
0.4164829366649391
 50
256.9197087633673959
 51
259.2784932755648128
  0
ARC
  5
7C99
  8
0
 10
3133.3465135951610137
 20
106.5094032955097987
 30
0.0
 40
0.4128168583
 50
262.9258832310902108
 51
264.8507064370006105
  0
ARC
  5
7C9A
  8
0
 10
3133.3364888255600818
 20
106.5042571141079009
 30
0.0
 40
0.4120758541980216
 50
252.3715528408937985
 51
254.7429473582938897
  0
ARC
  5
7C9B
  8
0
 10
3133.3384965503350941
 20
106.5040769131413043
 30
0.0
 40
0.4109514817615333
 50
253.6033113215173955
 51
255.9831444741928124
  0
ARC
  5
7C9C
  8
0
 10
3133.3417516760650869
 20
106.5038872908764063
 30
0.0
 40
0.4092064214658004
 50
247.7555444546738954
 51
250.1460728562034035
  0
ARC
  5
7C9D
  8
0
 10
3133.3436284380131838
 20
106.5033486977416004
 30
0.0
 40
0.407614642292668
 50
248.9840220634839909
 51
251.381694869424507
  0
ARC
  5
7C9E
  8
0
 10
3133.3511496884589178
 20
106.5050220977175996
 30
0.0
 40
0.4054893148516007
 50
258.3208852122360213
 51
260.7509062278516012
  0
ARC
  5
7C9F
  8
0
 10
3133.3558664678607784
 20
106.502368311209807
 30
0.0
 40
0.3996437114
 50
253.648686453803009
 51
255.9869812623784924
  0
ARC
  5
7CA0
  8
0
 10
3136.8293372545031161
 20
91.1289980538307844
 30
0.0
 40
15.6615463039968894
 50
86.9356838961556235
 51
87.4360504544770407
  0
ARC
  5
7CA1
  8
0
 10
3137.6766941489518103
 20
108.0204459474081062
 30
0.0
 40
0.0196924570977898
 50
0.019913987199868
 51
85.4438485014890574
  0
ARC
  5
7CA2
  8
0
 10
3137.8932495819608448
 20
102.7854256737097955
 30
0.0
 40
0.0196850394
 50
1.000000000000133
 51
90.0
  0
ARC
  5
7CA3
  8
0
 10
3136.1609601211612244
 20
102.7854256737097955
 30
0.0
 40
0.0196850394
 50
90.0
 51
178.9999999999998863
  0
LINE
  5
7CA4
  8
0
 10
3133.1748343920608022
 20
106.0881768522097985
 30
0.0
 11
3133.1739869545608599
 21
106.0882850103098036
 31
0.0
  0
LINE
  5
7CA5
  8
0
 10
3133.1770736202611261
 20
106.0950684879097992
 30
0.0
 11
3133.1762110788608879
 21
106.0951301609098039
 31
0.0
  0
LINE
  5
7CA6
  8
0
 10
3133.1810358405609804
 20
106.1072629481098062
 30
0.0
 11
3133.1801570216612163
 21
106.1072745242097994
 31
0.0
  0
LINE
  5
7CA7
  8
0
 10
3133.1972787317608891
 20
106.1020857679097986
 30
0.0
 11
3133.1810358405609804
 21
106.1072629481098062
 31
0.0
  0
LINE
  5
7CA8
  8
0
 10
3133.1868428810607838
 20
106.1251351811097976
 30
0.0
 11
3133.1859459572610831
 21
106.1250910358098025
 31
0.0
  0
LINE
  5
7CA9
  8
0
 10
3133.174497689160944
 20
106.0898568896098055
 30
0.0
 11
3133.1753165676609569
 21
106.0896608362098021
 31
0.0
  0
LINE
  5
7CAA
  8
0
 10
3133.1772468688609479
 20
106.0983179948098041
 30
0.0
 11
3133.178051496660828
 21
106.0980780821097937
 31
0.0
  0
LINE
  5
7CAB
  8
0
 10
3133.1881454757608481
 20
106.1318604577098057
 30
0.0
 11
3133.1889194678610693
 21
106.1315262580097993
 31
0.0
  0
LINE
  5
7CAC
  8
0
 10
3133.1817486093609659
 20
106.1121729273097998
 30
0.0
 11
3133.1825384522608147
 21
106.1118875116097939
 31
0.0
  0
ARC
  5
7CAD
  8
0
 10
3137.1211445597959937
 20
99.4151728252350466
 30
0.0
 40
8.6428776272207823
 50
86.3041915355541107
 51
90.3256709213840452
  0
ARC
  5
7CAE
  8
0
 10
3136.1682121868448121
 20
-368.0832180129181097
 30
0.0
 40
476.1419866450295899
 50
89.8912418628938354
 51
90.1410380688588617
  0
LINE
  5
7CAF
  8
0
 10
3134.5689710086921878
 20
108.0393941766451036
 30
0.0
 11
3134.9961524111608924
 21
108.0573260727097988
 31
0.0
  0
ARC
  5
7CB0
  8
0
 10
3134.5703649625361322
 20
108.0228197474043981
 30
0.0
 40
0.0166329435751828
 50
94.8074149527626844
 51
155.0115005768232095
  0
ARC
  5
7CB1
  8
0
 10
3127.6450743463428807
 20
-28.7924867032070111
 30
0.0
 40
136.8401999121554979
 50
86.3576836215741253
 51
86.9519339527263497
  0
ARC
  5
7CB2
  8
0
 10
3135.357761888452842
 20
114.3723996068301005
 30
0.0
 40
6.5328686150614654
 50
262.7939542749193151
 51
266.1698570719327108
  0
ARC
  5
7CB3
  8
0
 10
3134.5443543679848517
 20
107.932726982498906
 30
0.0
 40
0.0420353296526738
 50
236.5520390470626921
 51
261.7084564135693086
  0
ARC
  5
7CB4
  8
0
 10
3134.5258795089630439
 20
107.907086330014593
 30
0.0
 40
0.0105365007121469
 50
187.2615174416939965
 51
243.5438360804166962
  0
ARC
  5
7CB5
  8
0
 10
3134.5286368800980199
 20
107.9069788772241054
 30
0.0
 40
0.0132659838688298
 50
166.7920954026195943
 51
185.2954762741478874
  0
ARC
  5
7CB6
  8
0
 10
3136.3341828346069633
 20
107.7479181970503959
 30
0.0
 40
0.0237322251662765
 50
5.0455825724871319
 51
80.2435049590555849
  0
ARC
  5
7CB7
  8
0
 10
3134.2130734432489589
 20
107.356131559097193
 30
0.0
 40
2.169461644641955
 50
4.8044932924591741
 51
8.6562264394647777
  0
ARC
  5
7CB8
  8
0
 10
3135.7338296487041589
 20
107.5383444186525992
 30
0.0
 40
0.6410827894939173
 50
346.7409407406851756
 51
359.954647435120819
  0
ARC
  5
7CB9
  8
0
 10
3137.6648973711889994
 20
106.736706846039894
 30
0.0
 40
0.0314876307798185
 50
359.9855047872945875
 51
86.9820387483717923
  0
ARC
  5
7CBA
  8
0
 10
3135.4137410192502102
 20
104.8472132847485057
 30
0.0
 40
1.1520884756037011
 50
59.6636322559718693
 51
81.8706223876552457
  0
ARC
  5
7CBB
  8
0
 10
3135.6587911548358534
 20
105.2679552303857946
 30
0.0
 40
0.6651884984909975
 50
16.1818768008796283
 51
59.5766541947820087
  0
ARC
  5
7CBC
  8
0
 10
3134.8827768794089934
 20
105.0535968772558988
 30
0.0
 40
1.4702342909415
 50
1.9475419598752299
 51
15.7766005208628801
  0
ARC
  5
7CBD
  8
0
 10
3134.9874810763049027
 20
101.1040975781191946
 30
0.0
 40
4.9190387302934626
 50
83.1209111676507177
 51
89.4180791856668122
  0
ARC
  5
7CBE
  8
0
 10
3101.3285741305658121
 20
-1134.6047299303800173
 30
0.0
 40
1241.0854767609480405
 50
88.4436097808653869
 51
88.5106852103225066
  0
ARC
  5
7CBF
  8
0
 10
3132.9897626716851846
 20
104.4929652776040001
 30
0.0
 40
1.6776857153357301
 50
69.2178976716507321
 51
79.9641701923283534
  0
ARC
  5
7CC0
  8
0
 10
3133.072618905897798
 20
104.8867873787513929
 30
0.0
 40
1.2755164765354221
 50
80.5463138562166279
 51
84.8668153770167493
  0
ARC
  5
7CC1
  8
0
 10
3132.7357601190269634
 20
109.7090828733604013
 30
0.0
 40
3.5571215496158288
 50
270.0439386721280925
 51
273.8546312693558207
  0
ARC
  5
7CC2
  8
0
 10
3132.7634447659379475
 20
108.2282598816806001
 30
0.0
 40
2.076447494918336
 50
265.6947067975580126
 51
269.3113465784438176
  0
ARC
  5
7CC3
  8
0
 10
3132.6082102862669672
 20
106.1761793427265985
 30
0.0
 40
0.0185189191848373
 50
254.1290996197963921
 51
268.0003146820819211
  0
ARC
  5
7CC4
  8
0
 10
3132.584748921281971
 20
106.2745707334481011
 30
0.0
 40
0.0853332737601652
 50
219.4235071872392098
 51
232.4100190858916051
  0
ARC
  5
7CC5
  8
0
 10
3132.5364700402210474
 20
106.2368651814870049
 30
0.0
 40
0.0241430311336668
 50
159.0624702162594133
 51
223.0637052831673941
  0
ARC
  5
7CC6
  8
0
 10
3150.5210953371120013
 20
100.5335851409050036
 30
0.0
 40
18.8913792438356296
 50
160.8006691025422015
 51
162.4008805072826078
  0
ARC
  5
7CC7
  8
0
 10
3132.710317889435828
 20
106.7361047409967938
 30
0.0
 40
0.0315021536007065
 50
93.5400262999351355
 51
161.4600633550190878
  0
ARC
  5
7CC8
  8
0
 10
3133.4406161165461526
 20
95.1935601159048588
 30
0.0
 40
11.5971267026593896
 50
92.2796256450511549
 51
93.6200673953289169
  0
ARC
  5
7CC9
  8
0
 10
3133.22238159437984
 20
100.1349135541994002
 30
0.0
 40
6.6510380269632821
 50
90.0805624501444697
 51
92.0943073039719593
  0
ARC
  5
7CCA
  8
0
 10
3135.438064993395983
 20
13528.0315147336496011
 30
0.0
 40
13421.2457541654894158
 50
269.9905012445124726
 51
270.0046407025008079
  0
ARC
  5
7CCB
  8
0
 10
3137.0316462198989029
 20
116.4565204570369019
 30
0.0
 40
9.6839717090690751
 50
267.0017757339128934
 51
268.1326108707742151
  0
ARC
  5
7CCC
  8
0
 10
3137.3420280595569238
 20
112.2473343921810027
 30
0.0
 40
5.4756941232414178
 50
269.9591960713078151
 51
271.9667112605716852
  0
ARC
  5
7CCD
  8
0
 10
3137.2109728442351297
 20
125.6795343529014986
 30
0.0
 40
18.9083202515332403
 50
268.500213723161778
 51
270.3853084633876733
  0
LINE
  5
7CCE
  8
0
 10
3136.3535210519407883
 20
107.7616750812057944
 30
0.0
 11
3136.9113895285149738
 21
107.8278390594683032
 31
0.0
  0
LINE
  5
7CCF
  8
0
 10
3136.9113895285149738
 20
107.8278390594683032
 30
0.0
 11
3134.5162186513189226
 21
107.9028808958107959
 31
0.0
  0
ARC
  5
7CD0
  8
0
 10
3133.2751756255088367
 20
106.6817375154758025
 30
0.0
 40
0.6038937036069204
 50
260.3199504231976107
 51
277.6612059262236016
  0
LINE
  5
7CD1
  8
0
 10
3133.0449839509051344
 20
106.1244290129353942
 30
0.0
 11
3133.0574356224019539
 21
106.162751317206201
 31
0.0
  0
LINE
  5
7CD2
  8
0
 10
3133.0199855641221802
 20
106.1494152903139963
 30
0.0
 11
3133.0228957169570094
 21
106.1583718197023956
 31
0.0
  0
LINE
  5
7CD3
  8
0
 10
3133.017236384350781
 20
106.1409541851369056
 30
0.0
 11
3133.0189497740761908
 21
106.1462274564289032
 31
0.0
  0
LINE
  5
7CD4
  8
0
 10
3133.0161400260431037
 20
106.137579941304395
 30
0.0
 11
3133.0167256498489223
 21
106.1393823058051993
 31
0.0
  0
LINE
  5
7CD5
  8
0
 10
3133.019193589410861
 20
106.1496941452183052
 30
0.0
 11
3133.0221779332719052
 21
106.1588790112306953
 31
0.0
  0
LINE
  5
7CD6
  8
0
 10
3133.0164586604319084
 20
106.1412768993114071
 30
0.0
 11
3133.0182157129461302
 21
106.1466845510393995
 31
0.0
  0
LINE
  5
7CD7
  8
0
 10
3133.0153822433780988
 20
106.137964028331595
 30
0.0
 11
3133.0159764847749102
 21
106.139792915330105
 31
0.0
  0
LINE
  5
7CD8
  8
0
 10
3133.0067648922990884
 20
106.1463632997131015
 30
0.0
 11
3133.006181171911976
 21
106.1445667932411965
 31
0.0
  0
LINE
  5
7CD9
  8
0
 10
3133.0095595976758887
 20
106.154964518288196
 30
0.0
 11
3133.0083756850808641
 21
106.1513208099865011
 31
0.0
  0
LINE
  5
7CDA
  8
0
 10
3133.0000710531658115
 20
106.1460086893875001
 30
0.0
 11
3133.0003739145618056
 21
106.1469408007714037
 31
0.0
  0
LINE
  5
7CDB
  8
0
 10
3133.0014435079310715
 20
106.1502326705488031
 30
0.0
 11
3133.0023257905891114
 21
106.152948057594898
 31
0.0
  0
LINE
  5
7CDC
  8
0
 10
3133.0044953150049878
 20
106.1596251669573974
 30
0.0
 11
3133.0051197431398577
 21
106.1615469592229033
 31
0.0
  0
LINE
  5
7CDD
  8
0
 10
3132.9925947399988218
 20
106.1579197141499975
 30
0.0
 11
3132.9936061843241077
 21
106.1610326197625938
 31
0.0
  0
LINE
  5
7CDE
  8
0
 10
3132.9906872492679213
 20
106.1520490612277001
 30
0.0
 11
3132.9918613338841169
 21
106.1556625222549002
 31
0.0
  0
LINE
  5
7CDF
  8
0
 10
3132.9811314958310504
 20
106.1575602273631063
 30
0.0
 11
3132.980825835313226
 21
106.1566195010640996
 31
0.0
  0
ARC
  5
7CE0
  8
0
 10
3133.265024219217139
 20
106.5326567566331022
 30
0.0
 40
0.4559754376772604
 50
234.5204735351310887
 51
235.9262464957118937
  0
ARC
  5
7CE1
  8
0
 10
3133.2483201792310865
 20
106.5369363336559019
 30
0.0
 40
0.4572188733200929
 50
235.3582810289981921
 51
235.9921561890901103
  0
ARC
  5
7CE2
  8
0
 10
3133.2390581539721097
 20
106.5352444115358992
 30
0.0
 40
0.4529775695897479
 50
236.9264372064668862
 51
239.1485453909799901
  0
ARC
  5
7CE3
  8
0
 10
3133.3243229144459292
 20
106.6171391785512981
 30
0.0
 40
0.5582192796464827
 50
235.0443225839021864
 51
236.8651128585177901
  0
ARC
  5
7CE4
  8
0
 10
3133.2398639171351533
 20
106.5329008315627988
 30
0.0
 40
0.4508649609128517
 50
238.0751366786732035
 51
240.2970295791255921
  0
ARC
  5
7CE5
  8
0
 10
3133.2226031589430022
 20
106.5401732970987041
 30
0.0
 40
0.45213428503055
 50
237.1890019307880095
 51
239.1404122957827951
  0
ARC
  5
7CE6
  8
0
 10
3133.1902628690841084
 20
106.5455375381387029
 30
0.0
 40
0.4412069916685857
 50
243.1060775058899139
 51
245.3406134752825949
  0
ARC
  5
7CE7
  8
0
 10
3133.1916672220481814
 20
106.5438975061086069
 30
0.0
 40
0.4406447042700973
 50
244.2705979645409968
 51
246.5022584027369135
  0
ARC
  5
7CE8
  8
0
 10
3133.2219539237757999
 20
106.5427135223853981
 30
0.0
 40
0.4542449806746395
 50
237.3754298044887037
 51
237.9837475187705138
  0
ARC
  5
7CE9
  8
0
 10
3133.1744771363760265
 20
106.5521622475706067
 30
0.0
 40
0.4365324312242472
 50
243.8184971562305918
 51
245.2706297347916973
  0
ARC
  5
7CEA
  8
0
 10
3133.1672438876657907
 20
106.5534151888851966
 30
0.0
 40
0.4323412949679331
 50
246.1739473370639928
 51
248.4409360349098108
  0
ARC
  5
7CEB
  8
0
 10
3133.1688255207691327
 20
106.5520547230320005
 30
0.0
 40
0.4324445519906277
 50
247.3550283326499937
 51
249.6181316973803064
  0
ARC
  5
7CEC
  8
0
 10
3133.2754637791981622
 20
106.6681474568460004
 30
0.0
 40
0.5905511811000002
 50
243.9293120604739897
 51
247.0281283454027061
  0
LINE
  5
7CED
  8
0
 10
3133.0159764847749102
 20
106.139792915330105
 30
0.0
 11
3133.0167256498489223
 21
106.1393823058051993
 31
0.0
  0
LINE
  5
7CEE
  8
0
 10
3133.0182157129461302
 20
106.1466845510393995
 30
0.0
 11
3133.0189497740761908
 21
106.1462274564289032
 31
0.0
  0
LINE
  5
7CEF
  8
0
 10
3133.0221779332719052
 20
106.1588790112306953
 30
0.0
 11
3133.0228957169570094
 21
106.1583718197023956
 31
0.0
  0
LINE
  5
7CF0
  8
0
 10
3133.0131905695329806
 20
106.1618549683908981
 30
0.0
 11
3133.0221779332719052
 21
106.1588790112306953
 31
0.0
  0
LINE
  5
7CF1
  8
0
 10
3133.017236384350781
 20
106.1409541851369056
 30
0.0
 11
3133.0164586604319084
 21
106.1412768993114071
 31
0.0
  0
LINE
  5
7CF2
  8
0
 10
3133.0199855641221802
 20
106.1494152903139963
 30
0.0
 11
3133.019193589410861
 21
106.1496941452183052
 31
0.0
  0
ARC
  5
7CF3
  8
0
 10
3133.0666740032302187
 20
104.6545230098659971
 30
0.0
 40
1.508280514649212
 50
90.8494730274124578
 51
93.488853016199414
  0
ARC
  5
7CF4
  8
0
 10
3133.4619065771180431
 20
107.0064149821154018
 30
0.0
 40
0.9765198614211026
 50
240.0841052556667137
 51
242.8255372511991084
  0
ENDSEC
  0
EOF
