  0
SECTION
  2
HEADER
  9
$ACADVER
  1
AC1009
  9
$INSBASE
 10
3617.7169299412012151
 20
319.6467274615072824
 30
0.0
  9
$EXTMIN
 10
3616.5202401380961419
 20
316.4138242574301785
 30
0.0
  9
$EXTMAX
 10
3622.8980807027451192
 20
320.8318843963540985
 30
0.0
  9
$LIMMIN
 10
0.0
 20
0.0
  9
$LIMMAX
 10
11.6929133858000007
 20
8.2677165353999982
  9
$ORTHOMODE
 70
     0
  9
$REGENMODE
 70
     1
  9
$FILLMODE
 70
     1
  9
$QTEXTMODE
 70
     0
  9
$MIRRTEXT
 70
     0
  9
$DRAGMODE
 70
     2
  9
$LTSCALE
 40
0.6431102362
  9
$OSMODE
 70
  4095
  9
$ATTMODE
 70
     1
  9
$TEXTSIZE
 40
0.2
  9
$TRACEWID
 40
0.05
  9
$TEXTSTYLE
  7
STANDARD
  9
$CLAYER
  8
0
  9
$CELTYPE
  6
BYLAYER
  9
$CECOLOR
 62
   256
  9
$DIMSCALE
 40
1.0
  9
$DIMASZ
 40
0.1875
  9
$DIMEXO
 40
0.0625
  9
$DIMDLI
 40
0.4443307087
  9
$DIMRND
 40
0.0
  9
$DIMDLE
 40
0.0
  9
$DIMEXE
 40
0.125
  9
$DIMTP
 40
0.01
  9
$DIMTM
 40
0.01
  9
$DIMTXT
 40
2.0
  9
$DIMCEN
 40
0.1052362205
  9
$DIMTSZ
 40
0.0
  9
$DIMTOL
 70
     1
  9
$DIMLIM
 70
     0
  9
$DIMTIH
 70
     1
  9
$DIMTOH
 70
     1
  9
$DIMSE1
 70
     0
  9
$DIMSE2
 70
     0
  9
$DIMTAD
 70
     0
  9
$DIMZIN
 70
     0
  9
$DIMBLK
  1

  9
$DIMASO
 70
     1
  9
$DIMSHO
 70
     1
  9
$DIMPOST
  1
\X
  9
$DIMAPOST
  1

  9
$DIMALT
 70
     1
  9
$DIMALTD
 70
     2
  9
$DIMALTF
 40
25.3999999999999986
  9
$DIMLFAC
 40
1.0
  9
$DIMTOFL
 70
     0
  9
$DIMTVP
 40
0.0
  9
$DIMTIX
 70
     0
  9
$DIMSOXD
 70
     0
  9
$DIMSAH
 70
     0
  9
$DIMBLK1
  1

  9
$DIMBLK2
  1

  9
$DIMSTYLE
  2
STANDARD
  9
$DIMCLRD
 70
     0
  9
$DIMCLRE
 70
     0
  9
$DIMCLRT
 70
     0
  9
$DIMTFAC
 40
1.0
  9
$DIMGAP
 40
0.09
  9
$LUNITS
 70
     2
  9
$LUPREC
 70
     4
  9
$SKETCHINC
 40
0.1
  9
$FILLETRAD
 40
0.0
  9
$AUNITS
 70
     0
  9
$AUPREC
 70
     0
  9
$MENU
  1
.
  9
$ELEVATION
 40
0.0
  9
$PELEVATION
 40
0.0
  9
$THICKNESS
 40
0.0
  9
$LIMCHECK
 70
     0
  9
$BLIPMODE
 70
     0
  9
$CHAMFERA
 40
0.0
  9
$CHAMFERB
 40
0.0
  9
$SKPOLY
 70
     0
  9
$TDCREATE
 40
2458060.468368056230247
  9
$TDUPDATE
 40
2459949.9738773149438202
  9
$TDINDWG
 40
0.7460371528
  9
$TDUSRTIMER
 40
0.7460371528
  9
$USRTIMER
 70
     1
  9
$ANGBASE
 50
0.0
  9
$ANGDIR
 70
     0
  9
$PDMODE
 70
     0
  9
$PDSIZE
 40
0.3125
  9
$PLINEWID
 40
0.0
  9
$COORDS
 70
     1
  9
$SPLFRAME
 70
     0
  9
$SPLINETYPE
 70
     6
  9
$SPLINESEGS
 70
     8
  9
$ATTDIA
 70
     1
  9
$ATTREQ
 70
     1
  9
$HANDLING
 70
     1
  9
$HANDSEED
  5
D7EE
  9
$SURFTAB1
 70
     6
  9
$SURFTAB2
 70
     6
  9
$SURFTYPE
 70
     6
  9
$SURFU
 70
     6
  9
$SURFV
 70
     6
  9
$UCSNAME
  2

  9
$UCSORG
 10
0.0
 20
0.0
 30
0.0
  9
$UCSXDIR
 10
1.0
 20
0.0
 30
0.0
  9
$UCSYDIR
 10
0.0
 20
1.0
 30
0.0
  9
$PUCSNAME
  2

  9
$PUCSORG
 10
0.0
 20
0.0
 30
0.0
  9
$PUCSXDIR
 10
1.0
 20
0.0
 30
0.0
  9
$PUCSYDIR
 10
0.0
 20
1.0
 30
0.0
  9
$USERI1
 70
     0
  9
$USERI2
 70
     0
  9
$USERI3
 70
     0
  9
$USERI4
 70
     0
  9
$USERI5
 70
     0
  9
$USERR1
 40
0.0
  9
$USERR2
 40
0.0
  9
$USERR3
 40
0.0
  9
$USERR4
 40
0.0
  9
$USERR5
 40
0.0
  9
$WORLDVIEW
 70
     1
  9
$SHADEDGE
 70
     3
  9
$SHADEDIF
 70
    70
  9
$TILEMODE
 70
     1
  9
$MAXACTVP
 70
    64
  9
$PLIMCHECK
 70
     0
  9
$PEXTMIN
 10
1.0000000000000000E+20
 20
1.0000000000000000E+20
 30
1.0000000000000000E+20
  9
$PEXTMAX
 10
-1.0000000000000000E+20
 20
-1.0000000000000000E+20
 30
-1.0000000000000000E+20
  9
$PLIMMIN
 10
0.0
 20
0.0
  9
$PLIMMAX
 10
12.0
 20
9.0
  9
$UNITMODE
 70
     0
  9
$VISRETAIN
 70
     1
  9
$PLINEGEN
 70
     0
  9
$PSLTSCALE
 70
     1
  0
ENDSEC
  0
SECTION
  2
TABLES
  0
TABLE
  2
VPORT
 70
     1
  0
VPORT
  2
*ACTIVE
 70
     0
 10
0.0
 20
0.0
 11
1.0
 21
1.0
 12
38.5631665888036821
 22
-3.706553511026188
 13
0.0
 23
0.0
 14
1.0
 24
1.0
 15
0.0
 25
0.0
 16
0.0
 26
0.0
 36
24.2172351446446505
 17
3580.69287109375
 27
322.4241180419921875
 37
0.0
 40
16.3030093168482004
 41
2.5251322751322749
 42
50.0
 43
0.0
 44
0.0
 50
0.0
 51
0.0
 71
     0
 72
   100
 73
     1
 74
     1
 75
     0
 76
     0
 77
     0
 78
     0
  0
ENDTAB
  0
TABLE
  2
LTYPE
 70
     3
  0
LTYPE
  2
CONTINUOUS
 70
     0
  3
Solid line
 72
    65
 73
     0
 40
0.0
  0
LTYPE
  2
PHANTOM2
 70
     0
  3
___ _ _ ___ _ _ ___ _ _ ___ _ _
 72
    65
 73
     6
 40
1.25
 49
0.625
 49
-0.125
 49
0.125
 49
-0.125
 49
0.125
 49
-0.125
  0
ENDTAB
  0
TABLE
  2
LAYER
 70
     2
  0
LAYER
  2
0
 70
     0
 62
   255
  6
CONTINUOUS
  0
LAYER
  2
DEFPOINTS
 70
     0
 62
     7
  6
CONTINUOUS
  0
ENDTAB
  0
TABLE
  2
STYLE
 70
     1
  0
STYLE
  2
STANDARD
 70
     0
 40
0.0
 41
0.8
 50
0.0
 71
     0
 42
0.2
  3
txt
  4

  0
ENDTAB
  0
TABLE
  2
VIEW
 70
     0
  0
ENDTAB
  0
TABLE
  2
UCS
 70
     0
  0
ENDTAB
  0
TABLE
  2
APPID
 70
     9
  0
APPID
  2
ACAD
 70
     0
  0
APPID
  2
ACAD_MLEADERVER
 70
     0
  0
APPID
  2
ACAD_EXEMPT_FROM_CAD_STANDARDS
 70
     0
  0
APPID
  2
ACAD_NAV_VCDISPLAY
 70
     0
  0
APPID
  2
ACAECLAYERSTANDARD
 70
     0
  0
APPID
  2
ACCMTRANSPARENCY
 70
     0
  0
APPID
  2
ACAD_DSTYLE_DIMJAG
 70
     0
  0
APPID
  2
ACAD_DSTYLE_DIMTALN
 70
     0
  0
APPID
  2
ACDBATTR
 70
     0
  0
ENDTAB
  0
TABLE
  2
DIMSTYLE
 70
     2
  0
DIMSTYLE
  2
STANDARD
 70
     0
  3

  4

  5

  6

  7

 40
1.0
 41
0.1875
 42
0.0625
 43
0.38
 44
0.125
 45
0.0
 46
0.0
 47
0.01
 48
0.01
140
0.15625
141
0.09
142
0.0
143
25.3999999999999986
144
1.0
145
0.0
146
1.0
147
0.09
 71
     1
 72
     0
 73
     1
 74
     1
 75
     0
 76
     0
 77
     0
 78
     4
170
     0
171
     2
172
     0
173
     0
174
     0
175
     0
176
     0
177
     0
178
     0
  0
ENDTAB
  0
ENDSEC
  0
SECTION
  2
BLOCKS
  0
BLOCK
  8
0
  2
$MODEL_SPACE
 70
     0
 10
0.0
 20
0.0
 30
0.0
  3
$MODEL_SPACE
  1

  0
ENDBLK
  5
21
  8
0
  0
BLOCK
 67
     1
  8
0
  2
$PAPER_SPACE
 70
     0
 10
0.0
 20
0.0
 30
0.0
  3
$PAPER_SPACE
  1

  0
ENDBLK
  5
1D
 67
     1
  8
0
  0
BLOCK
  8
0
  2
_FILLED
 70
     0
 10
0.0
 20
0.0
 30
0.0
  3
_FILLED
  1

  0
SOLID
  5
D26B
  8
0
  6
BYBLOCK
 62
     0
 10
0.0
 20
0.0
 30
0.0
 11
-1.0
 21
0.1666666667
 31
0.0
 12
-1.0
 22
-0.1666666667
 32
0.0
 13
-1.0
 23
-0.1666666667
 33
0.0
  0
ENDBLK
  5
D26C
  8
0
  6
BYBLOCK
 62
     0
  0
ENDSEC
  0
SECTION
  2
ENTITIES
  0
ATTDEF
  5
3930
  8
DEFPOINTS
 10
3617.7170261359187862
 20
319.6484074906924775
 30
0.0
 40
0.001
  1
K-26048ME-4ND
  3

  2
MODELNUMBER
 70
     0
1001
ACDBATTR
1070
     0
1070
     1
  0
ATTDEF
  5
3931
  8
DEFPOINTS
 10
3617.7170261359187862
 20
319.6467408240258123
 30
0.0
 40
0.001
  1
BEAM
  3

  2
TRADENAME
 70
     0
1001
ACDBATTR
1070
     0
1070
     1
  0
ATTDEF
  5
3932
  8
DEFPOINTS
 10
3617.7170261359187862
 20
319.6450741573590903
 30
0.0
 40
0.001
  1
BATHROOM SINK FAUCET
  3

  2
PRODUCT
 70
     0
1001
ACDBATTR
1070
     0
1070
     1
  0
ARC
  5
D465
  8
0
 10
3621.7169786965041567
 20
319.6350027463914785
 30
0.0
 40
0.8267530279633019
 50
356.7206841884429878
 51
183.2857421764219907
  0
ARC
  5
D466
  8
0
 10
3621.7169783405461203
 20
319.6351461938542116
 30
0.0
 40
1.1811023622000021
 50
311.3062804759994719
 51
228.8161669935344946
  0
ARC
  5
D467
  8
0
 10
3621.7177892249451361
 20
319.6350292205540882
 30
0.0
 40
0.8374771759184376
 50
347.4222678535942919
 51
192.0866518776701071
  0
ARC
  5
D468
  8
0
 10
3617.6950840493777832
 20
320.2000268066457807
 30
0.0
 40
0.8184097528306926
 50
256.6791196485086743
 51
264.8287213631488726
  0
ARC
  5
D469
  8
0
 10
3617.5926539365209464
 20
319.7674211920697758
 30
0.0
 40
0.3738430584163145
 50
244.2895909705991926
 51
256.6791196485086743
  0
ARC
  5
D46A
  8
0
 10
3617.488267412472851
 20
319.5506228184535189
 30
0.0
 40
0.1332228572576609
 50
228.7580813854584108
 51
244.2895909705991926
  0
ARC
  5
D46B
  8
0
 10
3617.5318048723988795
 20
319.6002819043837917
 30
0.0
 40
0.1992647775228109
 50
219.3309149527659088
 51
228.7580813854584108
  0
ARC
  5
D46C
  8
0
 10
3617.4200850264419387
 20
319.5087395616358208
 30
0.0
 40
0.0548302785395653
 50
195.7130003394964035
 51
219.3309149527659088
  0
ARC
  5
D46D
  8
0
 10
3617.6524107461600579
 20
288.0550552141689877
 30
0.0
 40
31.4432136957033812
 50
89.882433131575084
 51
90.0375627547893345
  0
ARC
  5
D46E
  8
0
 10
3617.6348125557510684
 20
314.8981847594184842
 30
0.0
 40
4.600078381821846
 50
90.0375627547893345
 51
91.1036070519522809
  0
ARC
  5
D46F
  8
0
 10
3618.3835565817839779
 20
276.0305760242584938
 30
0.0
 40
43.474898335179887
 50
91.1036070519522809
 51
91.3042800857624002
  0
ARC
  5
D470
  8
0
 10
3617.3657814787479765
 20
320.7327419153878054
 30
0.0
 40
1.238852363217082
 50
269.3969963656408027
 51
271.3042800857622865
  0
ARC
  5
D471
  8
0
 10
3617.3608972596998683
 20
320.2686737249027829
 30
0.0
 40
0.774758470760303
 50
263.9762397931327769
 51
269.3969963656408027
  0
ARC
  5
D472
  8
0
 10
3617.7212378328781597
 20
320.1832074139799147
 30
0.0
 40
0.7374066707633764
 50
266.1780465759885033
 51
269.6652791119595918
  0
ARC
  5
D473
  8
0
 10
3617.7168112597860272
 20
320.0627095671381994
 30
0.0
 40
0.6168923456009371
 50
256.9629302062950273
 51
265.8422716440906015
  0
ARC
  5
D474
  8
0
 10
3617.7151408687691401
 20
320.0554956060415179
 30
0.0
 40
0.6094875200898614
 50
246.6443075524099982
 51
256.9629302062950273
  0
ARC
  5
D475
  8
0
 10
3617.7169302877869086
 20
320.0326836600499973
 30
0.0
 40
0.6185024531620757
 50
265.1304475528078797
 51
269.9999678923996953
  0
ARC
  5
D476
  8
0
 10
3617.7167316031282098
 20
320.0303515422683063
 30
0.0
 40
0.6161618872174119
 50
254.206138122266708
 51
265.1304475528078797
  0
ARC
  5
D477
  8
0
 10
3617.713968486291833
 20
320.0205829000516928
 30
0.0
 40
0.606009981711202
 50
245.2897643966911119
 51
254.206138122266708
  0
LINE
  5
D478
  8
0
 10
3617.7087761308757763
 20
319.4007497072138904
 30
0.0
 11
3617.6989329524230925
 21
319.3998862873204985
 31
0.0
  0
LINE
  5
D479
  8
0
 10
3617.6989329524230925
 20
319.3998862873204985
 30
0.0
 11
3617.6790548744011176
 21
319.4008310740572938
 31
0.0
  0
LINE
  5
D47A
  8
0
 10
3617.6790548744011176
 20
319.4008310740572938
 30
0.0
 11
3617.6694060521681422
 21
319.4025691838339753
 31
0.0
  0
LINE
  5
D47B
  8
0
 10
3617.6694060521681422
 20
319.4025691838339753
 30
0.0
 11
3617.679248571917924
 21
319.4034533908563276
 31
0.0
  0
LINE
  5
D47C
  8
0
 10
3617.679248571917924
 20
319.4034533908563276
 30
0.0
 11
3617.6989336112051205
 21
319.4025501602823738
 31
0.0
  0
LINE
  5
D47D
  8
0
 10
3617.6989336112051205
 20
319.4025501602823738
 30
0.0
 11
3617.7087761308757763
 21
319.4007497072138904
 31
0.0
  0
LINE
  5
D47E
  8
0
 10
3617.7087761309007874
 20
319.4077746536573272
 30
0.0
 11
3617.6694060521490428
 21
319.4095607041833205
 31
0.0
  0
LINE
  5
D47F
  8
0
 10
3617.6694060521490428
 20
319.4095607041833205
 30
0.0
 11
3617.6792485719020078
 21
319.4061725042068929
 31
0.0
  0
LINE
  5
D480
  8
0
 10
3617.6792485719020078
 20
319.4061725042068929
 30
0.0
 11
3617.6989336112610545
 21
319.4052757234202886
 31
0.0
  0
LINE
  5
D481
  8
0
 10
3617.6989336112610545
 20
319.4052757234202886
 30
0.0
 11
3617.7087761309007874
 21
319.4077746536573272
 31
0.0
  0
LINE
  5
D482
  8
0
 10
3617.6809372802681537
 20
319.4046114950423885
 30
0.0
 11
3617.6710947616011254
 21
319.4076653121852019
 31
0.0
  0
LINE
  5
D483
  8
0
 10
3617.6710947616011254
 20
319.4076653121852019
 30
0.0
 11
3617.6514097219310315
 21
319.4094618185860099
 31
0.0
  0
LINE
  5
D484
  8
0
 10
3617.6514097219310315
 20
319.4094618185860099
 30
0.0
 11
3617.6415672027328583
 21
319.4082249557566797
 31
0.0
  0
LINE
  5
D485
  8
0
 10
3617.6415672027328583
 20
319.4082249557566797
 30
0.0
 11
3617.6514097222011515
 21
319.4051948295905845
 31
0.0
  0
LINE
  5
D486
  8
0
 10
3617.6514097222011515
 20
319.4051948295905845
 30
0.0
 11
3617.6710947616011254
 21
319.4033777134208094
 31
0.0
  0
LINE
  5
D487
  8
0
 10
3617.6710947616011254
 20
319.4033777134208094
 30
0.0
 11
3617.6809372802681537
 21
319.4046114950423885
 31
0.0
  0
LINE
  5
D488
  8
0
 10
3617.653098431619128
 20
319.4110446881499001
 30
0.0
 11
3617.613728352884209
 21
319.4164523398550273
 31
0.0
  0
LINE
  5
D489
  8
0
 10
3617.613728352884209
 20
319.4164523398550273
 30
0.0
 11
3617.6235708726007942
 21
319.4121797610573026
 31
0.0
  0
LINE
  5
D48A
  8
0
 10
3617.6235708726007942
 20
319.4121797610573026
 30
0.0
 11
3617.6432559119011785
 21
319.4094643740572792
 31
0.0
  0
LINE
  5
D48B
  8
0
 10
3617.6432559119011785
 20
319.4094643740572792
 30
0.0
 11
3617.653098431619128
 21
319.4110446881499001
 31
0.0
  0
LINE
  5
D48C
  8
0
 10
3617.6530984316000286
 20
319.4040811099255848
 30
0.0
 11
3617.6432559118748031
 21
319.406769118837417
 31
0.0
  0
LINE
  5
D48D
  8
0
 10
3617.6432559118748031
 20
319.406769118837417
 30
0.0
 11
3617.6235708726007942
 21
319.4095044046571843
 31
0.0
  0
LINE
  5
D48E
  8
0
 10
3617.6235708726007942
 20
319.4095044046571843
 30
0.0
 11
3617.6137283529160413
 21
319.4095919018772065
 31
0.0
  0
LINE
  5
D48F
  8
0
 10
3617.6137283529160413
 20
319.4095919018772065
 30
0.0
 11
3617.6235708729418548
 21
319.4069429599763907
 31
0.0
  0
LINE
  5
D490
  8
0
 10
3617.6235708729418548
 20
319.4069429599763907
 30
0.0
 11
3617.6432559119011785
 21
319.4041670589572846
 31
0.0
  0
LINE
  5
D491
  8
0
 10
3617.6432559119011785
 20
319.4041670589572846
 30
0.0
 11
3617.6530984316000286
 21
319.4040811099255848
 31
0.0
  0
LINE
  5
D492
  8
0
 10
3617.6252595819378257
 20
319.4104821476253164
 30
0.0
 11
3617.6154170622280617
 21
319.4144193288415181
 31
0.0
  0
LINE
  5
D493
  8
0
 10
3617.6154170622280617
 20
319.4144193288415181
 30
0.0
 11
3617.5957320229008474
 21
319.4180630371571965
 31
0.0
  0
LINE
  5
D494
  8
0
 10
3617.5957320229008474
 20
319.4180630371571965
 30
0.0
 11
3617.5858895032088185
 21
319.4178123223791204
 31
0.0
  0
LINE
  5
D495
  8
0
 10
3617.5858895032088185
 20
319.4178123223791204
 30
0.0
 11
3617.5957320229008474
 21
319.413896647457193
 31
0.0
  0
LINE
  5
D496
  8
0
 10
3617.5957320229008474
 20
319.413896647457193
 30
0.0
 11
3617.6154170625241022
 21
319.4102099287189276
 31
0.0
  0
LINE
  5
D497
  8
0
 10
3617.6154170625241022
 20
319.4102099287189276
 30
0.0
 11
3617.6252595819378257
 21
319.4104821476253164
 31
0.0
  0
LINE
  5
D498
  8
0
 10
3617.596976900428217
 20
319.4195654781227063
 30
0.0
 11
3617.5580506536011853
 21
319.4286468000573223
 31
0.0
  0
LINE
  5
D499
  8
0
 10
3617.5580506536011853
 20
319.4286468000573223
 30
0.0
 11
3617.5678931735938022
 21
319.4234696197631251
 31
0.0
  0
LINE
  5
D49A
  8
0
 10
3617.5678931735938022
 20
319.4234696197631251
 30
0.0
 11
3617.5886923407479117
 21
319.4188907723175816
 31
0.0
  0
LINE
  5
D49B
  8
0
 10
3617.5886923407479117
 20
319.4188907723175816
 30
0.0
 11
3617.596976900428217
 21
319.4195654781227063
 31
0.0
  0
LINE
  5
D49C
  8
0
 10
3617.597420732377941
 20
319.4126598116491209
 30
0.0
 11
3617.5875782126549893
 21
319.4162313066332217
 31
0.0
  0
LINE
  5
D49D
  8
0
 10
3617.5875782126549893
 20
319.4162313066332217
 30
0.0
 11
3617.5678931728389216
 21
319.4208791883482945
 31
0.0
  0
LINE
  5
D49E
  8
0
 10
3617.5678931728389216
 20
319.4208791883482945
 30
0.0
 11
3617.5580506535520726
 21
319.4220268268832115
 31
0.0
  0
LINE
  5
D49F
  8
0
 10
3617.5580506535520726
 20
319.4220268268832115
 30
0.0
 11
3617.5678931732800265
 21
319.4184912362543969
 31
0.0
  0
LINE
  5
D4A0
  8
0
 10
3617.5678931732800265
 20
319.4184912362543969
 30
0.0
 11
3617.5875782126008744
 21
319.4137715522572876
 31
0.0
  0
LINE
  5
D4A1
  8
0
 10
3617.5875782126008744
 20
319.4137715522572876
 30
0.0
 11
3617.597420732377941
 21
319.4126598116491209
 31
0.0
  0
LINE
  5
D4A2
  8
0
 10
3617.5695818824160597
 20
319.4216472185947282
 30
0.0
 11
3617.5597393630009719
 21
319.4264842136931861
 31
0.0
  0
LINE
  5
D4A3
  8
0
 10
3617.5597393630009719
 20
319.4264842136931861
 30
0.0
 11
3617.5400543236260091
 21
319.4320840001543047
 31
0.0
  0
LINE
  5
D4A4
  8
0
 10
3617.5400543236260091
 20
319.4320840001543047
 30
0.0
 11
3617.5302118038530352
 21
319.4329160798531007
 31
0.0
  0
LINE
  5
D4A5
  8
0
 10
3617.5302118038530352
 20
319.4329160798531007
 30
0.0
 11
3617.540054323600998
 21
319.4280887503571762
 31
0.0
  0
LINE
  5
D4A6
  8
0
 10
3617.540054323600998
 20
319.4280887503571762
 30
0.0
 11
3617.5597393632538115
 21
319.422419514888702
 31
0.0
  0
LINE
  5
D4A7
  8
0
 10
3617.5597393632538115
 20
319.422419514888702
 30
0.0
 11
3617.5695818824160597
 21
319.4216472185947282
 31
0.0
  0
LINE
  5
D4A8
  8
0
 10
3617.5419543122388859
 20
319.433261463025417
 30
0.0
 11
3617.5026152634509344
 21
319.4464969604072735
 31
0.0
  0
LINE
  5
D4A9
  8
0
 10
3617.5026152634509344
 20
319.4464969604072735
 30
0.0
 11
3617.5122154739719917
 21
319.4403873250132051
 31
0.0
  0
LINE
  5
D4AA
  8
0
 10
3617.5122154739719917
 20
319.4403873250132051
 30
0.0
 11
3617.5319005133010251
 21
319.4337325839418895
 31
0.0
  0
LINE
  5
D4AB
  8
0
 10
3617.5319005133010251
 20
319.4337325839418895
 30
0.0
 11
3617.5419543122388859
 21
319.433261463025417
 31
0.0
  0
LINE
  5
D4AC
  8
0
 10
3617.5417430329971467
 20
319.4267455631750181
 30
0.0
 11
3617.5319005133010251
 21
319.4312225607573055
 31
0.0
  0
LINE
  5
D4AD
  8
0
 10
3617.5319005133010251
 20
319.4312225607573055
 30
0.0
 11
3617.5122154739010512
 21
319.4379311639277716
 31
0.0
  0
LINE
  5
D4AE
  8
0
 10
3617.5122154739010512
 20
319.4379311639277716
 30
0.0
 11
3617.5023729543117952
 21
319.4402726233493013
 31
0.0
  0
LINE
  5
D4AF
  8
0
 10
3617.5023729543117952
 20
319.4402726233493013
 30
0.0
 11
3617.5125381337011277
 21
319.4357005948572805
 31
0.0
  0
LINE
  5
D4B0
  8
0
 10
3617.5125381337011277
 20
319.4357005948572805
 30
0.0
 11
3617.5319005133010251
 21
319.4289991094879042
 31
0.0
  0
LINE
  5
D4B1
  8
0
 10
3617.5319005133010251
 20
319.4289991094879042
 30
0.0
 11
3617.5417430305988091
 21
319.4267455642656159
 31
0.0
  0
LINE
  5
D4B2
  8
0
 10
3617.5139041237780475
 20
319.4384498599267772
 30
0.0
 11
3617.5040616636429149
 21
319.4442322487710726
 31
0.0
  0
LINE
  5
D4B3
  8
0
 10
3617.5040616636429149
 20
319.4442322487710726
 30
0.0
 11
3617.484376805824013
 21
319.451972870440386
 31
0.0
  0
LINE
  5
D4B4
  8
0
 10
3617.484376805824013
 20
319.451972870440386
 30
0.0
 11
3617.4745341046400426
 21
319.4540348063615056
 31
0.0
  0
LINE
  5
D4B5
  8
0
 10
3617.4745341046400426
 20
319.4540348063615056
 30
0.0
 11
3617.4843766243011487
 21
319.4482369281573142
 31
0.0
  0
LINE
  5
D4B6
  8
0
 10
3617.4843766243011487
 20
319.4482369281573142
 30
0.0
 11
3617.5040616636088089
 21
319.4403929436923022
 31
0.0
  0
LINE
  5
D4B7
  8
0
 10
3617.5040616636088089
 20
319.4403929436923022
 30
0.0
 11
3617.5139041237780475
 21
319.4384498599267772
 31
0.0
  0
LINE
  5
D4B8
  8
0
 10
3617.4855982177441547
 20
319.4531123274051083
 30
0.0
 11
3617.4731531604011252
 21
319.4584998686573272
 31
0.0
  0
LINE
  5
D4B9
  8
0
 10
3617.4731531604011252
 20
319.4584998686573272
 30
0.0
 11
3617.4682443354690804
 21
319.463508527546594
 31
0.0
  0
LINE
  5
D4BA
  8
0
 10
3617.4682443354690804
 20
319.463508527546594
 30
0.0
 11
3617.4565377746012018
 21
319.4688689450571815
 31
0.0
  0
LINE
  5
D4BB
  8
0
 10
3617.4565377746012018
 20
319.4688689450571815
 30
0.0
 11
3617.4466946261609337
 21
319.4706861572043977
 31
0.0
  0
LINE
  5
D4BC
  8
0
 10
3617.4466946261609337
 20
319.4706861572043977
 30
0.0
 11
3617.4565377746089325
 21
319.4635096354302277
 31
0.0
  0
LINE
  5
D4BD
  8
0
 10
3617.4565377746089325
 20
319.4635096354302277
 30
0.0
 11
3617.4762236078768183
 21
319.454576755408084
 31
0.0
  0
LINE
  5
D4BE
  8
0
 10
3617.4762236078768183
 20
319.454576755408084
 30
0.0
 11
3617.4855982177441547
 21
319.4531123274051083
 31
0.0
  0
LINE
  5
D4BF
  8
0
 10
3617.4576567002550291
 20
319.4703052110007206
 30
0.0
 11
3617.4483839643157808
 21
319.4787274753279007
 31
0.0
  0
LINE
  5
D4C0
  8
0
 10
3617.4483839643157808
 20
319.4787274753279007
 30
0.0
 11
3617.4286989249899307
 21
319.4887645448986859
 31
0.0
  0
LINE
  5
D4C1
  8
0
 10
3617.4286989249899307
 20
319.4887645448986859
 30
0.0
 11
3617.4188564052960828
 21
319.4903712205323245
 31
0.0
  0
LINE
  5
D4C2
  8
0
 10
3617.4188564052960828
 20
319.4903712205323245
 30
0.0
 11
3617.4286989250281295
 21
319.4817538103591801
 31
0.0
  0
LINE
  5
D4C3
  8
0
 10
3617.4286989250281295
 20
319.4817538103591801
 30
0.0
 11
3617.4483839644008185
 21
319.4716453119572748
 31
0.0
  0
LINE
  5
D4C4
  8
0
 10
3617.4483839644008185
 20
319.4716453119572748
 30
0.0
 11
3617.4576567002550291
 21
319.4703052110007206
 31
0.0
  0
LINE
  5
D4C5
  8
0
 10
3617.4606385169049645
 20
319.4700631233462786
 30
0.0
 11
3617.4601331013391246
 21
319.4716981986375117
 31
0.0
  0
LINE
  5
D4C6
  8
0
 10
3617.4601331013391246
 20
319.4716981986375117
 30
0.0
 11
3617.4565377746339436
 21
319.4733696470628956
 31
0.0
  0
LINE
  5
D4C7
  8
0
 10
3617.4565377746339436
 20
319.4733696470628956
 30
0.0
 11
3617.446695254936003
 21
319.4822367197115796
 31
0.0
  0
LINE
  5
D4C8
  8
0
 10
3617.446695254936003
 20
319.4822367197115796
 30
0.0
 11
3617.456537774617118
 21
319.482199381003511
 31
0.0
  0
LINE
  5
D4C9
  8
0
 10
3617.456537774617118
 20
319.482199381003511
 30
0.0
 11
3617.458555523501218
 21
319.4812609779572767
 31
0.0
  0
LINE
  5
D4CA
  8
0
 10
3617.458555523501218
 20
319.4812609779572767
 30
0.0
 11
3617.4762228140011757
 21
319.4916900348572995
 31
0.0
  0
LINE
  5
D4CB
  8
0
 10
3617.4762228140011757
 20
319.4916900348572995
 30
0.0
 11
3617.4832978346707932
 21
319.4918256275212229
 31
0.0
  0
LINE
  5
D4CC
  8
0
 10
3617.485305988212076
 20
319.4910038303492001
 30
0.0
 11
3617.4762228139588842
 21
319.4811539494251065
 31
0.0
  0
LINE
  5
D4CD
  8
0
 10
3617.4762228139588842
 20
319.4811539494251065
 30
0.0
 11
3617.4601331024118736
 21
319.4716981951629009
 31
0.0
  0
LINE
  5
D4CE
  8
0
 10
3617.460638516950894
 20
319.4700631233745867
 30
0.0
 11
3617.477130216101159
 21
319.47971727441859
 31
0.0
  0
LINE
  5
D4CF
  8
0
 10
3617.477130216101159
 20
319.47971727441859
 30
0.0
 11
3617.4843766243011487
 21
319.4875642906716848
 31
0.0
  0
LINE
  5
D4D0
  8
0
 10
3617.4843766243011487
 20
319.4875642906716848
 30
0.0
 11
3617.4884561917820065
 21
319.4897314375363067
 31
0.0
  0
LINE
  5
D4D1
  8
0
 10
3617.477130216101159
 20
319.47971727441859
 30
0.0
 11
3617.477130216101159
 21
319.4682326874572027
 31
0.0
  0
LINE
  5
D4D2
  8
0
 10
3617.477130216101159
 20
319.4682326874572027
 30
0.0
 11
3617.5113080719020218
 21
319.4682326874572027
 31
0.0
  0
LINE
  5
D4D3
  8
0
 10
3617.5113080719020218
 20
319.4682326874572027
 30
0.0
 11
3617.5113080719020218
 21
319.4811026847183939
 31
0.0
  0
LINE
  5
D4D4
  8
0
 10
3617.427448972376169
 20
319.4949596445683824
 30
0.0
 11
3617.4481104788510493
 21
319.4844416050573273
 31
0.0
  0
LINE
  5
D4D5
  8
0
 10
3617.4481104788510493
 20
319.4844416050573273
 30
0.0
 11
3617.4582264839859818
 21
319.4846437046069241
 31
0.0
  0
LINE
  5
D4D6
  8
0
 10
3617.4582264839859818
 20
319.4846437046069241
 30
0.0
 11
3617.447844735345825
 21
319.4954035126388021
 31
0.0
  0
LINE
  5
D4D7
  8
0
 10
3617.4503134526239592
 20
319.4954565891018774
 30
0.0
 11
3617.456537774573917
 21
319.4888686510196862
 31
0.0
  0
LINE
  5
D4D8
  8
0
 10
3617.456537774573917
 20
319.4888686510196862
 30
0.0
 11
3617.458555523501218
 21
319.4879302479739067
 31
0.0
  0
LINE
  5
D4D9
  8
0
 10
3617.458555523501218
 20
319.4879302479739067
 30
0.0
 11
3617.4718726434830387
 21
319.4959141415545787
 31
0.0
  0
LINE
  5
D4DA
  8
0
 10
3617.4585555234998537
 20
319.4879302478967134
 30
0.0
 11
3617.458555523501218
 21
319.4812609779572767
 31
0.0
  0
LINE
  5
D4DB
  8
0
 10
3617.7087473038700409
 20
319.458999257306175
 30
0.0
 11
3617.6694060521508618
 21
319.4611767700699829
 31
0.0
  0
LINE
  5
D4DC
  8
0
 10
3617.6694060521508618
 20
319.4611767700699829
 30
0.0
 11
3617.6792485717987802
 21
319.4683246554848779
 31
0.0
  0
LINE
  5
D4DD
  8
0
 10
3617.6792485717987802
 20
319.4683246554848779
 30
0.0
 11
3617.698933611252869
 21
319.4674278746715004
 31
0.0
  0
LINE
  5
D4DE
  8
0
 10
3617.698933611252869
 20
319.4674278746715004
 30
0.0
 11
3617.7087473038700409
 21
319.458999257306175
 31
0.0
  0
LINE
  5
D4DF
  8
0
 10
3617.6809372813308983
 20
319.4734329159671802
 30
0.0
 11
3617.6710947614819815
 21
319.4659506479376887
 31
0.0
  0
LINE
  5
D4E0
  8
0
 10
3617.6710947614819815
 20
319.4659506479376887
 30
0.0
 11
3617.6514097222011515
 21
319.4677471543695901
 31
0.0
  0
LINE
  5
D4E1
  8
0
 10
3617.6514097222011515
 20
319.4677471543695901
 30
0.0
 11
3617.6415672025241292
 21
319.477046376998203
 31
0.0
  0
LINE
  5
D4E2
  8
0
 10
3617.6415672025241292
 20
319.477046376998203
 30
0.0
 11
3617.6514097222079727
 21
319.4845523360335164
 31
0.0
  0
LINE
  5
D4E3
  8
0
 10
3617.6514097222079727
 20
319.4845523360335164
 30
0.0
 11
3617.6710947615401892
 21
319.4827352197992241
 31
0.0
  0
LINE
  5
D4E4
  8
0
 10
3617.6710947615401892
 20
319.4827352197992241
 30
0.0
 11
3617.6809372813308983
 21
319.4734329159671802
 31
0.0
  0
LINE
  5
D4E5
  8
0
 10
3617.708776130924889
 20
319.486776483630706
 30
0.0
 11
3617.698933611162829
 21
319.4780408514386068
 31
0.0
  0
LINE
  5
D4E6
  8
0
 10
3617.698933611162829
 20
319.4780408514386068
 30
0.0
 11
3617.6792485719020078
 21
319.4789440820572963
 31
0.0
  0
LINE
  5
D4E7
  8
0
 10
3617.6792485719020078
 20
319.4789440820572963
 30
0.0
 11
3617.6694060521358551
 21
319.488595960408702
 31
0.0
  0
LINE
  5
D4E8
  8
0
 10
3617.6694060521358551
 20
319.488595960408702
 30
0.0
 11
3617.6792485717610361
 21
319.4973655140771029
 31
0.0
  0
LINE
  5
D4E9
  8
0
 10
3617.6792485717610361
 20
319.4973655140771029
 30
0.0
 11
3617.6989336111878401
 21
319.4964491271372253
 31
0.0
  0
LINE
  5
D4EA
  8
0
 10
3617.6989336111878401
 20
319.4964491271372253
 30
0.0
 11
3617.708776130924889
 21
319.486776483630706
 31
0.0
  0
LINE
  5
D4EB
  8
0
 10
3617.6454799302678111
 20
319.4982681460157892
 30
0.0
 11
3617.653098431645958
 21
319.4901078863970838
 31
0.0
  0
LINE
  5
D4EC
  8
0
 10
3617.653098431645958
 20
319.4901078863970838
 30
0.0
 11
3617.6432559119011785
 21
319.4822598099245852
 31
0.0
  0
LINE
  5
D4ED
  8
0
 10
3617.6432559119011785
 20
319.4822598099245852
 30
0.0
 11
3617.6235708725448603
 21
319.4849950958541172
 31
0.0
  0
LINE
  5
D4EE
  8
0
 10
3617.6235708725448603
 20
319.4849950958541172
 30
0.0
 11
3617.6137283528610169
 21
319.495618678278106
 31
0.0
  0
LINE
  5
D4EF
  8
0
 10
3617.6137283528610169
 20
319.495618678278106
 30
0.0
 11
3617.6171043058297982
 21
319.4982290566823053
 31
0.0
  0
LINE
  5
D4F0
  8
0
 10
3617.6530984316309514
 20
319.4626607540773193
 30
0.0
 11
3617.6137283528241824
 21
319.4680684057400981
 31
0.0
  0
LINE
  5
D4F1
  8
0
 10
3617.6137283528241824
 20
319.4680684057400981
 30
0.0
 11
3617.6235708725671429
 21
319.4743319122995899
 31
0.0
  0
LINE
  5
D4F2
  8
0
 10
3617.6235708725671429
 20
319.4743319122995899
 30
0.0
 11
3617.643255911948927
 21
319.4716165252684732
 31
0.0
  0
LINE
  5
D4F3
  8
0
 10
3617.643255911948927
 20
319.4716165252684732
 30
0.0
 11
3617.6530984316309514
 21
319.4626607540773193
 31
0.0
  0
LINE
  5
D4F4
  8
0
 10
3617.6252595820019451
 20
319.4793035687883958
 30
0.0
 11
3617.6154170623008213
 21
319.4727046646200961
 31
0.0
  0
LINE
  5
D4F5
  8
0
 10
3617.6154170623008213
 20
319.4727046646200961
 30
0.0
 11
3617.5957320229008474
 21
319.4763483730735061
 31
0.0
  0
LINE
  5
D4F6
  8
0
 10
3617.5957320229008474
 20
319.4763483730735061
 30
0.0
 11
3617.5858895032001783
 21
319.4866337435518062
 31
0.0
  0
LINE
  5
D4F7
  8
0
 10
3617.5858895032001783
 20
319.4866337435518062
 30
0.0
 11
3617.5957320228549179
 21
319.4932541539417912
 31
0.0
  0
LINE
  5
D4F8
  8
0
 10
3617.5957320228549179
 20
319.4932541539417912
 30
0.0
 11
3617.6154170622248785
 21
319.4895674351993193
 31
0.0
  0
LINE
  5
D4F9
  8
0
 10
3617.6154170622248785
 20
319.4895674351993193
 30
0.0
 11
3617.6252595820019451
 21
319.4793035687883958
 31
0.0
  0
LINE
  5
D4FA
  8
0
 10
3617.5976765695349968
 20
319.4708198623657154
 30
0.0
 11
3617.5580506536011853
 21
319.4802628659572861
 31
0.0
  0
LINE
  5
D4FB
  8
0
 10
3617.5580506536011853
 20
319.4802628659572861
 30
0.0
 11
3617.5678931731690682
 21
319.4856217711400177
 31
0.0
  0
LINE
  5
D4FC
  8
0
 10
3617.5678931731690682
 20
319.4856217711400177
 30
0.0
 11
3617.5875782126918239
 21
319.4810090217450238
 31
0.0
  0
LINE
  5
D4FD
  8
0
 10
3617.5875782126918239
 20
319.4810090217450238
 30
0.0
 11
3617.5976765695349968
 21
319.4708198623657154
 31
0.0
  0
LINE
  5
D4FE
  8
0
 10
3617.5695818826679897
 20
319.4904686397708815
 30
0.0
 11
3617.5597393629550425
 21
319.4847695495838025
 31
0.0
  0
LINE
  5
D4FF
  8
0
 10
3617.5597393629550425
 20
319.4847695495838025
 30
0.0
 11
3617.540054323600998
 21
319.4903693359216845
 31
0.0
  0
LINE
  5
D500
  8
0
 10
3617.540054323600998
 20
319.4903693359216845
 30
0.0
 11
3617.5340443733398388
 21
319.4971737087096813
 31
0.0
  0
LINE
  5
D501
  8
0
 10
3617.5695818826679897
 20
319.4904686397708815
 30
0.0
 11
3617.5631794816858928
 21
319.497705367221613
 31
0.0
  0
LINE
  5
D502
  8
0
 10
3617.5308036834740051
 20
319.4971102517380928
 30
0.0
 11
3617.5417430330007846
 21
319.4848874294572738
 31
0.0
  0
LINE
  5
D503
  8
0
 10
3617.5417430330007846
 20
319.4848874294572738
 30
0.0
 11
3617.5048941267878035
 21
319.4965942171457982
 31
0.0
  0
LINE
  5
D504
  8
0
 10
3617.5666882859109137
 20
319.497758674768022
 30
0.0
 11
3617.5678931733377794
 21
319.4963698793566778
 31
0.0
  0
LINE
  5
D505
  8
0
 10
3617.5678931733377794
 20
319.4963698793566778
 30
0.0
 11
3617.5875782126008744
 21
319.4917219976554179
 31
0.0
  0
LINE
  5
D506
  8
0
 10
3617.5875782126008744
 20
319.4917219976554179
 30
0.0
 11
3617.5967621694821901
 21
319.4981057681978882
 31
0.0
  0
LINE
  5
D507
  8
0
 10
3617.6495359784521497
 20
319.4982687784562927
 30
0.0
 11
3617.6514097222011515
 21
319.496233582330774
 31
0.0
  0
LINE
  5
D508
  8
0
 10
3617.6514097222011515
 20
319.496233582330774
 30
0.0
 11
3617.6710947616011254
 21
319.4943996465573264
 31
0.0
  0
LINE
  5
D509
  8
0
 10
3617.6710947616011254
 20
319.4943996465573264
 30
0.0
 11
3617.6753663751710519
 21
319.498260530306311
 31
0.0
  0
ARC
  5
D50A
  8
0
 10
3617.7182148892497935
 20
320.009208787038574
 30
0.0
 40
0.6102496696698871
 50
267.1513347835269201
 51
269.8793573218356983
  0
ARC
  5
D50B
  8
0
 10
3617.7185626357018009
 20
320.0069199765969756
 30
0.0
 40
0.6079811447106377
 50
261.3777600062143733
 51
267.1078841687864838
  0
ARC
  5
D50C
  8
0
 10
3617.7125745431408177
 20
319.9674292408029146
 30
0.0
 40
0.5680389932153762
 50
253.7294540522640034
 51
261.3777600062143733
  0
ARC
  5
D50D
  8
0
 10
3617.7218238959180781
 20
319.9991200272243077
 30
0.0
 40
0.6010519674951864
 50
247.1876308135830129
 51
253.7294540522640034
  0
ARC
  5
D50E
  8
0
 10
3617.7531279091172109
 20
320.0735443521082857
 30
0.0
 40
0.6817918051018828
 50
243.0274511686558014
 51
247.1876308135830129
  0
ARC
  5
D50F
  8
0
 10
3617.4950707270368184
 20
319.5664781760781921
 30
0.0
 40
0.1128369597081573
 50
219.6147840527773951
 51
243.0274511686558014
  0
LINE
  5
D510
  8
0
 10
3617.698933611252869
 20
319.4674278746715004
 30
0.0
 11
3617.698933611252869
 21
319.4595424388268725
 31
0.0
  0
LINE
  5
D511
  8
0
 10
3617.6792485717987802
 20
319.4683246554848779
 30
0.0
 11
3617.6792485717987802
 21
319.4606319929919209
 31
0.0
  0
LINE
  5
D512
  8
0
 10
3617.6710947614819815
 20
319.4659506479376887
 30
0.0
 11
3617.6710947615401892
 21
319.4827352197992241
 31
0.0
  0
LINE
  5
D513
  8
0
 10
3617.6514097222011515
 20
319.4677471543695901
 30
0.0
 11
3617.6514097222079727
 21
319.4845523360335164
 31
0.0
  0
LINE
  5
D514
  8
0
 10
3617.698933611162829
 20
319.4780408514386068
 30
0.0
 11
3617.6989336111878401
 21
319.4964491271372253
 31
0.0
  0
LINE
  5
D515
  8
0
 10
3617.6792485719020078
 20
319.4789440820572963
 30
0.0
 11
3617.6792485717610361
 21
319.4973655140771029
 31
0.0
  0
LINE
  5
D516
  8
0
 10
3617.6710947616011254
 20
319.4943996465573264
 30
0.0
 11
3617.6710947616011254
 21
319.4982633587147802
 31
0.0
  0
LINE
  5
D517
  8
0
 10
3617.6514097222011515
 20
319.496233582330774
 30
0.0
 11
3617.6514097222011515
 21
319.4982688939380751
 31
0.0
  0
LINE
  5
D518
  8
0
 10
3617.6432559119011785
 20
319.4822598099245852
 30
0.0
 11
3617.6432559119011785
 21
319.4982675771365734
 31
0.0
  0
LINE
  5
D519
  8
0
 10
3617.6235708725448603
 20
319.4849950958541172
 30
0.0
 11
3617.6235708725448603
 21
319.4982494049929187
 31
0.0
  0
LINE
  5
D51A
  8
0
 10
3617.643255911948927
 20
319.4716165252684732
 30
0.0
 11
3617.643255911948927
 21
319.4640126669904134
 31
0.0
  0
LINE
  5
D51B
  8
0
 10
3617.6235708725671429
 20
319.4743319122995899
 30
0.0
 11
3617.6235708725671429
 21
319.4667164928187049
 31
0.0
  0
LINE
  5
D51C
  8
0
 10
3617.6154170623008213
 20
319.4727046646200961
 30
0.0
 11
3617.6154170622248785
 21
319.4895674351993193
 31
0.0
  0
LINE
  5
D51D
  8
0
 10
3617.5957320229008474
 20
319.4763483730735061
 30
0.0
 11
3617.5957320228549179
 21
319.4932541539417912
 31
0.0
  0
LINE
  5
D51E
  8
0
 10
3617.5875782126008744
 20
319.4917219976554179
 30
0.0
 11
3617.5875782126008744
 21
319.4980206299395036
 31
0.0
  0
LINE
  5
D51F
  8
0
 10
3617.5875782126918239
 20
319.4810090217450238
 30
0.0
 11
3617.5875782126918239
 21
319.473226338473296
 31
0.0
  0
LINE
  5
D520
  8
0
 10
3617.5678931731690682
 20
319.4856217711400177
 30
0.0
 11
3617.5678931731690682
 21
319.4779173568265946
 31
0.0
  0
LINE
  5
D521
  8
0
 10
3617.5597393629550425
 20
319.4847695495838025
 30
0.0
 11
3617.5597393629550425
 21
319.4976505038966934
 31
0.0
  0
LINE
  5
D522
  8
0
 10
3617.540054323600998
 20
319.4903693359216845
 30
0.0
 11
3617.540054323600998
 21
319.4972907516756777
 31
0.0
  0
LINE
  5
D523
  8
0
 10
3617.6989329524230925
 20
319.3998862873204985
 30
0.0
 11
3617.6994044876951193
 21
319.4024640247143907
 31
0.0
  0
LINE
  5
D524
  8
0
 10
3617.6790548744011176
 20
319.4008310740572938
 30
0.0
 11
3617.679248571917924
 21
319.4034533908563276
 31
0.0
  0
LINE
  5
D525
  8
0
 10
3617.6989336112610545
 20
319.4052757234202886
 30
0.0
 11
3617.6989336112610545
 21
319.4082211662865802
 31
0.0
  0
LINE
  5
D526
  8
0
 10
3617.6792485719020078
 20
319.4061725042068929
 30
0.0
 11
3617.6792485719020078
 21
319.409114191548781
 31
0.0
  0
LINE
  5
D527
  8
0
 10
3617.6710947616011254
 20
319.4033777134208094
 30
0.0
 11
3617.6710947616011254
 21
319.4076653121852019
 31
0.0
  0
LINE
  5
D528
  8
0
 10
3617.6514097222011515
 20
319.4051948295905845
 30
0.0
 11
3617.6514097219310315
 21
319.4094618185860099
 31
0.0
  0
LINE
  5
D529
  8
0
 10
3617.6432559119011785
 20
319.4041670589572846
 30
0.0
 11
3617.6432559118748031
 21
319.406769118837417
 31
0.0
  0
LINE
  5
D52A
  8
0
 10
3617.6235708729418548
 20
319.4069429599763907
 30
0.0
 11
3617.6235708726007942
 21
319.4095044046571843
 31
0.0
  0
LINE
  5
D52B
  8
0
 10
3617.6432559119011785
 20
319.4094643740572792
 30
0.0
 11
3617.6432559119011785
 21
319.4123966010808999
 31
0.0
  0
LINE
  5
D52C
  8
0
 10
3617.6235708726007942
 20
319.4121797610573026
 30
0.0
 11
3617.6235708726007942
 21
319.415100426924198
 31
0.0
  0
LINE
  5
D52D
  8
0
 10
3617.6154170625241022
 20
319.4102099287189276
 30
0.0
 11
3617.6154170622280617
 21
319.4144193288415181
 31
0.0
  0
LINE
  5
D52E
  8
0
 10
3617.5957320229008474
 20
319.413896647457193
 30
0.0
 11
3617.5956259628510452
 21
319.4180603355296739
 31
0.0
  0
LINE
  5
D52F
  8
0
 10
3617.5875782126008744
 20
319.4137715522572876
 30
0.0
 11
3617.5881283229450673
 21
319.4161014187802721
 31
0.0
  0
LINE
  5
D530
  8
0
 10
3617.5678931732800265
 20
319.4184912362543969
 30
0.0
 11
3617.5684272254179632
 21
319.4207530919200053
 31
0.0
  0
LINE
  5
D531
  8
0
 10
3617.5886923407479117
 20
319.4188907723175816
 30
0.0
 11
3617.5886923407479117
 21
319.421498229406609
 31
0.0
  0
LINE
  5
D532
  8
0
 10
3617.5678931735938022
 20
319.4234696197631251
 30
0.0
 11
3617.5678931735938022
 21
319.426350583494127
 31
0.0
  0
LINE
  5
D533
  8
0
 10
3617.5597393632538115
 20
319.422419514888702
 30
0.0
 11
3617.5597393630009719
 21
319.4264842136931861
 31
0.0
  0
LINE
  5
D534
  8
0
 10
3617.540054323600998
 20
319.4280887503571762
 30
0.0
 11
3617.5400543236260091
 21
319.4320840001543047
 31
0.0
  0
LINE
  5
D535
  8
0
 10
3617.5319005133010251
 20
319.4337325839418895
 30
0.0
 11
3617.5319005133010251
 21
319.4366440315830005
 31
0.0
  0
LINE
  5
D536
  8
0
 10
3617.5122154739719917
 20
319.4403873250132051
 30
0.0
 11
3617.5122154739719917
 21
319.4432670002245231
 31
0.0
  0
LINE
  5
D537
  8
0
 10
3617.5319005133010251
 20
319.4289991094879042
 30
0.0
 11
3617.5319005133010251
 21
319.4312225607573055
 31
0.0
  0
LINE
  5
D538
  8
0
 10
3617.5125381337011277
 20
319.4357005948572805
 30
0.0
 11
3617.5131856287148366
 21
319.4376005380385095
 31
0.0
  0
LINE
  5
D539
  8
0
 10
3617.5040616636088089
 20
319.4403929436923022
 30
0.0
 11
3617.5038639409640382
 21
319.4443099987079222
 31
0.0
  0
LINE
  5
D53A
  8
0
 10
3617.4843766243011487
 20
319.4482369281573142
 30
0.0
 11
3617.484376805824013
 21
319.451972870440386
 31
0.0
  0
LINE
  5
D53B
  8
0
 10
3617.4762236078768183
 20
319.454576755408084
 30
0.0
 11
3617.4762236078768183
 21
319.4571706532117901
 31
0.0
  0
LINE
  5
D53C
  8
0
 10
3617.4565377746089325
 20
319.4635096354302277
 30
0.0
 11
3617.4565377746012018
 21
319.4688689450571815
 31
0.0
  0
LINE
  5
D53D
  8
0
 10
3617.4682443354690804
 20
319.463508527546594
 30
0.0
 11
3617.4682443354690804
 21
319.4581975258431044
 31
0.0
  0
LINE
  5
D53E
  8
0
 10
3616.9580029900448608
 20
319.4012329796290146
 30
0.0
 11
3616.9580029900448608
 21
320.0669934257156228
 31
0.0
  0
ARC
  5
D53F
  8
0
 10
3617.9405695118471158
 20
297.7731866814316959
 30
0.0
 40
22.3455840430515984
 50
90.5733143608750169
 51
92.4427894816661393
  0
ARC
  5
D540
  8
0
 10
3616.9895029900449117
 20
320.0669934257156228
 30
0.0
 40
0.0315
 50
92.4427894816661393
 51
180.0000000000032117
  0
ARC
  5
D541
  8
0
 10
3619.8753972065319431
 20
218.3742276825483088
 30
0.0
 40
101.1848976660886024
 50
91.2222937910132288
 51
91.5354980917878152
  0
ARC
  5
D542
  8
0
 10
3617.7401636471540769
 20
320.6357304348953221
 30
0.0
 40
1.4801211252733899
 50
238.9659199213093075
 51
265.8951672339886727
  0
ARC
  5
D543
  8
0
 10
3617.7401636471549864
 20
320.6357304348958905
 30
0.0
 40
1.4801211252740321
 50
265.8951672339886727
 51
269.1024555181937217
  0
ARC
  5
D544
  8
0
 10
3616.997402990044975
 20
319.4012329796290146
 30
0.0
 40
0.0394
 50
180.0000000000065086
 51
238.9659199212802037
  0
LINE
  5
D545
  8
0
 10
3617.1640173939199485
 20
319.5227913659174988
 30
0.0
 11
3616.9800698513868156
 21
319.365684779371179
 31
0.0
  0
ARC
  5
D546
  8
0
 10
3617.7387758330241923
 20
320.2000268066457807
 30
0.0
 40
0.8184097528306926
 50
275.1712786368511274
 51
283.3208803514913257
  0
ARC
  5
D547
  8
0
 10
3617.841205945881029
 20
319.7674211920697758
 30
0.0
 40
0.3738430584163145
 50
283.3208803514913257
 51
295.7104090294008074
  0
ARC
  5
D548
  8
0
 10
3617.9455924699291245
 20
319.5506228184535189
 30
0.0
 40
0.1332228572576609
 50
295.7104090294008074
 51
311.2419186145415892
  0
ARC
  5
D549
  8
0
 10
3617.9020550100021865
 20
319.6002819043837917
 30
0.0
 40
0.1992647775228109
 50
311.2419186145415892
 51
327.7298276683613949
  0
ARC
  5
D54A
  8
0
 10
3617.7814491362428271
 20
288.0550552141689877
 30
0.0
 40
31.4432136957033812
 50
89.9624372452106655
 51
90.117566868424916
  0
ARC
  5
D54B
  8
0
 10
3617.7990473266509071
 20
314.8981847594184842
 30
0.0
 40
4.600078381821846
 50
88.8963929480477049
 51
89.9624372452106655
  0
ARC
  5
D54C
  8
0
 10
3617.0503033006189071
 20
276.0305760242584938
 30
0.0
 40
43.474898335179887
 50
88.6957199142376282
 51
88.8963929480477049
  0
ARC
  5
D54D
  8
0
 10
3617.7069828121129831
 20
320.3386022099302863
 30
0.0
 40
0.8928442952941097
 50
270.6383423276432723
 51
273.5183319844023799
  0
ARC
  5
D54E
  8
0
 10
3617.7170486226168578
 20
320.0627095671381994
 30
0.0
 40
0.6168923456009371
 50
274.1577283559093985
 51
283.0370697937049727
  0
ARC
  5
D54F
  8
0
 10
3617.7187190136328354
 20
320.0554956060415179
 30
0.0
 40
0.6094875200898614
 50
283.0370697937049727
 51
293.3556924475901155
  0
ARC
  5
D550
  8
0
 10
3617.7169295946150669
 20
320.0326836600499973
 30
0.0
 40
0.6185024531620757
 50
270.0000321052814911
 51
274.8695524471921203
  0
ARC
  5
D551
  8
0
 10
3617.7171282792742204
 20
320.0303515422683063
 30
0.0
 40
0.6161618872174119
 50
274.8695524471921203
 51
285.7938618777333204
  0
ARC
  5
D552
  8
0
 10
3617.7198913961101425
 20
320.0205829000516928
 30
0.0
 40
0.606009981711202
 50
285.7938618777333204
 51
294.7102356033088881
  0
LINE
  5
D553
  8
0
 10
3617.7250837515261992
 20
319.4007497072138904
 30
0.0
 11
3617.7349269299797925
 21
319.3998862873204985
 31
0.0
  0
LINE
  5
D554
  8
0
 10
3617.7349269299797925
 20
319.3998862873204985
 30
0.0
 11
3617.7548050080008579
 21
319.4008310740572938
 31
0.0
  0
LINE
  5
D555
  8
0
 10
3617.7548050080008579
 20
319.4008310740572938
 30
0.0
 11
3617.7644538302351975
 21
319.4025691838339753
 31
0.0
  0
LINE
  5
D556
  8
0
 10
3617.7644538302351975
 20
319.4025691838339753
 30
0.0
 11
3617.7546113104840515
 21
319.4034533908563276
 31
0.0
  0
LINE
  5
D557
  8
0
 10
3617.7546113104840515
 20
319.4034533908563276
 30
0.0
 11
3617.7349262711968549
 21
319.4025501602823738
 31
0.0
  0
LINE
  5
D558
  8
0
 10
3617.7349262711968549
 20
319.4025501602823738
 30
0.0
 11
3617.7250837515261992
 21
319.4007497072138904
 31
0.0
  0
LINE
  5
D559
  8
0
 10
3617.7250837515011881
 20
319.4077746536573272
 30
0.0
 11
3617.7644538302538422
 21
319.4095607041833205
 31
0.0
  0
LINE
  5
D55A
  8
0
 10
3617.7644538302538422
 20
319.4095607041833205
 30
0.0
 11
3617.7546113105008772
 21
319.4061725042068929
 31
0.0
  0
LINE
  5
D55B
  8
0
 10
3617.7546113105008772
 20
319.4061725042068929
 30
0.0
 11
3617.7349262711400115
 21
319.4052757234202886
 31
0.0
  0
LINE
  5
D55C
  8
0
 10
3617.7349262711400115
 20
319.4052757234202886
 30
0.0
 11
3617.7250837515011881
 21
319.4077746536573272
 31
0.0
  0
LINE
  5
D55D
  8
0
 10
3617.7529226021338218
 20
319.4046114950423885
 30
0.0
 11
3617.7627651208008501
 21
319.4076653121852019
 31
0.0
  0
LINE
  5
D55E
  8
0
 10
3617.7627651208008501
 20
319.4076653121852019
 30
0.0
 11
3617.782450160470944
 21
319.4094618185860099
 31
0.0
  0
LINE
  5
D55F
  8
0
 10
3617.782450160470944
 20
319.4094618185860099
 30
0.0
 11
3617.7922926796691172
 21
319.4082249557566797
 31
0.0
  0
LINE
  5
D560
  8
0
 10
3617.7922926796691172
 20
319.4082249557566797
 30
0.0
 11
3617.782450160200824
 21
319.4051948295905845
 31
0.0
  0
LINE
  5
D561
  8
0
 10
3617.782450160200824
 20
319.4051948295905845
 30
0.0
 11
3617.7627651208008501
 21
319.4033777134208094
 31
0.0
  0
LINE
  5
D562
  8
0
 10
3617.7627651208008501
 20
319.4033777134208094
 30
0.0
 11
3617.7529226021338218
 21
319.4046114950423885
 31
0.0
  0
LINE
  5
D563
  8
0
 10
3617.7807614507828475
 20
319.4110446881499001
 30
0.0
 11
3617.8201315295182212
 21
319.4164523398550273
 31
0.0
  0
LINE
  5
D564
  8
0
 10
3617.8201315295182212
 20
319.4164523398550273
 30
0.0
 11
3617.8102890098011812
 21
319.4121797610573026
 31
0.0
  0
LINE
  5
D565
  8
0
 10
3617.8102890098011812
 20
319.4121797610573026
 30
0.0
 11
3617.790603970500797
 21
319.4094643740572792
 31
0.0
  0
LINE
  5
D566
  8
0
 10
3617.790603970500797
 20
319.4094643740572792
 30
0.0
 11
3617.7807614507828475
 21
319.4110446881499001
 31
0.0
  0
LINE
  5
D567
  8
0
 10
3617.7807614508010374
 20
319.4040811099255848
 30
0.0
 11
3617.7906039705271724
 21
319.406769118837417
 31
0.0
  0
LINE
  5
D568
  8
0
 10
3617.7906039705271724
 20
319.406769118837417
 30
0.0
 11
3617.8102890098011812
 21
319.4095044046571843
 31
0.0
  0
LINE
  5
D569
  8
0
 10
3617.8102890098011812
 20
319.4095044046571843
 30
0.0
 11
3617.8201315294859342
 21
319.4095919018772065
 31
0.0
  0
LINE
  5
D56A
  8
0
 10
3617.8201315294859342
 20
319.4095919018772065
 30
0.0
 11
3617.8102890094601207
 21
319.4069429599763907
 31
0.0
  0
LINE
  5
D56B
  8
0
 10
3617.8102890094601207
 20
319.4069429599763907
 30
0.0
 11
3617.790603970500797
 21
319.4041670589572846
 31
0.0
  0
LINE
  5
D56C
  8
0
 10
3617.790603970500797
 20
319.4041670589572846
 30
0.0
 11
3617.7807614508010374
 21
319.4040811099255848
 31
0.0
  0
LINE
  5
D56D
  8
0
 10
3617.8086003004650593
 20
319.4104821476253164
 30
0.0
 11
3617.8184428201730043
 21
319.4144193288415181
 31
0.0
  0
LINE
  5
D56E
  8
0
 10
3617.8184428201730043
 20
319.4144193288415181
 30
0.0
 11
3617.8381278595011281
 21
319.4180630371571965
 31
0.0
  0
LINE
  5
D56F
  8
0
 10
3617.8381278595011281
 20
319.4180630371571965
 30
0.0
 11
3617.8479703791940665
 21
319.4178123223791204
 31
0.0
  0
LINE
  5
D570
  8
0
 10
3617.8479703791940665
 20
319.4178123223791204
 30
0.0
 11
3617.8381278595011281
 21
319.413896647457193
 31
0.0
  0
LINE
  5
D571
  8
0
 10
3617.8381278595011281
 20
319.413896647457193
 30
0.0
 11
3617.8184428198778733
 21
319.4102099287189276
 31
0.0
  0
LINE
  5
D572
  8
0
 10
3617.8184428198778733
 20
319.4102099287189276
 30
0.0
 11
3617.8086003004650593
 21
319.4104821476253164
 31
0.0
  0
LINE
  5
D573
  8
0
 10
3617.8368829819751227
 20
319.4195654781227063
 30
0.0
 11
3617.8758092288007902
 21
319.4286468000573223
 31
0.0
  0
LINE
  5
D574
  8
0
 10
3617.8758092288007902
 20
319.4286468000573223
 30
0.0
 11
3617.8659667088090828
 21
319.4234696197631251
 31
0.0
  0
LINE
  5
D575
  8
0
 10
3617.8659667088090828
 20
319.4234696197631251
 30
0.0
 11
3617.8451675416540638
 21
319.4188907723175816
 31
0.0
  0
LINE
  5
D576
  8
0
 10
3617.8451675416540638
 20
319.4188907723175816
 30
0.0
 11
3617.8368829819751227
 21
319.4195654781227063
 31
0.0
  0
LINE
  5
D577
  8
0
 10
3617.836439150024944
 20
319.4126598116491209
 30
0.0
 11
3617.8462816697469862
 21
319.4162313066332217
 31
0.0
  0
LINE
  5
D578
  8
0
 10
3617.8462816697469862
 20
319.4162313066332217
 30
0.0
 11
3617.8659667095630539
 21
319.4208791883482945
 31
0.0
  0
LINE
  5
D579
  8
0
 10
3617.8659667095630539
 20
319.4208791883482945
 30
0.0
 11
3617.8758092288499029
 21
319.4220268268832115
 31
0.0
  0
LINE
  5
D57A
  8
0
 10
3617.8758092288499029
 20
319.4220268268832115
 30
0.0
 11
3617.8659667091228584
 21
319.4184912362543969
 31
0.0
  0
LINE
  5
D57B
  8
0
 10
3617.8659667091228584
 20
319.4184912362543969
 30
0.0
 11
3617.8462816698011011
 21
319.4137715522572876
 31
0.0
  0
LINE
  5
D57C
  8
0
 10
3617.8462816698011011
 20
319.4137715522572876
 30
0.0
 11
3617.836439150024944
 21
319.4126598116491209
 31
0.0
  0
LINE
  5
D57D
  8
0
 10
3617.8642779999859158
 20
319.4216472185947282
 30
0.0
 11
3617.8741205194010035
 21
319.4264842136931861
 31
0.0
  0
LINE
  5
D57E
  8
0
 10
3617.8741205194010035
 20
319.4264842136931861
 30
0.0
 11
3617.8938055587759663
 21
319.4320840001543047
 31
0.0
  0
LINE
  5
D57F
  8
0
 10
3617.8938055587759663
 20
319.4320840001543047
 30
0.0
 11
3617.9036480785489402
 21
319.4329160798531007
 31
0.0
  0
LINE
  5
D580
  8
0
 10
3617.9036480785489402
 20
319.4329160798531007
 30
0.0
 11
3617.8938055588009775
 21
319.4280887503571762
 31
0.0
  0
LINE
  5
D581
  8
0
 10
3617.8938055588009775
 20
319.4280887503571762
 30
0.0
 11
3617.8741205191490735
 21
319.422419514888702
 31
0.0
  0
LINE
  5
D582
  8
0
 10
3617.8741205191490735
 20
319.422419514888702
 30
0.0
 11
3617.8642779999859158
 21
319.4216472185947282
 31
0.0
  0
LINE
  5
D583
  8
0
 10
3617.8919055701630896
 20
319.433261463025417
 30
0.0
 11
3617.931244618951041
 21
319.4464969604072735
 31
0.0
  0
LINE
  5
D584
  8
0
 10
3617.931244618951041
 20
319.4464969604072735
 30
0.0
 11
3617.9216444084308932
 21
319.4403873250132051
 31
0.0
  0
LINE
  5
D585
  8
0
 10
3617.9216444084308932
 20
319.4403873250132051
 30
0.0
 11
3617.9019593691009504
 21
319.4337325839418895
 31
0.0
  0
LINE
  5
D586
  8
0
 10
3617.9019593691009504
 20
319.4337325839418895
 30
0.0
 11
3617.8919055701630896
 21
319.433261463025417
 31
0.0
  0
LINE
  5
D587
  8
0
 10
3617.8921168494061931
 20
319.4267455631750181
 30
0.0
 11
3617.9019593691009504
 21
319.4312225607573055
 31
0.0
  0
LINE
  5
D588
  8
0
 10
3617.9019593691009504
 20
319.4312225607573055
 30
0.0
 11
3617.9216444085009243
 21
319.4379311639277716
 31
0.0
  0
LINE
  5
D589
  8
0
 10
3617.9216444085009243
 20
319.4379311639277716
 30
0.0
 11
3617.9314869280901803
 21
319.4402726233493013
 31
0.0
  0
LINE
  5
D58A
  8
0
 10
3617.9314869280901803
 20
319.4402726233493013
 30
0.0
 11
3617.9213217487008478
 21
319.4357005948572805
 31
0.0
  0
LINE
  5
D58B
  8
0
 10
3617.9213217487008478
 20
319.4357005948572805
 30
0.0
 11
3617.9019593691009504
 21
319.4289991094879042
 31
0.0
  0
LINE
  5
D58C
  8
0
 10
3617.9019593691009504
 20
319.4289991094879042
 30
0.0
 11
3617.8921168518031664
 21
319.4267455642656159
 31
0.0
  0
LINE
  5
D58D
  8
0
 10
3617.9199557586248375
 20
319.4384498599267772
 30
0.0
 11
3617.9297982187590605
 21
319.4442322487710726
 31
0.0
  0
LINE
  5
D58E
  8
0
 10
3617.9297982187590605
 20
319.4442322487710726
 30
0.0
 11
3617.949483076578872
 21
319.451972870440386
 31
0.0
  0
LINE
  5
D58F
  8
0
 10
3617.949483076578872
 20
319.451972870440386
 30
0.0
 11
3617.9593257777619328
 21
319.4540348063615056
 31
0.0
  0
LINE
  5
D590
  8
0
 10
3617.9593257777619328
 20
319.4540348063615056
 30
0.0
 11
3617.9494832581008268
 21
319.4482369281573142
 31
0.0
  0
LINE
  5
D591
  8
0
 10
3617.9494832581008268
 20
319.4482369281573142
 30
0.0
 11
3617.9297982187931666
 21
319.4403929436923022
 31
0.0
  0
LINE
  5
D592
  8
0
 10
3617.9297982187931666
 20
319.4403929436923022
 30
0.0
 11
3617.9199557586248375
 21
319.4384498599267772
 31
0.0
  0
LINE
  5
D593
  8
0
 10
3617.9482616646578208
 20
319.4531123274051083
 30
0.0
 11
3617.9607067220008503
 21
319.4584998686573272
 31
0.0
  0
LINE
  5
D594
  8
0
 10
3617.9607067220008503
 20
319.4584998686573272
 30
0.0
 11
3617.9656155469328951
 21
319.463508527546594
 31
0.0
  0
LINE
  5
D595
  8
0
 10
3617.9656155469328951
 20
319.463508527546594
 30
0.0
 11
3617.9773221078007737
 21
319.4688689450571815
 31
0.0
  0
LINE
  5
D596
  8
0
 10
3617.9773221078007737
 20
319.4688689450571815
 30
0.0
 11
3617.9871652562401323
 21
319.4706861572043977
 31
0.0
  0
LINE
  5
D597
  8
0
 10
3617.9871652562401323
 20
319.4706861572043977
 30
0.0
 11
3617.977322107793043
 21
319.4635096354302277
 31
0.0
  0
LINE
  5
D598
  8
0
 10
3617.977322107793043
 20
319.4635096354302277
 30
0.0
 11
3617.9576362745251572
 21
319.454576755408084
 31
0.0
  0
LINE
  5
D599
  8
0
 10
3617.9576362745251572
 20
319.454576755408084
 30
0.0
 11
3617.9482616646578208
 21
319.4531123274051083
 31
0.0
  0
LINE
  5
D59A
  8
0
 10
3617.9762031821469463
 20
319.4703052110007206
 30
0.0
 11
3617.9854759180861947
 21
319.4787274753279007
 31
0.0
  0
LINE
  5
D59B
  8
0
 10
3617.9854759180861947
 20
319.4787274753279007
 30
0.0
 11
3618.0051609574120448
 21
319.4887645448986859
 31
0.0
  0
LINE
  5
D59C
  8
0
 10
3618.0051609574120448
 20
319.4887645448986859
 30
0.0
 11
3618.0150034771058927
 21
319.4903712205323245
 31
0.0
  0
LINE
  5
D59D
  8
0
 10
3618.0150034771058927
 20
319.4903712205323245
 30
0.0
 11
3618.0051609573752103
 21
319.4817538103591801
 31
0.0
  0
LINE
  5
D59E
  8
0
 10
3618.0051609573752103
 20
319.4817538103591801
 30
0.0
 11
3617.985475918001157
 21
319.4716453119572748
 31
0.0
  0
LINE
  5
D59F
  8
0
 10
3617.985475918001157
 20
319.4716453119572748
 30
0.0
 11
3617.9762031821469463
 21
319.4703052110007206
 31
0.0
  0
LINE
  5
D5A0
  8
0
 10
3617.9732213654979205
 20
319.4700631233462786
 30
0.0
 11
3617.9737267810642152
 21
319.4716981986375117
 31
0.0
  0
LINE
  5
D5A1
  8
0
 10
3617.9737267810642152
 20
319.4716981986375117
 30
0.0
 11
3617.9773221077680319
 21
319.4733696470628956
 31
0.0
  0
LINE
  5
D5A2
  8
0
 10
3617.9773221077680319
 20
319.4733696470628956
 30
0.0
 11
3617.9871646274668819
 21
319.4822367197115796
 31
0.0
  0
LINE
  5
D5A3
  8
0
 10
3617.9871646274668819
 20
319.4822367197115796
 30
0.0
 11
3617.9773221077848575
 21
319.482199381003511
 31
0.0
  0
LINE
  5
D5A4
  8
0
 10
3617.9773221077848575
 20
319.482199381003511
 30
0.0
 11
3617.9753043589012123
 21
319.4812609779572767
 31
0.0
  0
LINE
  5
D5A5
  8
0
 10
3617.9753043589012123
 20
319.4812609779572767
 30
0.0
 11
3617.9576370684007998
 21
319.4916900348572995
 31
0.0
  0
LINE
  5
D5A6
  8
0
 10
3617.9576370684007998
 20
319.4916900348572995
 30
0.0
 11
3617.9505620477311822
 21
319.4918256275212229
 31
0.0
  0
LINE
  5
D5A7
  8
0
 10
3617.9485538941898994
 20
319.4910038303492001
 30
0.0
 11
3617.9576370684430913
 21
319.4811539494251065
 31
0.0
  0
LINE
  5
D5A8
  8
0
 10
3617.9576370684430913
 20
319.4811539494251065
 30
0.0
 11
3617.9737267799901019
 21
319.4716981951629009
 31
0.0
  0
LINE
  5
D5A9
  8
0
 10
3617.9732213654510815
 20
319.4700631233745867
 30
0.0
 11
3617.9567296663008165
 21
319.47971727441859
 31
0.0
  0
LINE
  5
D5AA
  8
0
 10
3617.9567296663008165
 20
319.47971727441859
 30
0.0
 11
3617.9494832581008268
 21
319.4875642906716848
 31
0.0
  0
LINE
  5
D5AB
  8
0
 10
3617.9494832581008268
 20
319.4875642906716848
 30
0.0
 11
3617.945403690619969
 21
319.4897314375363067
 31
0.0
  0
LINE
  5
D5AC
  8
0
 10
3617.9567296663008165
 20
319.47971727441859
 30
0.0
 11
3617.9567296663008165
 21
319.4682326874572027
 31
0.0
  0
LINE
  5
D5AD
  8
0
 10
3617.9567296663008165
 20
319.4682326874572027
 30
0.0
 11
3617.9225518105008632
 21
319.4682326874572027
 31
0.0
  0
LINE
  5
D5AE
  8
0
 10
3617.9225518105008632
 20
319.4682326874572027
 30
0.0
 11
3617.9225518105008632
 21
319.4811026847183939
 31
0.0
  0
LINE
  5
D5AF
  8
0
 10
3618.0064109100271708
 20
319.4949596445683824
 30
0.0
 11
3617.9857494035509262
 21
319.4844416050573273
 31
0.0
  0
LINE
  5
D5B0
  8
0
 10
3617.9857494035509262
 20
319.4844416050573273
 30
0.0
 11
3617.9756333984159937
 21
319.4846437046069241
 31
0.0
  0
LINE
  5
D5B1
  8
0
 10
3617.9756333984159937
 20
319.4846437046069241
 30
0.0
 11
3617.9860151470570599
 21
319.4954035126388021
 31
0.0
  0
LINE
  5
D5B2
  8
0
 10
3617.9835464297780163
 20
319.4954565891018774
 30
0.0
 11
3617.977322107827149
 21
319.4888686510196862
 31
0.0
  0
LINE
  5
D5B3
  8
0
 10
3617.977322107827149
 20
319.4888686510196862
 30
0.0
 11
3617.975304358899848
 21
319.4879302479739067
 31
0.0
  0
LINE
  5
D5B4
  8
0
 10
3617.975304358899848
 20
319.4879302479739067
 30
0.0
 11
3617.9619872389180273
 21
319.4959141415545787
 31
0.0
  0
LINE
  5
D5B5
  8
0
 10
3617.9753043589021217
 20
319.4879302478967134
 30
0.0
 11
3617.9753043589012123
 21
319.4812609779572767
 31
0.0
  0
LINE
  5
D5B6
  8
0
 10
3617.7251125785319346
 20
319.458999257306175
 30
0.0
 11
3617.7644538302511137
 21
319.4611767700699829
 31
0.0
  0
LINE
  5
D5B7
  8
0
 10
3617.7644538302511137
 20
319.4611767700699829
 30
0.0
 11
3617.7546113106041048
 21
319.4683246554848779
 31
0.0
  0
LINE
  5
D5B8
  8
0
 10
3617.7546113106041048
 20
319.4683246554848779
 30
0.0
 11
3617.7349262711491065
 21
319.4674278746715004
 31
0.0
  0
LINE
  5
D5B9
  8
0
 10
3617.7349262711491065
 20
319.4674278746715004
 30
0.0
 11
3617.7251125785319346
 21
319.458999257306175
 31
0.0
  0
LINE
  5
D5BA
  8
0
 10
3617.7529226010701677
 20
319.4734329159671802
 30
0.0
 11
3617.7627651209199939
 21
319.4659506479376887
 31
0.0
  0
LINE
  5
D5BB
  8
0
 10
3617.7627651209199939
 20
319.4659506479376887
 30
0.0
 11
3617.782450160200824
 21
319.4677471543695901
 31
0.0
  0
LINE
  5
D5BC
  8
0
 10
3617.782450160200824
 20
319.4677471543695901
 30
0.0
 11
3617.7922926798778462
 21
319.477046376998203
 31
0.0
  0
LINE
  5
D5BD
  8
0
 10
3617.7922926798778462
 20
319.477046376998203
 30
0.0
 11
3617.7824501601940028
 21
319.4845523360335164
 31
0.0
  0
LINE
  5
D5BE
  8
0
 10
3617.7824501601940028
 20
319.4845523360335164
 30
0.0
 11
3617.7627651208617863
 21
319.4827352197992241
 31
0.0
  0
LINE
  5
D5BF
  8
0
 10
3617.7627651208617863
 20
319.4827352197992241
 30
0.0
 11
3617.7529226010701677
 21
319.4734329159671802
 31
0.0
  0
LINE
  5
D5C0
  8
0
 10
3617.7250837514770865
 20
319.486776483630706
 30
0.0
 11
3617.7349262712377822
 21
319.4780408514386068
 31
0.0
  0
LINE
  5
D5C1
  8
0
 10
3617.7349262712377822
 20
319.4780408514386068
 30
0.0
 11
3617.7546113105008772
 21
319.4789440820572963
 31
0.0
  0
LINE
  5
D5C2
  8
0
 10
3617.7546113105008772
 20
319.4789440820572963
 30
0.0
 11
3617.7644538302670298
 21
319.488595960408702
 31
0.0
  0
LINE
  5
D5C3
  8
0
 10
3617.7644538302670298
 20
319.488595960408702
 30
0.0
 11
3617.7546113106409393
 21
319.4973655140771029
 31
0.0
  0
LINE
  5
D5C4
  8
0
 10
3617.7546113106409393
 20
319.4973655140771029
 30
0.0
 11
3617.7349262712132258
 21
319.4964491271372253
 31
0.0
  0
LINE
  5
D5C5
  8
0
 10
3617.7349262712132258
 20
319.4964491271372253
 30
0.0
 11
3617.7250837514770865
 21
319.486776483630706
 31
0.0
  0
LINE
  5
D5C6
  8
0
 10
3617.7883799521328001
 20
319.4982681460157892
 30
0.0
 11
3617.7807614507560174
 21
319.4901078863970838
 31
0.0
  0
LINE
  5
D5C7
  8
0
 10
3617.7807614507560174
 20
319.4901078863970838
 30
0.0
 11
3617.790603970500797
 21
319.4822598099245852
 31
0.0
  0
LINE
  5
D5C8
  8
0
 10
3617.790603970500797
 20
319.4822598099245852
 30
0.0
 11
3617.8102890098571152
 21
319.4849950958541172
 31
0.0
  0
LINE
  5
D5C9
  8
0
 10
3617.8102890098571152
 20
319.4849950958541172
 30
0.0
 11
3617.8201315295409586
 21
319.495618678278106
 31
0.0
  0
LINE
  5
D5CA
  8
0
 10
3617.8201315295409586
 20
319.495618678278106
 30
0.0
 11
3617.8167555765730867
 21
319.4982290566823053
 31
0.0
  0
LINE
  5
D5CB
  8
0
 10
3617.7807614507710241
 20
319.4626607540773193
 30
0.0
 11
3617.8201315295777931
 21
319.4680684057400981
 31
0.0
  0
LINE
  5
D5CC
  8
0
 10
3617.8201315295777931
 20
319.4680684057400981
 30
0.0
 11
3617.8102890098348325
 21
319.4743319122995899
 31
0.0
  0
LINE
  5
D5CD
  8
0
 10
3617.8102890098348325
 20
319.4743319122995899
 30
0.0
 11
3617.790603970453958
 21
319.4716165252684732
 31
0.0
  0
LINE
  5
D5CE
  8
0
 10
3617.790603970453958
 20
319.4716165252684732
 30
0.0
 11
3617.7807614507710241
 21
319.4626607540773193
 31
0.0
  0
LINE
  5
D5CF
  8
0
 10
3617.8086003004000304
 20
319.4793035687883958
 30
0.0
 11
3617.8184428201011542
 21
319.4727046646200961
 31
0.0
  0
LINE
  5
D5D0
  8
0
 10
3617.8184428201011542
 20
319.4727046646200961
 30
0.0
 11
3617.8381278595011281
 21
319.4763483730735061
 31
0.0
  0
LINE
  5
D5D1
  8
0
 10
3617.8381278595011281
 20
319.4763483730735061
 30
0.0
 11
3617.8479703792031614
 21
319.4866337435518062
 31
0.0
  0
LINE
  5
D5D2
  8
0
 10
3617.8479703792031614
 20
319.4866337435518062
 30
0.0
 11
3617.8381278595479671
 21
319.4932541539417912
 31
0.0
  0
LINE
  5
D5D3
  8
0
 10
3617.8381278595479671
 20
319.4932541539417912
 30
0.0
 11
3617.8184428201780065
 21
319.4895674351993193
 31
0.0
  0
LINE
  5
D5D4
  8
0
 10
3617.8184428201780065
 20
319.4895674351993193
 30
0.0
 11
3617.8086003004000304
 21
319.4793035687883958
 31
0.0
  0
LINE
  5
D5D5
  8
0
 10
3617.8361833128678882
 20
319.4708198623657154
 30
0.0
 11
3617.8758092288007902
 21
319.4802628659572861
 31
0.0
  0
LINE
  5
D5D6
  8
0
 10
3617.8758092288007902
 20
319.4802628659572861
 30
0.0
 11
3617.8659667092329073
 21
319.4856217711400177
 31
0.0
  0
LINE
  5
D5D7
  8
0
 10
3617.8659667092329073
 20
319.4856217711400177
 30
0.0
 11
3617.8462816697101516
 21
319.4810090217450238
 31
0.0
  0
LINE
  5
D5D8
  8
0
 10
3617.8462816697101516
 20
319.4810090217450238
 30
0.0
 11
3617.8361833128678882
 21
319.4708198623657154
 31
0.0
  0
LINE
  5
D5D9
  8
0
 10
3617.8642779997348953
 20
319.4904686397708815
 30
0.0
 11
3617.8741205194478425
 21
319.4847695495838025
 31
0.0
  0
LINE
  5
D5DA
  8
0
 10
3617.8741205194478425
 20
319.4847695495838025
 30
0.0
 11
3617.8938055588009775
 21
319.4903693359216845
 31
0.0
  0
LINE
  5
D5DB
  8
0
 10
3617.8938055588009775
 20
319.4903693359216845
 30
0.0
 11
3617.8998155090621367
 21
319.4971737087096813
 31
0.0
  0
LINE
  5
D5DC
  8
0
 10
3617.8642779997348953
 20
319.4904686397708815
 30
0.0
 11
3617.8706804007169922
 21
319.497705367221613
 31
0.0
  0
LINE
  5
D5DD
  8
0
 10
3617.9030561989270609
 20
319.4971102517380928
 30
0.0
 11
3617.8921168494011908
 21
319.4848874294572738
 31
0.0
  0
LINE
  5
D5DE
  8
0
 10
3617.8921168494011908
 20
319.4848874294572738
 30
0.0
 11
3617.9289657556141719
 21
319.4965942171457982
 31
0.0
  0
LINE
  5
D5DF
  8
0
 10
3617.8671715964910618
 20
319.497758674768022
 30
0.0
 11
3617.865966709064196
 21
319.4963698793566778
 31
0.0
  0
LINE
  5
D5E0
  8
0
 10
3617.865966709064196
 20
319.4963698793566778
 30
0.0
 11
3617.8462816698011011
 21
319.4917219976554179
 31
0.0
  0
LINE
  5
D5E1
  8
0
 10
3617.8462816698011011
 20
319.4917219976554179
 30
0.0
 11
3617.8370977129211497
 21
319.4981057681978882
 31
0.0
  0
LINE
  5
D5E2
  8
0
 10
3617.78432390395119
 20
319.4982687784562927
 30
0.0
 11
3617.782450160200824
 21
319.496233582330774
 31
0.0
  0
LINE
  5
D5E3
  8
0
 10
3617.782450160200824
 20
319.496233582330774
 30
0.0
 11
3617.7627651208008501
 21
319.4943996465573264
 31
0.0
  0
LINE
  5
D5E4
  8
0
 10
3617.7627651208008501
 20
319.4943996465573264
 30
0.0
 11
3617.7584935072309236
 21
319.498260530306311
 31
0.0
  0
ARC
  5
D5E5
  8
0
 10
3617.7156449931530915
 20
320.0092087870347086
 30
0.0
 40
0.6102496696659717
 50
270.1206426781643017
 51
272.8486652164730799
  0
ARC
  5
D5E6
  8
0
 10
3617.7152972467010841
 20
320.0069199765969756
 30
0.0
 40
0.6079811447106377
 50
272.8921158312135162
 51
278.6222399937856267
  0
ARC
  5
D5E7
  8
0
 10
3617.7212853392611578
 20
319.9674292408029146
 30
0.0
 40
0.5680389932153762
 50
278.6222399937856267
 51
286.270545947736025
  0
ARC
  5
D5E8
  8
0
 10
3617.7120359864838974
 20
319.9991200272243077
 30
0.0
 40
0.6010519674951864
 50
286.270545947736025
 51
292.8123691864170155
  0
ARC
  5
D5E9
  8
0
 10
3617.6807319732861288
 20
320.0735443521082857
 30
0.0
 40
0.6817918051018828
 50
292.8123691864170155
 51
296.9725488313442838
  0
ARC
  5
D5EA
  8
0
 10
3617.9387891553660666
 20
319.5664781760781921
 30
0.0
 40
0.1128369597081573
 50
296.9725488313442838
 51
320.3852159472226049
  0
LINE
  5
D5EB
  8
0
 10
3617.7349262711491065
 20
319.4674278746715004
 30
0.0
 11
3617.7349262711491065
 21
319.4595424388268725
 31
0.0
  0
LINE
  5
D5EC
  8
0
 10
3617.7546113106041048
 20
319.4683246554848779
 30
0.0
 11
3617.7546113106041048
 21
319.4606319929919209
 31
0.0
  0
LINE
  5
D5ED
  8
0
 10
3617.7627651209199939
 20
319.4659506479376887
 30
0.0
 11
3617.7627651208617863
 21
319.4827352197992241
 31
0.0
  0
LINE
  5
D5EE
  8
0
 10
3617.782450160200824
 20
319.4677471543695901
 30
0.0
 11
3617.7824501601940028
 21
319.4845523360335164
 31
0.0
  0
LINE
  5
D5EF
  8
0
 10
3617.7349262712377822
 20
319.4780408514386068
 30
0.0
 11
3617.7349262712132258
 21
319.4964491271372253
 31
0.0
  0
LINE
  5
D5F0
  8
0
 10
3617.7546113105008772
 20
319.4789440820572963
 30
0.0
 11
3617.7546113106409393
 21
319.4973655140771029
 31
0.0
  0
LINE
  5
D5F1
  8
0
 10
3617.7627651208008501
 20
319.4943996465573264
 30
0.0
 11
3617.7627651208008501
 21
319.4982633587147802
 31
0.0
  0
LINE
  5
D5F2
  8
0
 10
3617.782450160200824
 20
319.496233582330774
 30
0.0
 11
3617.782450160200824
 21
319.4982688939380751
 31
0.0
  0
LINE
  5
D5F3
  8
0
 10
3617.790603970500797
 20
319.4822598099245852
 30
0.0
 11
3617.790603970500797
 21
319.4982675771365734
 31
0.0
  0
LINE
  5
D5F4
  8
0
 10
3617.8102890098571152
 20
319.4849950958541172
 30
0.0
 11
3617.8102890098571152
 21
319.4982494049929187
 31
0.0
  0
LINE
  5
D5F5
  8
0
 10
3617.790603970453958
 20
319.4716165252684732
 30
0.0
 11
3617.790603970453958
 21
319.4640126669904134
 31
0.0
  0
LINE
  5
D5F6
  8
0
 10
3617.8102890098348325
 20
319.4743319122995899
 30
0.0
 11
3617.8102890098348325
 21
319.4667164928187049
 31
0.0
  0
LINE
  5
D5F7
  8
0
 10
3617.8184428201011542
 20
319.4727046646200961
 30
0.0
 11
3617.8184428201780065
 21
319.4895674351993193
 31
0.0
  0
LINE
  5
D5F8
  8
0
 10
3617.8381278595011281
 20
319.4763483730735061
 30
0.0
 11
3617.8381278595479671
 21
319.4932541539417912
 31
0.0
  0
LINE
  5
D5F9
  8
0
 10
3617.8462816698011011
 20
319.4917219976554179
 30
0.0
 11
3617.8462816698011011
 21
319.4980206299395036
 31
0.0
  0
LINE
  5
D5FA
  8
0
 10
3617.8462816697101516
 20
319.4810090217450238
 30
0.0
 11
3617.8462816697101516
 21
319.473226338473296
 31
0.0
  0
LINE
  5
D5FB
  8
0
 10
3617.8659667092329073
 20
319.4856217711400177
 30
0.0
 11
3617.8659667092329073
 21
319.4779173568265946
 31
0.0
  0
LINE
  5
D5FC
  8
0
 10
3617.8741205194478425
 20
319.4847695495838025
 30
0.0
 11
3617.8741205194478425
 21
319.4976505038966934
 31
0.0
  0
LINE
  5
D5FD
  8
0
 10
3617.8938055588009775
 20
319.4903693359216845
 30
0.0
 11
3617.8938055588009775
 21
319.4972907516756777
 31
0.0
  0
LINE
  5
D5FE
  8
0
 10
3617.7349269299797925
 20
319.3998862873204985
 30
0.0
 11
3617.7344553947068562
 21
319.4024640247143907
 31
0.0
  0
LINE
  5
D5FF
  8
0
 10
3617.7548050080008579
 20
319.4008310740572938
 30
0.0
 11
3617.7546113104840515
 21
319.4034533908563276
 31
0.0
  0
LINE
  5
D600
  8
0
 10
3617.7349262711400115
 20
319.4052757234202886
 30
0.0
 11
3617.7349262711400115
 21
319.4082211662865802
 31
0.0
  0
LINE
  5
D601
  8
0
 10
3617.7546113105008772
 20
319.4061725042068929
 30
0.0
 11
3617.7546113105008772
 21
319.409114191548781
 31
0.0
  0
LINE
  5
D602
  8
0
 10
3617.7627651208008501
 20
319.4033777134208094
 30
0.0
 11
3617.7627651208008501
 21
319.4076653121852019
 31
0.0
  0
LINE
  5
D603
  8
0
 10
3617.782450160200824
 20
319.4051948295905845
 30
0.0
 11
3617.782450160470944
 21
319.4094618185860099
 31
0.0
  0
LINE
  5
D604
  8
0
 10
3617.790603970500797
 20
319.4041670589572846
 30
0.0
 11
3617.7906039705271724
 21
319.406769118837417
 31
0.0
  0
LINE
  5
D605
  8
0
 10
3617.8102890094601207
 20
319.4069429599763907
 30
0.0
 11
3617.8102890098011812
 21
319.4095044046571843
 31
0.0
  0
LINE
  5
D606
  8
0
 10
3617.790603970500797
 20
319.4094643740572792
 30
0.0
 11
3617.790603970500797
 21
319.4123966010808999
 31
0.0
  0
LINE
  5
D607
  8
0
 10
3617.8102890098011812
 20
319.4121797610573026
 30
0.0
 11
3617.8102890098011812
 21
319.415100426924198
 31
0.0
  0
LINE
  5
D608
  8
0
 10
3617.8184428198778733
 20
319.4102099287189276
 30
0.0
 11
3617.8184428201730043
 21
319.4144193288415181
 31
0.0
  0
LINE
  5
D609
  8
0
 10
3617.8381278595011281
 20
319.413896647457193
 30
0.0
 11
3617.8382339195509303
 21
319.4180603355296739
 31
0.0
  0
LINE
  5
D60A
  8
0
 10
3617.8462816698011011
 20
319.4137715522572876
 30
0.0
 11
3617.8457315594578176
 21
319.4161014187802721
 31
0.0
  0
LINE
  5
D60B
  8
0
 10
3617.8659667091228584
 20
319.4184912362543969
 30
0.0
 11
3617.8654326569849218
 21
319.4207530919200053
 31
0.0
  0
LINE
  5
D60C
  8
0
 10
3617.8451675416540638
 20
319.4188907723175816
 30
0.0
 11
3617.8451675416540638
 21
319.421498229406609
 31
0.0
  0
LINE
  5
D60D
  8
0
 10
3617.8659667088090828
 20
319.4234696197631251
 30
0.0
 11
3617.8659667088090828
 21
319.426350583494127
 31
0.0
  0
LINE
  5
D60E
  8
0
 10
3617.8741205191490735
 20
319.422419514888702
 30
0.0
 11
3617.8741205194010035
 21
319.4264842136931861
 31
0.0
  0
LINE
  5
D60F
  8
0
 10
3617.8938055588009775
 20
319.4280887503571762
 30
0.0
 11
3617.8938055587759663
 21
319.4320840001543047
 31
0.0
  0
LINE
  5
D610
  8
0
 10
3617.9019593691009504
 20
319.4337325839418895
 30
0.0
 11
3617.9019593691009504
 21
319.4366440315830005
 31
0.0
  0
LINE
  5
D611
  8
0
 10
3617.9216444084308932
 20
319.4403873250132051
 30
0.0
 11
3617.9216444084308932
 21
319.4432670002245231
 31
0.0
  0
LINE
  5
D612
  8
0
 10
3617.9019593691009504
 20
319.4289991094879042
 30
0.0
 11
3617.9019593691009504
 21
319.4312225607573055
 31
0.0
  0
LINE
  5
D613
  8
0
 10
3617.9213217487008478
 20
319.4357005948572805
 30
0.0
 11
3617.9206742536880483
 21
319.4376005380385095
 31
0.0
  0
LINE
  5
D614
  8
0
 10
3617.9297982187931666
 20
319.4403929436923022
 30
0.0
 11
3617.9299959414370278
 21
319.4443099987079222
 31
0.0
  0
LINE
  5
D615
  8
0
 10
3617.9494832581008268
 20
319.4482369281573142
 30
0.0
 11
3617.949483076578872
 21
319.451972870440386
 31
0.0
  0
LINE
  5
D616
  8
0
 10
3617.9576362745251572
 20
319.454576755408084
 30
0.0
 11
3617.9576362745251572
 21
319.4571706532117901
 31
0.0
  0
LINE
  5
D617
  8
0
 10
3617.977322107793043
 20
319.4635096354302277
 30
0.0
 11
3617.9773221078007737
 21
319.4688689450571815
 31
0.0
  0
LINE
  5
D618
  8
0
 10
3617.9656155469328951
 20
319.463508527546594
 30
0.0
 11
3617.9656155469328951
 21
319.4581975258431044
 31
0.0
  0
LINE
  5
D619
  8
0
 10
3618.4759536910460156
 20
319.4012329796290146
 30
0.0
 11
3618.4759536910460156
 21
320.0669934257156228
 31
0.0
  0
ARC
  5
D61A
  8
0
 10
3617.4933871692428511
 20
297.7731866814316959
 30
0.0
 40
22.3455840430515984
 50
87.5572105183338465
 51
89.4266856391249974
  0
ARC
  5
D61B
  8
0
 10
3618.4444536910459647
 20
320.0669934257156228
 30
0.0
 40
0.0315
 50
359.9999999999968168
 51
87.5572105183338465
  0
ARC
  5
D61C
  8
0
 10
3617.69379303393589
 20
320.6357304348953221
 30
0.0
 40
1.4801211252733899
 50
274.1048327660113273
 51
301.0340800786906925
  0
ARC
  5
D61D
  8
0
 10
3617.69379303393589
 20
320.6357304348953221
 30
0.0
 40
1.4801211252733899
 50
270.8975444818062783
 51
274.0575501724508172
  0
ARC
  5
D61E
  8
0
 10
3618.4365536910449919
 20
319.4012329796290146
 30
0.0
 40
0.0394
 50
301.0340800787197963
 51
359.9999999999935199
  0
LINE
  5
D61F
  8
0
 10
3618.2699392871700184
 20
319.5227913659174988
 30
0.0
 11
3618.4538868297040608
 21
319.365684779371179
 31
0.0
  0
ARC
  5
D620
  8
0
 10
3615.5585594745080016
 20
218.3742276804584037
 30
0.0
 40
101.1848976681792038
 50
88.4645019082121848
 51
88.7777062089867854
  0
LINE
  5
D621
  8
0
 10
3616.9881604032120777
 20
320.0984648009729767
 30
0.0
 11
3618.4457962778787987
 21
320.0984648009729767
 31
0.0
  0
CIRCLE
  5
D622
  8
0
 10
3617.7169783405461203
 20
319.6351461939041769
 30
0.0
 40
1.1967382024500011
  0
LINE
  5
D623
  8
0
 10
3617.1269484383419694
 20
320.066674428932572
 30
0.0
 11
3617.1316746491770573
 21
319.5539896826983863
 31
0.0
  0
ARC
  5
D624
  8
0
 10
3617.158447099965997
 20
320.0669648009729826
 30
0.0
 40
0.0315
 50
90.0
 51
180.5281691439409997
  0
ARC
  5
D625
  8
0
 10
3617.1631733108010849
 20
319.5542800547389106
 30
0.0
 40
0.0315
 50
180.5281691439508052
 51
271.5354980917617809
  0
LINE
  5
D626
  8
0
 10
3618.3070082427479974
 20
320.066674428932572
 30
0.0
 11
3618.3022820319129096
 21
319.5539896826983863
 31
0.0
  0
ARC
  5
D627
  8
0
 10
3618.2755095811239698
 20
320.0669648009729826
 30
0.0
 40
0.0315
 50
359.4718308560558171
 51
90.0
  0
ARC
  5
D628
  8
0
 10
3618.270783370288882
 20
319.5542800547389106
 30
0.0
 40
0.0315
 50
268.4645019082382191
 51
359.4718308560459832
  0
LINE
  5
D62A
  8
0
 10
3617.7267724609009747
 20
319.4926478035573041
 30
0.0
 11
3617.7070874215010008
 21
319.4926478035573041
 31
0.0
  0
LINE
  5
D62B
  8
0
 10
3617.7070874215010008
 20
319.4926478035573041
 30
0.0
 11
3617.7016034343760111
 21
319.4982304290401771
 31
0.0
  0
LINE
  5
D62C
  8
0
 10
3617.7267724609009747
 20
319.4809993387572717
 30
0.0
 11
3617.7070874215010008
 21
319.4809993387572717
 31
0.0
  0
LINE
  5
D62D
  8
0
 10
3617.7070874215010008
 20
319.4809993387572717
 30
0.0
 11
3617.6972449018380757
 21
319.47268750446068
 31
0.0
  0
LINE
  5
D62E
  8
0
 10
3617.6972449018380757
 20
319.47268750446068
 30
0.0
 11
3617.7070874215010008
 21
319.464313351434896
 31
0.0
  0
LINE
  5
D62F
  8
0
 10
3617.7070874215010008
 20
319.464313351434896
 30
0.0
 11
3617.7267724609009747
 21
319.464313351434896
 31
0.0
  0
LINE
  5
D630
  8
0
 10
3617.7070874215010008
 20
319.4926478035573041
 30
0.0
 11
3617.7070874215010008
 21
319.4982213711393229
 31
0.0
  0
LINE
  5
D631
  8
0
 10
3617.7070874215010008
 20
319.4809993387572717
 30
0.0
 11
3617.7070874215010008
 21
319.464313351434896
 31
0.0
  0
LINE
  5
D632
  8
0
 10
3617.7267724609009747
 20
319.4926478035573041
 30
0.0
 11
3617.7322564480259643
 21
319.4982304290401771
 31
0.0
  0
LINE
  5
D633
  8
0
 10
3617.7267724609009747
 20
319.4809993387572717
 30
0.0
 11
3617.7366149805638997
 21
319.47268750446068
 31
0.0
  0
LINE
  5
D634
  8
0
 10
3617.7366149805638997
 20
319.47268750446068
 30
0.0
 11
3617.7267724609009747
 21
319.464313351434896
 31
0.0
  0
LINE
  5
D635
  8
0
 10
3617.7267724609009747
 20
319.4926478035573041
 30
0.0
 11
3617.7267724609009747
 21
319.4982213711393229
 31
0.0
  0
LINE
  5
D636
  8
0
 10
3617.7267724609009747
 20
319.4809993387572717
 30
0.0
 11
3617.7267724609009747
 21
319.464313351434896
 31
0.0
  0
LINE
  5
D637
  8
0
 10
3617.7070874214641663
 20
319.4017217520420786
 30
0.0
 11
3617.6972449018398947
 21
319.4038660832223968
 31
0.0
  0
LINE
  5
D638
  8
0
 10
3617.6972449018398947
 20
319.4038660832223968
 30
0.0
 11
3617.7070874212331546
 21
319.4060280156612066
 31
0.0
  0
LINE
  5
D639
  8
0
 10
3617.7070874212331546
 20
319.4060280156612066
 30
0.0
 11
3617.7070874214641663
 21
319.4017217520420786
 31
0.0
  0
LINE
  5
D63A
  8
0
 10
3617.6981014721918655
 20
319.3992906697584999
 30
0.0
 11
3617.7070874214809919
 21
319.4000324093848917
 31
0.0
  0
LINE
  5
D63B
  8
0
 10
3617.7267724609378092
 20
319.4017217520420786
 30
0.0
 11
3617.7366149805620807
 21
319.4038660832223968
 31
0.0
  0
LINE
  5
D63C
  8
0
 10
3617.7366149805620807
 20
319.4038660832223968
 30
0.0
 11
3617.7267724611701851
 21
319.4060280156612066
 31
0.0
  0
LINE
  5
D63D
  8
0
 10
3617.7267724611701851
 20
319.4060280156612066
 30
0.0
 11
3617.7267724609378092
 21
319.4017217520420786
 31
0.0
  0
LINE
  5
D63E
  8
0
 10
3617.7357584102110195
 20
319.3992906697584999
 30
0.0
 11
3617.7267724609209836
 21
319.4000324093848917
 31
0.0
  0
LINE
  5
D63F
  8
0
 10
3617.7070874214809919
 20
319.4000324093848917
 30
0.0
 11
3617.7070874214809919
 21
319.3990605765246755
 31
0.0
  0
LINE
  5
D640
  8
0
 10
3617.7070874214809919
 20
319.4000324093848917
 30
0.0
 11
3617.7267724609209836
 21
319.4000324093848917
 31
0.0
  0
LINE
  5
D641
  8
0
 10
3617.7267724609209836
 20
319.4000324093848917
 30
0.0
 11
3617.7267724609209836
 21
319.3990605765246755
 31
0.0
  0
LINE
  5
D642
  8
0
 10
3617.7070874214641663
 20
319.4017217520420786
 30
0.0
 11
3617.7267724609378092
 21
319.4017217520420786
 31
0.0
  0
LINE
  5
D643
  8
0
 10
3617.7070874212331546
 20
319.4060280156612066
 30
0.0
 11
3617.7267724611701851
 21
319.4060280156612066
 31
0.0
  0
ARC
  5
D644
  8
0
 10
2581.2247421164220214
 20
260.2670661006151249
 30
0.0
 40
1041.3578018333150794
 50
3.1966654917796991
 51
3.2656000256786011
  0
ARC
  5
D645
  8
0
 10
6358.1794446278654505
 20
471.2111190847928128
 30
0.0
 40
2741.4829585361590034
 50
183.1966654917796973
 51
183.2233844883716927
  0
ARC
  5
D646
  8
0
 10
3621.7201014690758711
 20
317.0988865403991213
 30
0.0
 40
0.6873957524181776
 50
183.2202028707910131
 51
201.2747373001753886
  0
ARC
  5
D647
  8
0
 10
3621.7160335316880264
 20
317.0973025838029002
 30
0.0
 40
0.6830303162322016
 50
201.2747373001753886
 51
238.5744856525820126
  0
ARC
  5
D648
  8
0
 10
3621.7176260173328046
 20
317.0999088835658881
 30
0.0
 40
0.6860846261357336
 50
238.5744856525820126
 51
270.0136296705484256
  0
ARC
  5
D649
  8
0
 10
3306.9000187162760085
 20
336.3705155652776284
 30
0.0
 40
316.0882179366286096
 50
356.7293243790761039
 51
356.9564308990704831
  0
ARC
  5
D64A
  8
0
 10
885.256133822024367
 20
471.2111190847928128
 30
0.0
 40
2741.4829585361590034
 50
356.7766155116283926
 51
356.8033345082203027
  0
ARC
  5
D64B
  8
0
 10
3621.7154769808148558
 20
317.0988865403991213
 30
0.0
 40
0.6873957524181776
 50
338.7252626998246114
 51
356.7797971292089869
  0
ARC
  5
D64C
  8
0
 10
3621.7195449182031552
 20
317.0973025838029002
 30
0.0
 40
0.6830303162322016
 50
301.4255143474180159
 51
338.7252626998246114
  0
ARC
  5
D64D
  8
0
 10
3621.7179524325570128
 20
317.0999088835658881
 30
0.0
 40
0.6860846261357336
 50
269.9863703294515744
 51
301.4255143474180159
  0
ARC
  5
D64E
  8
0
 10
3617.3282769532979728
 20
320.0107537053985993
 30
0.0
 40
0.5148674077843391
 50
251.3955608644884876
 51
264.5742654134783152
  0
ARC
  5
D64F
  8
0
 10
3617.7169299412012151
 20
320.5535800456606808
 30
0.0
 40
1.172536556022393
 50
265.3227490363871084
 51
274.6772509636128916
  0
ARC
  5
D650
  8
0
 10
3617.7059668639640222
 20
320.5038835130752091
 30
0.0
 40
1.1245682137197099
 50
241.012413898917913
 51
256.0976329896762991
  0
ARC
  5
D651
  8
0
 10
3617.7230827706362106
 20
320.5606897776057167
 30
0.0
 40
1.1838265493168929
 50
255.954092317764804
 51
266.7051656630010257
  0
ARC
  5
D652
  8
0
 10
3617.7169538132698108
 20
320.5104255380849736
 30
0.0
 40
1.133297743383223
 50
266.8684608688051867
 51
280.4161284918640149
  0
ARC
  5
D653
  8
0
 10
3617.7130801924749903
 20
320.5528333066761775
 30
0.0
 40
1.1757133210662269
 50
280.2281478177229133
 51
298.4863741168687739
  0
ARC
  5
D654
  8
0
 10
3618.068078403653999
 20
320.7327419153878054
 30
0.0
 40
1.238852363217082
 50
268.6957199142375998
 51
270.6030036343591973
  0
ARC
  5
D655
  8
0
 10
3618.0729626227021072
 20
320.2686737249027829
 30
0.0
 40
0.774758470760303
 50
270.6030036343591973
 51
276.0237602068672231
  0
ARC
  5
D656
  8
0
 10
3618.1055829291040027
 20
320.0107537053985993
 30
0.0
 40
0.5148674077843391
 50
275.425734586521628
 51
288.604439135511484
  0
ENDSEC
  0
EOF
