  0
SECTION
  2
HEADER
  9
$ACADVER
  1
AC1009
  9
$INSBASE
 10
3608.7250921682530134
 20
322.6871123421677225
 30
0.0
  9
$EXTMIN
 10
3607.528353965803035
 20
319.1822369260660821
 30
0.0
  9
$EXTMAX
 10
3613.9061945304520123
 20
323.883850544617701
 30
0.0
  9
$LIMMIN
 10
0.0
 20
0.0
  9
$LIMMAX
 10
11.6929133858000007
 20
8.2677165353999982
  9
$ORTHOMODE
 70
     0
  9
$REGENMODE
 70
     1
  9
$FILLMODE
 70
     1
  9
$QTEXTMODE
 70
     0
  9
$MIRRTEXT
 70
     0
  9
$DRAGMODE
 70
     2
  9
$LTSCALE
 40
0.6431102362
  9
$OSMODE
 70
  4095
  9
$ATTMODE
 70
     1
  9
$TEXTSIZE
 40
0.2
  9
$TRACEWID
 40
0.05
  9
$TEXTSTYLE
  7
STANDARD
  9
$CLAYER
  8
0
  9
$CELTYPE
  6
BYLAYER
  9
$CECOLOR
 62
   256
  9
$DIMSCALE
 40
1.0
  9
$DIMASZ
 40
0.1875
  9
$DIMEXO
 40
0.0625
  9
$DIMDLI
 40
0.4443307087
  9
$DIMRND
 40
0.0
  9
$DIMDLE
 40
0.0
  9
$DIMEXE
 40
0.125
  9
$DIMTP
 40
0.01
  9
$DIMTM
 40
0.01
  9
$DIMTXT
 40
2.0
  9
$DIMCEN
 40
0.1052362205
  9
$DIMTSZ
 40
0.0
  9
$DIMTOL
 70
     1
  9
$DIMLIM
 70
     0
  9
$DIMTIH
 70
     1
  9
$DIMTOH
 70
     1
  9
$DIMSE1
 70
     0
  9
$DIMSE2
 70
     0
  9
$DIMTAD
 70
     0
  9
$DIMZIN
 70
     0
  9
$DIMBLK
  1

  9
$DIMASO
 70
     1
  9
$DIMSHO
 70
     1
  9
$DIMPOST
  1
\X
  9
$DIMAPOST
  1

  9
$DIMALT
 70
     1
  9
$DIMALTD
 70
     2
  9
$DIMALTF
 40
25.3999999999999986
  9
$DIMLFAC
 40
1.0
  9
$DIMTOFL
 70
     0
  9
$DIMTVP
 40
0.0
  9
$DIMTIX
 70
     0
  9
$DIMSOXD
 70
     0
  9
$DIMSAH
 70
     0
  9
$DIMBLK1
  1

  9
$DIMBLK2
  1

  9
$DIMSTYLE
  2
STANDARD
  9
$DIMCLRD
 70
     0
  9
$DIMCLRE
 70
     0
  9
$DIMCLRT
 70
     0
  9
$DIMTFAC
 40
1.0
  9
$DIMGAP
 40
0.09
  9
$LUNITS
 70
     2
  9
$LUPREC
 70
     4
  9
$SKETCHINC
 40
0.1
  9
$FILLETRAD
 40
0.0
  9
$AUNITS
 70
     0
  9
$AUPREC
 70
     0
  9
$MENU
  1
.
  9
$ELEVATION
 40
0.0
  9
$PELEVATION
 40
0.0
  9
$THICKNESS
 40
0.0
  9
$LIMCHECK
 70
     0
  9
$BLIPMODE
 70
     0
  9
$CHAMFERA
 40
0.0
  9
$CHAMFERB
 40
0.0
  9
$SKPOLY
 70
     0
  9
$TDCREATE
 40
2458060.468368056230247
  9
$TDUPDATE
 40
2459423.6468055550940335
  9
$TDINDWG
 40
0.7420556713000001
  9
$TDUSRTIMER
 40
0.7420556713000001
  9
$USRTIMER
 70
     1
  9
$ANGBASE
 50
0.0
  9
$ANGDIR
 70
     0
  9
$PDMODE
 70
     0
  9
$PDSIZE
 40
0.3125
  9
$PLINEWID
 40
0.0
  9
$COORDS
 70
     1
  9
$SPLFRAME
 70
     0
  9
$SPLINETYPE
 70
     6
  9
$SPLINESEGS
 70
     8
  9
$ATTDIA
 70
     1
  9
$ATTREQ
 70
     1
  9
$HANDLING
 70
     1
  9
$HANDSEED
  5
D2A9
  9
$SURFTAB1
 70
     6
  9
$SURFTAB2
 70
     6
  9
$SURFTYPE
 70
     6
  9
$SURFU
 70
     6
  9
$SURFV
 70
     6
  9
$UCSNAME
  2

  9
$UCSORG
 10
0.0
 20
0.0
 30
0.0
  9
$UCSXDIR
 10
1.0
 20
0.0
 30
0.0
  9
$UCSYDIR
 10
0.0
 20
1.0
 30
0.0
  9
$PUCSNAME
  2

  9
$PUCSORG
 10
0.0
 20
0.0
 30
0.0
  9
$PUCSXDIR
 10
1.0
 20
0.0
 30
0.0
  9
$PUCSYDIR
 10
0.0
 20
1.0
 30
0.0
  9
$USERI1
 70
     0
  9
$USERI2
 70
     0
  9
$USERI3
 70
     0
  9
$USERI4
 70
     0
  9
$USERI5
 70
     0
  9
$USERR1
 40
0.0
  9
$USERR2
 40
0.0
  9
$USERR3
 40
0.0
  9
$USERR4
 40
0.0
  9
$USERR5
 40
0.0
  9
$WORLDVIEW
 70
     1
  9
$SHADEDGE
 70
     3
  9
$SHADEDIF
 70
    70
  9
$TILEMODE
 70
     1
  9
$MAXACTVP
 70
    64
  9
$PLIMCHECK
 70
     0
  9
$PEXTMIN
 10
1.0000000000000000E+20
 20
1.0000000000000000E+20
 30
1.0000000000000000E+20
  9
$PEXTMAX
 10
-1.0000000000000000E+20
 20
-1.0000000000000000E+20
 30
-1.0000000000000000E+20
  9
$PLIMMIN
 10
0.0
 20
0.0
  9
$PLIMMAX
 10
12.0
 20
9.0
  9
$UNITMODE
 70
     0
  9
$VISRETAIN
 70
     1
  9
$PLINEGEN
 70
     0
  9
$PSLTSCALE
 70
     1
  0
ENDSEC
  0
SECTION
  2
TABLES
  0
TABLE
  2
VPORT
 70
     1
  0
VPORT
  2
*ACTIVE
 70
     0
 10
0.0
 20
0.0
 11
1.0
 21
1.0
 12
30.0525260574590085
 22
-0.8997996745463296
 13
0.0
 23
0.0
 14
1.0
 24
1.0
 15
0.0
 25
0.0
 16
0.0
 26
0.0
 36
24.2172351446446505
 17
3580.69287109375
 27
322.4241180419921875
 37
0.0
 40
4.5803112541072766
 41
2.8440779610194902
 42
50.0
 43
0.0
 44
0.0
 50
0.0
 51
0.0
 71
     0
 72
   100
 73
     1
 74
     1
 75
     0
 76
     0
 77
     0
 78
     0
  0
ENDTAB
  0
TABLE
  2
LTYPE
 70
     2
  0
LTYPE
  2
CONTINUOUS
 70
     0
  3
Solid line
 72
    65
 73
     0
 40
0.0
  0
LTYPE
  2
PHANTOM2
 70
     0
  3
___ _ _ ___ _ _ ___ _ _ ___ _ _
 72
    65
 73
     6
 40
1.25
 49
0.625
 49
-0.125
 49
0.125
 49
-0.125
 49
0.125
 49
-0.125
  0
ENDTAB
  0
TABLE
  2
LAYER
 70
     2
  0
LAYER
  2
0
 70
     0
 62
   255
  6
CONTINUOUS
  0
LAYER
  2
DEFPOINTS
 70
     0
 62
     7
  6
CONTINUOUS
  0
ENDTAB
  0
TABLE
  2
STYLE
 70
     1
  0
STYLE
  2
STANDARD
 70
     0
 40
0.0
 41
0.8
 50
0.0
 71
     0
 42
0.2
  3
txt
  4

  0
ENDTAB
  0
TABLE
  2
VIEW
 70
     0
  0
ENDTAB
  0
TABLE
  2
UCS
 70
     0
  0
ENDTAB
  0
TABLE
  2
APPID
 70
     9
  0
APPID
  2
ACAD
 70
     0
  0
APPID
  2
ACAD_MLEADERVER
 70
     0
  0
APPID
  2
ACAD_EXEMPT_FROM_CAD_STANDARDS
 70
     0
  0
APPID
  2
ACAD_NAV_VCDISPLAY
 70
     0
  0
APPID
  2
ACAECLAYERSTANDARD
 70
     0
  0
APPID
  2
ACCMTRANSPARENCY
 70
     0
  0
APPID
  2
ACAD_DSTYLE_DIMJAG
 70
     0
  0
APPID
  2
ACAD_DSTYLE_DIMTALN
 70
     0
  0
APPID
  2
ACDBATTR
 70
     0
  0
ENDTAB
  0
TABLE
  2
DIMSTYLE
 70
     1
  0
DIMSTYLE
  2
STANDARD
 70
     0
  3

  4

  5

  6

  7

 40
1.0
 41
0.1875
 42
0.0625
 43
0.38
 44
0.125
 45
0.0
 46
0.0
 47
0.01
 48
0.01
140
0.15625
141
0.09
142
0.0
143
25.3999999999999986
144
1.0
145
0.0
146
1.0
147
0.09
 71
     1
 72
     0
 73
     1
 74
     1
 75
     0
 76
     0
 77
     0
 78
     4
170
     0
171
     2
172
     0
173
     0
174
     0
175
     0
176
     0
177
     0
178
     0
  0
ENDTAB
  0
ENDSEC
  0
SECTION
  2
BLOCKS
  0
BLOCK
  8
0
  2
$MODEL_SPACE
 70
     0
 10
0.0
 20
0.0
 30
0.0
  3
$MODEL_SPACE
  1

  0
ENDBLK
  5
21
  8
0
  0
BLOCK
 67
     1
  8
0
  2
$PAPER_SPACE
 70
     0
 10
0.0
 20
0.0
 30
0.0
  3
$PAPER_SPACE
  1

  0
ENDBLK
  5
1D
 67
     1
  8
0
  0
ENDSEC
  0
SECTION
  2
ENTITIES
  0
ATTDEF
  5
3930
  8
DEFPOINTS
 10
3608.7230089048161972
 20
322.6923334353489281
 30
0.0
 40
0.001
  1
K-26048T-4
  3

  2
MODELNUMBER
 70
     0
1001
ACDBATTR
1070
     0
1070
     1
  0
ATTDEF
  5
3931
  8
DEFPOINTS
 10
3608.7230089048161972
 20
322.6906667686822061
 30
0.0
 40
0.001
  1

  3

  2
TRADENAME
 70
     0
1001
ACDBATTR
1070
     0
1070
     1
  0
ATTDEF
  5
3932
  8
DEFPOINTS
 10
3608.7230089048161972
 20
322.6890001020154841
 30
0.0
 40
0.001
  1
BATHROOM SINK FAUCET
  3

  2
PRODUCT
 70
     0
1001
ACDBATTR
1070
     0
1070
     1
  0
ARC
  5
CF3E
  8
0
 10
3612.7250921682530134
 20
322.6869685583188243
 30
0.0
 40
0.8267533640999998
 50
335.9313629415216269
 51
204.0686370584753035
  0
ARC
  5
CF3F
  8
0
 10
3612.7250921682530134
 20
322.6871123421177003
 30
0.0
 40
1.1811023622000021
 50
293.1407308260218088
 51
246.8592691739781912
  0
ARC
  5
CF40
  8
0
 10
3612.7371148712240938
 20
319.8528555984353261
 30
0.0
 40
0.6707264338886612
 50
265.5153972968419112
 51
268.9729239861654833
  0
ARC
  5
CF41
  8
0
 10
3612.7138449548187964
 20
319.4887835438037769
 30
0.0
 40
0.3059948860596584
 50
247.0704141261892062
 51
264.5288422447299013
  0
ARC
  5
CF42
  8
0
 10
3612.6598113532531897
 20
319.3610521368123045
 30
0.0
 40
0.1673047911348645
 50
226.8243819635081877
 51
247.0704141261892062
  0
ARC
  5
CF43
  8
0
 10
3612.6670608927929607
 20
319.3687786986919264
 30
0.0
 40
0.1778998646130835
 50
204.77713821641359
 51
226.8243819635081877
  0
ARC
  5
CF44
  8
0
 10
3612.6659477088878702
 20
319.3682648744253925
 30
0.0
 40
0.1766738165794418
 50
182.1914735207433012
 51
204.77713821641359
  0
ARC
  5
CF45
  8
0
 10
3628.1206222486080151
 20
319.6273011931344854
 30
0.0
 40
15.6334787327307598
 50
180.4232105157522028
 51
180.9741595840359878
  0
ARC
  5
CF46
  8
0
 10
3592.5908340958781082
 20
319.2659283951895759
 30
0.0
 40
19.8982553314778592
 50
0.708067220316919
 51
1.425809448408996
  0
ARC
  5
CF47
  8
0
 10
3597.7154067220258185
 20
319.4170299560037165
 30
0.0
 40
14.7715283381277391
 50
1.334492437588509
 51
3.5693182701480501
  0
ARC
  5
CF48
  8
0
 10
3604.6522495102872199
 20
319.8690815748665841
 30
0.0
 40
7.8200224659454953
 50
3.4278070205377071
 51
8.7839599645894744
  0
ARC
  5
CF49
  8
0
 10
3608.3515060323948092
 20
320.4492270928462858
 30
0.0
 40
4.0755690665832152
 50
8.6654384035351004
 51
21.7062389546939514
  0
ARC
  5
CF4A
  8
0
 10
3606.1253814956471615
 20
319.5637747845477747
 30
0.0
 40
6.4713269776692606
 50
21.7003899331281609
 51
23.9483848561312911
  0
ARC
  5
CF4B
  8
0
 10
3645.0170724172139671
 20
336.9740799640376281
 30
0.0
 40
36.1395300757257871
 50
203.9417595668184902
 51
204.1462682062702072
  0
ARC
  5
CF4C
  8
0
 10
3612.6258683093387845
 20
322.5920208838388135
 30
0.0
 40
0.6989639551855181
 50
200.2765988397408137
 51
203.9417595668184902
  0
ARC
  5
CF4D
  8
0
 10
3612.730172887218032
 20
319.8249791311509966
 30
0.0
 40
0.4891104844426929
 50
263.4734608945905734
 51
269.4048195686697795
  0
ARC
  5
CF4E
  8
0
 10
3612.7127547264672103
 20
319.6496030729766176
 30
0.0
 40
0.3129022166748709
 50
252.296696484766187
 51
262.992136878617373
  0
ARC
  5
CF4F
  8
0
 10
3612.6802179870041982
 20
319.5476722858302878
 30
0.0
 40
0.2059044373371569
 50
227.6550943515638039
 51
252.2966964847651923
  0
ARC
  5
CF50
  8
0
 10
3612.6428809551639461
 20
319.5067039738697758
 30
0.0
 40
0.1504746932326117
 50
197.1115693182833866
 51
227.655094351561587
  0
ARC
  5
CF51
  8
0
 10
3612.7240101146308007
 20
319.5316804956013925
 30
0.0
 40
0.2353614834515857
 50
182.1420093129997895
 51
197.111569318286513
  0
ARC
  5
CF52
  8
0
 10
3594.8976863150692225
 20
319.4096882970968068
 30
0.0
 40
17.5914909631549499
 50
0.3686813026227671
 51
1.9948591047566071
  0
ARC
  5
CF53
  8
0
 10
3601.9884131596950283
 20
319.6753780212839047
 30
0.0
 40
10.4958294711777107
 50
1.89276795803617
 51
5.3633134051959601
  0
ARC
  5
CF54
  8
0
 10
3606.2810359570730725
 20
320.0753757550399996
 30
0.0
 40
6.1846122984007517
 50
5.3909994381914563
 51
9.7049670448349925
  0
ARC
  5
CF55
  8
0
 10
3607.9427833775807812
 20
320.3518764115128761
 30
0.0
 40
4.5000417211437691
 50
9.8015436269884386
 51
13.5712812963957408
  0
ARC
  5
CF56
  8
0
 10
3610.0066171367780044
 20
320.879678831132594
 30
0.0
 40
2.3701560761703968
 50
12.8756183027092792
 51
20.1859827919422301
  0
ARC
  5
CF57
  8
0
 10
3612.7130694652810234
 20
319.8528555984353261
 30
0.0
 40
0.6707264338886612
 50
271.0270760138345167
 51
274.4846027031580888
  0
ARC
  5
CF58
  8
0
 10
3612.7363393816858661
 20
319.4887835438037769
 30
0.0
 40
0.3059948860596584
 50
275.4711577552700987
 51
292.9295858738108791
  0
ARC
  5
CF59
  8
0
 10
3612.7903729832519275
 20
319.3610521368123045
 30
0.0
 40
0.1673047911348645
 50
292.9295858738108791
 51
313.1756180364918123
  0
ARC
  5
CF5A
  8
0
 10
3612.7831234437121566
 20
319.3687786986919264
 30
0.0
 40
0.1778998646130835
 50
313.1756180364918123
 51
335.2228617835863815
  0
ARC
  5
CF5B
  8
0
 10
3612.7842366276167922
 20
319.3682648744253925
 30
0.0
 40
0.1766738165794418
 50
335.2228617835863815
 51
357.8085264792566136
  0
ARC
  5
CF5C
  8
0
 10
3597.3295620878961927
 20
319.6273011931344854
 30
0.0
 40
15.6334787327307598
 50
359.0258404159638985
 51
359.5767894842477972
  0
ARC
  5
CF5D
  8
0
 10
3632.8593502406251901
 20
319.2659283951895759
 30
0.0
 40
19.8982553314778592
 50
178.5741905515909878
 51
179.2919327796830942
  0
ARC
  5
CF5E
  8
0
 10
3627.734777614478844
 20
319.4170299560037165
 30
0.0
 40
14.7715283381277391
 50
176.4306817298518979
 51
178.6655075624115057
  0
ARC
  5
CF5F
  8
0
 10
3620.7979348262160784
 20
319.8690815748665841
 30
0.0
 40
7.8200224659454953
 50
171.2160400354106002
 51
176.5721929794623009
  0
ARC
  5
CF60
  8
0
 10
3617.0986783041089438
 20
320.4492270928462858
 30
0.0
 40
4.0755690665832152
 50
158.2937610453060984
 51
171.3345615964649085
  0
ARC
  5
CF61
  8
0
 10
3619.3248028408579557
 20
319.5637747845477747
 30
0.0
 40
6.4713269776692606
 50
156.0516151438687018
 51
158.2996100668717929
  0
ARC
  5
CF62
  8
0
 10
3580.4331119192911501
 20
336.9740799640376281
 30
0.0
 40
36.1395300757257871
 50
335.8537317937298212
 51
336.0582404331814246
  0
ARC
  5
CF63
  8
0
 10
3612.8243160271667875
 20
322.5920208838388135
 30
0.0
 40
0.6989639551855181
 50
336.0582404331814246
 51
339.7234011602591863
  0
ARC
  5
CF64
  8
0
 10
3612.7200114492861758
 20
319.8249791311509966
 30
0.0
 40
0.4891104844426929
 50
270.5951804313301068
 51
276.5265391054094266
  0
ARC
  5
CF65
  8
0
 10
3612.7374296100369975
 20
319.6496030729766176
 30
0.0
 40
0.3129022166748709
 50
277.007863121382627
 51
287.7033035152339266
  0
ARC
  5
CF66
  8
0
 10
3612.769966349500919
 20
319.5476722858302878
 30
0.0
 40
0.2059044373371569
 50
287.7033035152347225
 51
312.3449056484362814
  0
ARC
  5
CF67
  8
0
 10
3612.8073033813398069
 20
319.5067039738697758
 30
0.0
 40
0.1504746932326117
 50
312.3449056484384982
 51
342.8884306817164997
  0
ARC
  5
CF68
  8
0
 10
3612.7261742218729523
 20
319.5316804956013925
 30
0.0
 40
0.2353614834515857
 50
342.888430681713487
 51
357.8579906870002105
  0
ARC
  5
CF69
  8
0
 10
3630.5524980214358948
 20
319.4096882970968068
 30
0.0
 40
17.5914909631549499
 50
178.005140895243386
 51
179.6313186973771963
  0
ARC
  5
CF6A
  8
0
 10
3623.4617711768091795
 20
319.6753780212839047
 30
0.0
 40
10.4958294711777107
 50
174.6366865948039901
 51
178.1072320419638118
  0
ARC
  5
CF6B
  8
0
 10
3619.1691483794320447
 20
320.0753757550399996
 30
0.0
 40
6.1846122984007517
 50
170.2950329551649986
 51
174.6090005618085002
  0
ARC
  5
CF6C
  8
0
 10
3617.5074009589229718
 20
320.3518764115128761
 30
0.0
 40
4.5000417211437691
 50
166.4287187036042042
 51
170.1984563730115099
  0
ARC
  5
CF6D
  8
0
 10
3615.4435671997262034
 20
320.879678831132594
 30
0.0
 40
2.3701560761703968
 50
159.8140172080578054
 51
167.124381697290687
  0
ARC
  5
CF6E
  8
0
 10
3612.7259030526520291
 20
322.6869953688176906
 30
0.0
 40
0.8374771759184376
 50
327.1413148152645931
 51
212.1690938866910017
  0
ARC
  5
CF6F
  8
0
 10
3608.732108816453092
 20
323.6390929723776253
 30
0.0
 40
1.2180909821536261
 50
265.1668945721003183
 51
269.669953593358116
  0
ARC
  5
CF70
  8
0
 10
3608.7032462764291267
 20
323.2404116873062208
 30
0.0
 40
0.8184097528306926
 50
256.6791196485086175
 51
264.8287213631488726
  0
ARC
  5
CF71
  8
0
 10
3608.6008161635731994
 20
322.8078060727302727
 30
0.0
 40
0.3738430584163145
 50
244.2895909705991926
 51
256.6791196485086175
  0
ARC
  5
CF72
  8
0
 10
3608.4964296395241945
 20
322.5910076991139022
 30
0.0
 40
0.1332228572576609
 50
228.7580813854582971
 51
244.2895909705991926
  0
ARC
  5
CF73
  8
0
 10
3608.5399670994511325
 20
322.640666785044175
 30
0.0
 40
0.1992647775228109
 50
219.3309149527657951
 51
228.7580813854582971
  0
ARC
  5
CF74
  8
0
 10
3608.4282472534928274
 20
322.5491244422963177
 30
0.0
 40
0.0548302785395653
 50
195.7130003394962898
 51
219.3309149527657951
  0
ARC
  5
CF75
  8
0
 10
3608.6605729732100372
 20
291.0954400948294278
 30
0.0
 40
31.4432136957033812
 50
89.882433131575084
 51
90.0375627547893345
  0
ARC
  5
CF76
  8
0
 10
3608.6429747828019572
 20
317.9385696400789811
 30
0.0
 40
4.600078381821846
 50
90.0375627547893345
 51
91.1036070519523236
  0
ARC
  5
CF77
  8
0
 10
3609.3917188088348666
 20
279.0709609049188771
 30
0.0
 40
43.474898335179887
 50
91.1036070519523236
 51
91.3042800857624002
  0
ARC
  5
CF78
  8
0
 10
3608.3739437057997748
 20
323.7731267960481887
 30
0.0
 40
1.238852363217082
 50
269.3969963656408027
 51
271.3042800857624002
  0
ARC
  5
CF79
  8
0
 10
3608.3690594867512118
 20
323.309058605563223
 30
0.0
 40
0.774758470760303
 50
263.9762397931327769
 51
269.3969963656408027
  0
ARC
  5
CF7A
  8
0
 10
3609.5537452717908309
 20
334.5358039771616063
 30
0.0
 40
12.0638369118015607
 50
263.709955186223624
 51
263.9762397931327769
  0
ARC
  5
CF7B
  8
0
 10
3608.2902625511760561
 20
322.5964682757958144
 30
0.0
 40
0.0780023127024903
 50
221.6876929119711122
 51
248.3183660386052054
  0
ARC
  5
CF7C
  8
0
 10
3608.710810346614835
 20
323.547520427814618
 30
0.0
 40
1.117835052036253
 50
246.296957573160114
 51
258.1857993536693812
  0
ARC
  5
CF7D
  8
0
 10
3608.7294000599290484
 20
323.223592294640298
 30
0.0
 40
0.7374066707633764
 50
266.1780465759883896
 51
269.6652791119595918
  0
ARC
  5
CF7E
  8
0
 10
3608.7249734868360065
 20
323.1030944477985827
 30
0.0
 40
0.6168923456009371
 50
256.9629302063203795
 51
265.8422716440904878
  0
ARC
  5
CF7F
  8
0
 10
3608.7233030958200288
 20
323.0958804867019012
 30
0.0
 40
0.6094875200898614
 50
246.6443075524099982
 51
256.9629302063203795
  0
ARC
  5
CF80
  8
0
 10
3608.7250925148377974
 20
323.0730685407103806
 30
0.0
 40
0.6185024531620757
 50
265.1304475528078228
 51
269.9999678923996953
  0
ARC
  5
CF81
  8
0
 10
3608.7248938301790986
 20
323.0707364229286895
 30
0.0
 40
0.6161618872174119
 50
254.2061381222667933
 51
265.1304475528078228
  0
ARC
  5
CF82
  8
0
 10
3608.7221307133431765
 20
323.0609677807120761
 30
0.0
 40
0.606009981711202
 50
245.2897643966911119
 51
254.2061381222667933
  0
LINE
  5
CF83
  8
0
 10
3608.7169383579280293
 20
322.4411345878742736
 30
0.0
 11
3608.7070951794730718
 21
322.4402711679808817
 31
0.0
  0
LINE
  5
CF84
  8
0
 10
3608.7070951794730718
 20
322.4402711679808817
 30
0.0
 11
3608.6872171014520063
 21
322.4412159547176771
 31
0.0
  0
LINE
  5
CF85
  8
0
 10
3608.6872171014520063
 20
322.4412159547176771
 30
0.0
 11
3608.677568279219031
 21
322.4429540644944723
 31
0.0
  0
LINE
  5
CF86
  8
0
 10
3608.677568279219031
 20
322.4429540644944723
 30
0.0
 11
3608.6874107989688127
 21
322.4438382715167108
 31
0.0
  0
LINE
  5
CF87
  8
0
 10
3608.6874107989688127
 20
322.4438382715167108
 30
0.0
 11
3608.7070958382550998
 21
322.4429350409428139
 31
0.0
  0
LINE
  5
CF88
  8
0
 10
3608.7070958382550998
 20
322.4429350409428139
 30
0.0
 11
3608.7169383579280293
 21
322.4411345878742736
 31
0.0
  0
LINE
  5
CF89
  8
0
 10
3608.7169383579521309
 20
322.4481595343177105
 30
0.0
 11
3608.6775682791999316
 21
322.4499455848437037
 31
0.0
  0
LINE
  5
CF8A
  8
0
 10
3608.6775682791999316
 20
322.4499455848437037
 30
0.0
 11
3608.6874107989519871
 21
322.4465573848672761
 31
0.0
  0
LINE
  5
CF8B
  8
0
 10
3608.6874107989519871
 20
322.4465573848672761
 30
0.0
 11
3608.7070958383119432
 21
322.4456606040807856
 31
0.0
  0
LINE
  5
CF8C
  8
0
 10
3608.7070958383119432
 20
322.4456606040807856
 30
0.0
 11
3608.7169383579521309
 21
322.4481595343177105
 31
0.0
  0
LINE
  5
CF8D
  8
0
 10
3608.6890995073190425
 20
322.4449963757028854
 30
0.0
 11
3608.6792569886520141
 21
322.4480501928456988
 31
0.0
  0
LINE
  5
CF8E
  8
0
 10
3608.6792569886520141
 20
322.4480501928456988
 30
0.0
 11
3608.6595719489819203
 21
322.4498466992463932
 31
0.0
  0
LINE
  5
CF8F
  8
0
 10
3608.6595719489819203
 20
322.4498466992463932
 30
0.0
 11
3608.6497294297842018
 21
322.4486098364171767
 31
0.0
  0
LINE
  5
CF90
  8
0
 10
3608.6497294297842018
 20
322.4486098364171767
 30
0.0
 11
3608.6595719492520402
 21
322.4455797102510246
 31
0.0
  0
LINE
  5
CF91
  8
0
 10
3608.6595719492520402
 20
322.4455797102510246
 30
0.0
 11
3608.6792569886520141
 21
322.4437625940811927
 31
0.0
  0
LINE
  5
CF92
  8
0
 10
3608.6792569886520141
 20
322.4437625940811927
 30
0.0
 11
3608.6890995073190425
 21
322.4449963757028854
 31
0.0
  0
LINE
  5
CF93
  8
0
 10
3608.6612606586709262
 20
322.4514295688102834
 30
0.0
 11
3608.6218905799350978
 21
322.4568372205155242
 31
0.0
  0
LINE
  5
CF94
  8
0
 10
3608.6218905799350978
 20
322.4568372205155242
 30
0.0
 11
3608.6317330996521378
 21
322.4525646417176858
 31
0.0
  0
LINE
  5
CF95
  8
0
 10
3608.6317330996521378
 20
322.4525646417176858
 30
0.0
 11
3608.6514181389529767
 21
322.4498492547177193
 31
0.0
  0
LINE
  5
CF96
  8
0
 10
3608.6514181389529767
 20
322.4498492547177193
 30
0.0
 11
3608.6612606586709262
 21
322.4514295688102834
 31
0.0
  0
LINE
  5
CF97
  8
0
 10
3608.6612606586518268
 20
322.4444659905860249
 30
0.0
 11
3608.6514181389261466
 21
322.4471539994979139
 31
0.0
  0
LINE
  5
CF98
  8
0
 10
3608.6514181389261466
 20
322.4471539994979139
 30
0.0
 11
3608.6317330996521378
 21
322.4498892853176812
 31
0.0
  0
LINE
  5
CF99
  8
0
 10
3608.6317330996521378
 20
322.4498892853176812
 30
0.0
 11
3608.6218905799669301
 21
322.4499767825375898
 31
0.0
  0
LINE
  5
CF9A
  8
0
 10
3608.6218905799669301
 20
322.4499767825375898
 30
0.0
 11
3608.6317330999931983
 21
322.4473278406368877
 31
0.0
  0
LINE
  5
CF9B
  8
0
 10
3608.6317330999931983
 20
322.4473278406368877
 30
0.0
 11
3608.6514181389529767
 21
322.4445519396177247
 31
0.0
  0
LINE
  5
CF9C
  8
0
 10
3608.6514181389529767
 20
322.4445519396177247
 30
0.0
 11
3608.6612606586518268
 21
322.4444659905860249
 31
0.0
  0
LINE
  5
CF9D
  8
0
 10
3608.6334218089891692
 20
322.4508670282856997
 30
0.0
 11
3608.6235792892798599
 21
322.4548042095019014
 31
0.0
  0
LINE
  5
CF9E
  8
0
 10
3608.6235792892798599
 20
322.4548042095019014
 30
0.0
 11
3608.6038942499521909
 21
322.4584479178176935
 31
0.0
  0
LINE
  5
CF9F
  8
0
 10
3608.6038942499521909
 20
322.4584479178176935
 30
0.0
 11
3608.594051730260162
 21
322.4581972030395036
 31
0.0
  0
LINE
  5
CFA0
  8
0
 10
3608.594051730260162
 20
322.4581972030395036
 30
0.0
 11
3608.6038942499521909
 21
322.45428152811769
 31
0.0
  0
LINE
  5
CFA1
  8
0
 10
3608.6038942499521909
 20
322.45428152811769
 30
0.0
 11
3608.623579289574991
 21
322.4505948093794245
 31
0.0
  0
LINE
  5
CFA2
  8
0
 10
3608.623579289574991
 20
322.4505948093794245
 30
0.0
 11
3608.6334218089891692
 21
322.4508670282856997
 31
0.0
  0
LINE
  5
CFA3
  8
0
 10
3608.6051391274791058
 20
322.4599503587830895
 30
0.0
 11
3608.5662128806520741
 21
322.4690316807177055
 31
0.0
  0
LINE
  5
CFA4
  8
0
 10
3608.5662128806520741
 20
322.4690316807177055
 30
0.0
 11
3608.5760554006451457
 21
322.4638545004235084
 31
0.0
  0
LINE
  5
CFA5
  8
0
 10
3608.5760554006451457
 20
322.4638545004235084
 30
0.0
 11
3608.5968545677988004
 21
322.4592756529780218
 31
0.0
  0
LINE
  5
CFA6
  8
0
 10
3608.5968545677988004
 20
322.4592756529780218
 30
0.0
 11
3608.6051391274791058
 21
322.4599503587830895
 31
0.0
  0
LINE
  5
CFA7
  8
0
 10
3608.6055829594288298
 20
322.4530446923095042
 30
0.0
 11
3608.5957404397058781
 21
322.456616187293605
 31
0.0
  0
LINE
  5
CFA8
  8
0
 10
3608.5957404397058781
 20
322.456616187293605
 30
0.0
 11
3608.5760553998898104
 21
322.4612640690086778
 31
0.0
  0
LINE
  5
CFA9
  8
0
 10
3608.5760553998898104
 20
322.4612640690086778
 30
0.0
 11
3608.5662128806029614
 21
322.4624117075435947
 31
0.0
  0
LINE
  5
CFAA
  8
0
 10
3608.5662128806029614
 20
322.4624117075435947
 30
0.0
 11
3608.5760554003309153
 21
322.4588761169148938
 31
0.0
  0
LINE
  5
CFAB
  8
0
 10
3608.5760554003309153
 20
322.4588761169148938
 30
0.0
 11
3608.5957404396522179
 21
322.4541564329177277
 31
0.0
  0
LINE
  5
CFAC
  8
0
 10
3608.5957404396522179
 20
322.4541564329177277
 30
0.0
 11
3608.6055829594288298
 21
322.4530446923095042
 31
0.0
  0
LINE
  5
CFAD
  8
0
 10
3608.5777441094669484
 20
322.4620320992551115
 30
0.0
 11
3608.5679015900518607
 21
322.4668690943536262
 31
0.0
  0
LINE
  5
CFAE
  8
0
 10
3608.5679015900518607
 20
322.4668690943536262
 30
0.0
 11
3608.5482165506768979
 21
322.472468880814688
 31
0.0
  0
LINE
  5
CFAF
  8
0
 10
3608.5482165506768979
 20
322.472468880814688
 30
0.0
 11
3608.5383740309030145
 21
322.4733009605134839
 31
0.0
  0
LINE
  5
CFB0
  8
0
 10
3608.5383740309030145
 20
322.4733009605134839
 30
0.0
 11
3608.5482165506518868
 21
322.4684736310176731
 31
0.0
  0
LINE
  5
CFB1
  8
0
 10
3608.5482165506518868
 20
322.4684736310176731
 30
0.0
 11
3608.567901590305155
 21
322.4628043955490853
 31
0.0
  0
LINE
  5
CFB2
  8
0
 10
3608.567901590305155
 20
322.4628043955490853
 30
0.0
 11
3608.5777441094669484
 21
322.4620320992551115
 31
0.0
  0
LINE
  5
CFB3
  8
0
 10
3608.5501165392897747
 20
322.473646343685914
 30
0.0
 11
3608.5107774905018232
 21
322.4868818410677136
 31
0.0
  0
LINE
  5
CFB4
  8
0
 10
3608.5107774905018232
 20
322.4868818410677136
 30
0.0
 11
3608.5203777010228805
 21
322.4807722056735884
 31
0.0
  0
LINE
  5
CFB5
  8
0
 10
3608.5203777010228805
 20
322.4807722056735884
 30
0.0
 11
3608.5400627403519138
 21
322.4741174646022728
 31
0.0
  0
LINE
  5
CFB6
  8
0
 10
3608.5400627403519138
 20
322.4741174646022728
 30
0.0
 11
3608.5501165392897747
 21
322.473646343685914
 31
0.0
  0
LINE
  5
CFB7
  8
0
 10
3608.5499052600480354
 20
322.4671304438355151
 30
0.0
 11
3608.5400627403519138
 21
322.4716074414176887
 31
0.0
  0
LINE
  5
CFB8
  8
0
 10
3608.5400627403519138
 20
322.4716074414176887
 30
0.0
 11
3608.5203777009519399
 21
322.4783160445883254
 31
0.0
  0
LINE
  5
CFB9
  8
0
 10
3608.5203777009519399
 20
322.4783160445883254
 30
0.0
 11
3608.5105351813631387
 21
322.4806575040096845
 31
0.0
  0
LINE
  5
CFBA
  8
0
 10
3608.5105351813631387
 20
322.4806575040096845
 30
0.0
 11
3608.5207003607520164
 21
322.4760854755177206
 31
0.0
  0
LINE
  5
CFBB
  8
0
 10
3608.5207003607520164
 20
322.4760854755177206
 30
0.0
 11
3608.5400627403519138
 21
322.4693839901484012
 31
0.0
  0
LINE
  5
CFBC
  8
0
 10
3608.5400627403519138
 20
322.4693839901484012
 30
0.0
 11
3608.5499052576501526
 21
322.4671304449259992
 31
0.0
  0
LINE
  5
CFBD
  8
0
 10
3608.5220663508289363
 20
322.4788347405872173
 30
0.0
 11
3608.5122238906938037
 21
322.4846171294315127
 31
0.0
  0
LINE
  5
CFBE
  8
0
 10
3608.5122238906938037
 20
322.4846171294315127
 30
0.0
 11
3608.4925390328749017
 21
322.4923577511008261
 31
0.0
  0
LINE
  5
CFBF
  8
0
 10
3608.4925390328749017
 20
322.4923577511008261
 30
0.0
 11
3608.4826963316909314
 21
322.4944196870218889
 31
0.0
  0
LINE
  5
CFC0
  8
0
 10
3608.4826963316909314
 20
322.4944196870218889
 30
0.0
 11
3608.4925388513520375
 21
322.4886218088176975
 31
0.0
  0
LINE
  5
CFC1
  8
0
 10
3608.4925388513520375
 20
322.4886218088176975
 30
0.0
 11
3608.5122238906601524
 21
322.4807778243527991
 31
0.0
  0
LINE
  5
CFC2
  8
0
 10
3608.5122238906601524
 20
322.4807778243527991
 30
0.0
 11
3608.5220663508289363
 21
322.4788347405872173
 31
0.0
  0
LINE
  5
CFC3
  8
0
 10
3608.4937604447941339
 20
322.4934972080656053
 30
0.0
 11
3608.481315387452014
 21
322.4988847493177104
 31
0.0
  0
LINE
  5
CFC4
  8
0
 10
3608.481315387452014
 20
322.4988847493177104
 30
0.0
 11
3608.4764065625199692
 21
322.5038934082069773
 31
0.0
  0
LINE
  5
CFC5
  8
0
 10
3608.4764065625199692
 20
322.5038934082069773
 30
0.0
 11
3608.4647000016530001
 21
322.5092538257176784
 31
0.0
  0
LINE
  5
CFC6
  8
0
 10
3608.4647000016530001
 20
322.5092538257176784
 30
0.0
 11
3608.4548568532118225
 21
322.5110710378648946
 31
0.0
  0
LINE
  5
CFC7
  8
0
 10
3608.4548568532118225
 20
322.5110710378648946
 30
0.0
 11
3608.4647000016598213
 21
322.5038945160907247
 31
0.0
  0
LINE
  5
CFC8
  8
0
 10
3608.4647000016598213
 20
322.5038945160907247
 30
0.0
 11
3608.4843858349281618
 21
322.4949616360685241
 31
0.0
  0
LINE
  5
CFC9
  8
0
 10
3608.4843858349281618
 20
322.4949616360685241
 30
0.0
 11
3608.4937604447941339
 21
322.4934972080656053
 31
0.0
  0
LINE
  5
CFCA
  8
0
 10
3608.4658189273068274
 20
322.5106900916612176
 30
0.0
 11
3608.4565461913671243
 21
322.5191123559883977
 31
0.0
  0
LINE
  5
CFCB
  8
0
 10
3608.4565461913671243
 20
322.5191123559883977
 30
0.0
 11
3608.4368611520408194
 21
322.529149425559126
 31
0.0
  0
LINE
  5
CFCC
  8
0
 10
3608.4368611520408194
 20
322.529149425559126
 30
0.0
 11
3608.4270186323469716
 21
322.5307561011927078
 31
0.0
  0
LINE
  5
CFCD
  8
0
 10
3608.4270186323469716
 20
322.5307561011927078
 30
0.0
 11
3608.4368611520790182
 21
322.5221386910196202
 31
0.0
  0
LINE
  5
CFCE
  8
0
 10
3608.4368611520790182
 20
322.5221386910196202
 30
0.0
 11
3608.456546191452162
 21
322.5120301926177149
 31
0.0
  0
LINE
  5
CFCF
  8
0
 10
3608.456546191452162
 20
322.5120301926177149
 30
0.0
 11
3608.4658189273068274
 21
322.5106900916612176
 31
0.0
  0
LINE
  5
CFD0
  8
0
 10
3608.4688007439558532
 20
322.5104480040067187
 30
0.0
 11
3608.4682953283891038
 21
322.5120830792980087
 31
0.0
  0
LINE
  5
CFD1
  8
0
 10
3608.4682953283891038
 20
322.5120830792980087
 30
0.0
 11
3608.4647000016848324
 21
322.5137545277233926
 31
0.0
  0
LINE
  5
CFD2
  8
0
 10
3608.4647000016848324
 20
322.5137545277233926
 30
0.0
 11
3608.4548574819868918
 21
322.5226216003720765
 31
0.0
  0
LINE
  5
CFD3
  8
0
 10
3608.4548574819868918
 20
322.5226216003720765
 30
0.0
 11
3608.4647000016680067
 21
322.522584261664008
 31
0.0
  0
LINE
  5
CFD4
  8
0
 10
3608.4647000016680067
 20
322.522584261664008
 30
0.0
 11
3608.4667177505521067
 21
322.5216458586177168
 31
0.0
  0
LINE
  5
CFD5
  8
0
 10
3608.4667177505521067
 20
322.5216458586177168
 30
0.0
 11
3608.4843850410520645
 21
322.5320749155176827
 31
0.0
  0
LINE
  5
CFD6
  8
0
 10
3608.4843850410520645
 20
322.5320749155176827
 30
0.0
 11
3608.4914600617221367
 21
322.5322105081817199
 31
0.0
  0
LINE
  5
CFD7
  8
0
 10
3608.4934682152629648
 20
322.5313887110095834
 30
0.0
 11
3608.484385041009773
 21
322.5215388300854897
 31
0.0
  0
LINE
  5
CFD8
  8
0
 10
3608.484385041009773
 20
322.5215388300854897
 30
0.0
 11
3608.4682953294641266
 21
322.5120830758233978
 31
0.0
  0
LINE
  5
CFD9
  8
0
 10
3608.4688007440017827
 20
322.5104480040350268
 30
0.0
 11
3608.4852924431520478
 21
322.520102155079087
 31
0.0
  0
LINE
  5
CFDA
  8
0
 10
3608.4852924431520478
 20
322.520102155079087
 30
0.0
 11
3608.4925388513520375
 21
322.5279491713321818
 31
0.0
  0
LINE
  5
CFDB
  8
0
 10
3608.4925388513520375
 20
322.5279491713321818
 30
0.0
 11
3608.4966184188328953
 21
322.5301163181966899
 31
0.0
  0
LINE
  5
CFDC
  8
0
 10
3608.4852924431520478
 20
322.520102155079087
 30
0.0
 11
3608.4852924431520478
 21
322.5086175681176996
 31
0.0
  0
LINE
  5
CFDD
  8
0
 10
3608.4852924431520478
 20
322.5086175681176996
 30
0.0
 11
3608.519470298952001
 21
322.5086175681176996
 31
0.0
  0
LINE
  5
CFDE
  8
0
 10
3608.519470298952001
 20
322.5086175681176996
 30
0.0
 11
3608.519470298952001
 21
322.5214875653788908
 31
0.0
  0
LINE
  5
CFDF
  8
0
 10
3608.4356111994270577
 20
322.5353445252288225
 30
0.0
 11
3608.4562727059028475
 21
322.5248264857177105
 31
0.0
  0
LINE
  5
CFE0
  8
0
 10
3608.4562727059028475
 20
322.5248264857177105
 30
0.0
 11
3608.4663887110368705
 21
322.5250285852673073
 31
0.0
  0
LINE
  5
CFE1
  8
0
 10
3608.4663887110368705
 20
322.5250285852673073
 30
0.0
 11
3608.4560069623971685
 21
322.5357883932992991
 31
0.0
  0
LINE
  5
CFE2
  8
0
 10
3608.4584756796748479
 20
322.5358414697623743
 30
0.0
 11
3608.46470000162617
 21
322.5292535316801832
 31
0.0
  0
LINE
  5
CFE3
  8
0
 10
3608.46470000162617
 20
322.5292535316801832
 30
0.0
 11
3608.4667177505530162
 21
322.5283151286344037
 31
0.0
  0
LINE
  5
CFE4
  8
0
 10
3608.4667177505530162
 20
322.5283151286344037
 30
0.0
 11
3608.480034870534837
 21
322.5362990222150756
 31
0.0
  0
LINE
  5
CFE5
  8
0
 10
3608.466717750549833
 20
322.5283151285570966
 30
0.0
 11
3608.4667177505521067
 21
322.5216458586177168
 31
0.0
  0
LINE
  5
CFE6
  8
0
 10
3608.7169095309209297
 20
322.4993841379666151
 30
0.0
 11
3608.6775682792022053
 21
322.5015616507304799
 31
0.0
  0
LINE
  5
CFE7
  8
0
 10
3608.6775682792022053
 20
322.5015616507304799
 30
0.0
 11
3608.6874107988492142
 21
322.508709536145318
 31
0.0
  0
LINE
  5
CFE8
  8
0
 10
3608.6874107988492142
 20
322.508709536145318
 30
0.0
 11
3608.707095838305122
 21
322.5078127553319973
 31
0.0
  0
LINE
  5
CFE9
  8
0
 10
3608.707095838305122
 20
322.5078127553319973
 30
0.0
 11
3608.7169095309209297
 21
322.4993841379666151
 31
0.0
  0
LINE
  5
CFEA
  8
0
 10
3608.689099508381787
 20
322.5138177966276203
 30
0.0
 11
3608.6792569885328703
 21
322.506335528598072
 31
0.0
  0
LINE
  5
CFEB
  8
0
 10
3608.6792569885328703
 20
322.506335528598072
 30
0.0
 11
3608.6595719492520402
 21
322.5081320350299734
 31
0.0
  0
LINE
  5
CFEC
  8
0
 10
3608.6595719492520402
 20
322.5081320350299734
 30
0.0
 11
3608.6497294295759275
 21
322.5174312576586999
 31
0.0
  0
LINE
  5
CFED
  8
0
 10
3608.6497294295759275
 20
322.5174312576586999
 30
0.0
 11
3608.6595719492588614
 21
322.5249372166938997
 31
0.0
  0
LINE
  5
CFEE
  8
0
 10
3608.6595719492588614
 20
322.5249372166938997
 30
0.0
 11
3608.6792569885919875
 21
322.523120100459721
 31
0.0
  0
LINE
  5
CFEF
  8
0
 10
3608.6792569885919875
 20
322.523120100459721
 30
0.0
 11
3608.689099508381787
 21
322.5138177966276203
 31
0.0
  0
LINE
  5
CFF0
  8
0
 10
3608.7169383579757778
 20
322.5271613642910893
 30
0.0
 11
3608.707095838215082
 21
322.5184257320991037
 31
0.0
  0
LINE
  5
CFF1
  8
0
 10
3608.707095838215082
 20
322.5184257320991037
 30
0.0
 11
3608.6874107989519871
 21
322.5193289627176796
 31
0.0
  0
LINE
  5
CFF2
  8
0
 10
3608.6874107989519871
 20
322.5193289627176796
 30
0.0
 11
3608.6775682791871986
 21
322.5289808410690853
 31
0.0
  0
LINE
  5
CFF3
  8
0
 10
3608.6775682791871986
 20
322.5289808410690853
 30
0.0
 11
3608.6874107988119249
 21
322.5377503947374862
 31
0.0
  0
LINE
  5
CFF4
  8
0
 10
3608.6874107988119249
 20
322.5377503947374862
 30
0.0
 11
3608.7070958382391836
 21
322.5368340077977223
 31
0.0
  0
LINE
  5
CFF5
  8
0
 10
3608.7070958382391836
 20
322.5368340077977223
 30
0.0
 11
3608.7169383579757778
 21
322.5271613642910893
 31
0.0
  0
LINE
  5
CFF6
  8
0
 10
3608.6536421573200641
 20
322.5386530266762861
 30
0.0
 11
3608.6612606586968468
 21
322.5304927670575239
 31
0.0
  0
LINE
  5
CFF7
  8
0
 10
3608.6612606586968468
 20
322.5304927670575239
 30
0.0
 11
3608.6514181389529767
 21
322.5226446905850253
 31
0.0
  0
LINE
  5
CFF8
  8
0
 10
3608.6514181389529767
 20
322.5226446905850253
 30
0.0
 11
3608.6317330995962038
 21
322.5253799765145004
 31
0.0
  0
LINE
  5
CFF9
  8
0
 10
3608.6317330995962038
 20
322.5253799765145004
 30
0.0
 11
3608.6218905799119057
 21
322.5360035589384893
 31
0.0
  0
LINE
  5
CFFA
  8
0
 10
3608.6218905799119057
 20
322.5360035589384893
 30
0.0
 11
3608.6252665328797775
 21
322.5386139373428023
 31
0.0
  0
LINE
  5
CFFB
  8
0
 10
3608.6612606586832044
 20
322.5030456347377026
 30
0.0
 11
3608.6218905798750711
 21
322.5084532864005951
 31
0.0
  0
LINE
  5
CFFC
  8
0
 10
3608.6218905798750711
 20
322.5084532864005951
 30
0.0
 11
3608.6317330996180317
 21
322.5147167929600869
 31
0.0
  0
LINE
  5
CFFD
  8
0
 10
3608.6317330996180317
 20
322.5147167929600869
 30
0.0
 11
3608.6514181389989062
 21
322.5120014059289133
 31
0.0
  0
LINE
  5
CFFE
  8
0
 10
3608.6514181389989062
 20
322.5120014059289133
 30
0.0
 11
3608.6612606586832044
 21
322.5030456347377026
 31
0.0
  0
LINE
  5
CFFF
  8
0
 10
3608.6334218090541981
 20
322.5196884494488927
 30
0.0
 11
3608.6235792893530743
 21
322.513089545280593
 31
0.0
  0
LINE
  5
D000
  8
0
 10
3608.6235792893530743
 20
322.513089545280593
 30
0.0
 11
3608.6038942499521909
 21
322.516733253734003
 31
0.0
  0
LINE
  5
D001
  8
0
 10
3608.6038942499521909
 20
322.516733253734003
 30
0.0
 11
3608.5940517302501576
 21
322.5270186242123032
 31
0.0
  0
LINE
  5
D002
  8
0
 10
3608.5940517302501576
 20
322.5270186242123032
 30
0.0
 11
3608.6038942499058066
 21
322.5336390346022881
 31
0.0
  0
LINE
  5
D003
  8
0
 10
3608.6038942499058066
 20
322.5336390346022881
 30
0.0
 11
3608.623579289276222
 21
322.5299523158597026
 31
0.0
  0
LINE
  5
D004
  8
0
 10
3608.623579289276222
 20
322.5299523158597026
 30
0.0
 11
3608.6334218090541981
 21
322.5196884494488927
 31
0.0
  0
LINE
  5
D005
  8
0
 10
3608.6058387965858856
 20
322.5112047430262123
 30
0.0
 11
3608.5662128806520741
 21
322.5206477466177262
 31
0.0
  0
LINE
  5
D006
  8
0
 10
3608.5662128806520741
 20
322.5206477466177262
 30
0.0
 11
3608.5760554002208664
 21
322.526006651800401
 31
0.0
  0
LINE
  5
D007
  8
0
 10
3608.5760554002208664
 20
322.526006651800401
 30
0.0
 11
3608.5957404397431674
 21
322.5213939024055207
 31
0.0
  0
LINE
  5
D008
  8
0
 10
3608.5957404397431674
 20
322.5213939024055207
 30
0.0
 11
3608.6058387965858856
 21
322.5112047430262123
 31
0.0
  0
LINE
  5
D009
  8
0
 10
3608.5777441097188785
 20
322.5308535204313216
 30
0.0
 11
3608.5679015900050217
 21
322.5251544302441857
 31
0.0
  0
LINE
  5
D00A
  8
0
 10
3608.5679015900050217
 20
322.5251544302441857
 30
0.0
 11
3608.5482165506518868
 21
322.5307542165821246
 31
0.0
  0
LINE
  5
D00B
  8
0
 10
3608.5482165506518868
 20
322.5307542165821246
 30
0.0
 11
3608.5422066003911823
 21
322.5375585893701214
 31
0.0
  0
LINE
  5
D00C
  8
0
 10
3608.5777441097188785
 20
322.5308535204313216
 30
0.0
 11
3608.5713417087358721
 21
322.5380902478819962
 31
0.0
  0
LINE
  5
D00D
  8
0
 10
3608.5389659105258033
 20
322.537495132398476
 30
0.0
 11
3608.5499052600530376
 21
322.5252723101177139
 31
0.0
  0
LINE
  5
D00E
  8
0
 10
3608.5499052600530376
 20
322.5252723101177139
 30
0.0
 11
3608.5130563538391471
 21
322.5369790978061815
 31
0.0
  0
LINE
  5
D00F
  8
0
 10
3608.5748505129618025
 20
322.538143555428519
 30
0.0
 11
3608.576055400389123
 21
322.5367547600171179
 31
0.0
  0
LINE
  5
D010
  8
0
 10
3608.576055400389123
 20
322.5367547600171179
 30
0.0
 11
3608.5957404396522179
 21
322.5321068783159149
 31
0.0
  0
LINE
  5
D011
  8
0
 10
3608.5957404396522179
 20
322.5321068783159149
 30
0.0
 11
3608.6049243965330788
 21
322.5384906488583283
 31
0.0
  0
LINE
  5
D012
  8
0
 10
3608.6576982055030385
 20
322.538653659116676
 30
0.0
 11
3608.6595719492520402
 21
322.5366184629912141
 31
0.0
  0
LINE
  5
D013
  8
0
 10
3608.6595719492520402
 20
322.5366184629912141
 30
0.0
 11
3608.6792569886520141
 21
322.5347845272177096
 31
0.0
  0
LINE
  5
D014
  8
0
 10
3608.6792569886520141
 20
322.5347845272177096
 30
0.0
 11
3608.6835286022219407
 21
322.5386454109666943
 31
0.0
  0
ARC
  5
D015
  8
0
 10
3608.726377116301137
 20
323.0495936676990141
 30
0.0
 40
0.6102496696698871
 50
267.1513347835268064
 51
269.8793573218356983
  0
ARC
  5
D016
  8
0
 10
3608.7267248627531444
 20
323.0473048572574157
 30
0.0
 40
0.6079811447106377
 50
261.3777600062143165
 51
267.1078841687864838
  0
ARC
  5
D017
  8
0
 10
3608.720736770190797
 20
323.0078141214632979
 30
0.0
 40
0.5680389932153762
 50
253.7294540522638897
 51
261.3777600062143165
  0
ARC
  5
D018
  8
0
 10
3608.7299861229689668
 20
323.039504907884691
 30
0.0
 40
0.6010519674951864
 50
247.1876308135830982
 51
253.7294540522638897
  0
ARC
  5
D019
  8
0
 10
3608.7612901361671902
 20
323.1139292327687258
 30
0.0
 40
0.6817918051018828
 50
243.0274511686556878
 51
247.1876308135830982
  0
ARC
  5
D01A
  8
0
 10
3608.5032329540867977
 20
322.6068630567385753
 30
0.0
 40
0.1128369597081573
 50
219.6147840527775088
 51
243.0274511686556878
  0
LINE
  5
D01B
  8
0
 10
3608.707095838305122
 20
322.5078127553319973
 30
0.0
 11
3608.707095838305122
 21
322.4999273194873126
 31
0.0
  0
LINE
  5
D01C
  8
0
 10
3608.6874107988492142
 20
322.508709536145318
 30
0.0
 11
3608.6874107988492142
 21
322.5010168736524179
 31
0.0
  0
LINE
  5
D01D
  8
0
 10
3608.6792569885328703
 20
322.506335528598072
 30
0.0
 11
3608.6792569885919875
 21
322.523120100459721
 31
0.0
  0
LINE
  5
D01E
  8
0
 10
3608.6595719492520402
 20
322.5081320350299734
 30
0.0
 11
3608.6595719492588614
 21
322.5249372166938997
 31
0.0
  0
LINE
  5
D01F
  8
0
 10
3608.707095838215082
 20
322.5184257320991037
 30
0.0
 11
3608.7070958382391836
 21
322.5368340077977223
 31
0.0
  0
LINE
  5
D020
  8
0
 10
3608.6874107989519871
 20
322.5193289627176796
 30
0.0
 11
3608.6874107988119249
 21
322.5377503947374862
 31
0.0
  0
LINE
  5
D021
  8
0
 10
3608.6792569886520141
 20
322.5347845272177096
 30
0.0
 11
3608.6792569886520141
 21
322.5386482393752772
 31
0.0
  0
LINE
  5
D022
  8
0
 10
3608.6595719492520402
 20
322.5366184629912141
 30
0.0
 11
3608.6595719492520402
 21
322.538653774598572
 31
0.0
  0
LINE
  5
D023
  8
0
 10
3608.6514181389529767
 20
322.5226446905850253
 30
0.0
 11
3608.6514181389529767
 21
322.5386524577970135
 31
0.0
  0
LINE
  5
D024
  8
0
 10
3608.6317330995962038
 20
322.5253799765145004
 30
0.0
 11
3608.6317330995962038
 21
322.5386342856534156
 31
0.0
  0
LINE
  5
D025
  8
0
 10
3608.6514181389989062
 20
322.5120014059289133
 30
0.0
 11
3608.6514181389989062
 21
322.5043975476509104
 31
0.0
  0
LINE
  5
D026
  8
0
 10
3608.6317330996180317
 20
322.5147167929600869
 30
0.0
 11
3608.6317330996180317
 21
322.5071013734790881
 31
0.0
  0
LINE
  5
D027
  8
0
 10
3608.6235792893530743
 20
322.513089545280593
 30
0.0
 11
3608.623579289276222
 21
322.5299523158597026
 31
0.0
  0
LINE
  5
D028
  8
0
 10
3608.6038942499521909
 20
322.516733253734003
 30
0.0
 11
3608.6038942499058066
 21
322.5336390346022881
 31
0.0
  0
LINE
  5
D029
  8
0
 10
3608.5957404396522179
 20
322.5321068783159149
 30
0.0
 11
3608.5957404396522179
 21
322.5384055106000005
 31
0.0
  0
LINE
  5
D02A
  8
0
 10
3608.5957404397431674
 20
322.5213939024055207
 30
0.0
 11
3608.5957404397431674
 21
322.5136112191337929
 31
0.0
  0
LINE
  5
D02B
  8
0
 10
3608.5760554002208664
 20
322.526006651800401
 30
0.0
 11
3608.5760554002208664
 21
322.5183022374869779
 31
0.0
  0
LINE
  5
D02C
  8
0
 10
3608.5679015900050217
 20
322.5251544302441857
 30
0.0
 11
3608.5679015900050217
 21
322.5380353845570767
 31
0.0
  0
LINE
  5
D02D
  8
0
 10
3608.5482165506518868
 20
322.5307542165821246
 30
0.0
 11
3608.5482165506518868
 21
322.5376756323361747
 31
0.0
  0
LINE
  5
D02E
  8
0
 10
3608.7070951794730718
 20
322.4402711679808817
 30
0.0
 11
3608.7075667147469176
 21
322.4428489053747739
 31
0.0
  0
LINE
  5
D02F
  8
0
 10
3608.6872171014520063
 20
322.4412159547176771
 30
0.0
 11
3608.6874107989688127
 21
322.4438382715167108
 31
0.0
  0
LINE
  5
D030
  8
0
 10
3608.7070958383119432
 20
322.4456606040807856
 30
0.0
 11
3608.7070958383119432
 21
322.4486060469470203
 31
0.0
  0
LINE
  5
D031
  8
0
 10
3608.6874107989519871
 20
322.4465573848672761
 30
0.0
 11
3608.6874107989519871
 21
322.449499072209278
 31
0.0
  0
LINE
  5
D032
  8
0
 10
3608.6792569886520141
 20
322.4437625940811927
 30
0.0
 11
3608.6792569886520141
 21
322.4480501928456988
 31
0.0
  0
LINE
  5
D033
  8
0
 10
3608.6595719492520402
 20
322.4455797102510246
 30
0.0
 11
3608.6595719489819203
 21
322.4498466992463932
 31
0.0
  0
LINE
  5
D034
  8
0
 10
3608.6514181389529767
 20
322.4445519396177247
 30
0.0
 11
3608.6514181389261466
 21
322.4471539994979139
 31
0.0
  0
LINE
  5
D035
  8
0
 10
3608.6317330999931983
 20
322.4473278406368877
 30
0.0
 11
3608.6317330996521378
 21
322.4498892853176812
 31
0.0
  0
LINE
  5
D036
  8
0
 10
3608.6514181389529767
 20
322.4498492547177193
 30
0.0
 11
3608.6514181389529767
 21
322.4527814817413969
 31
0.0
  0
LINE
  5
D037
  8
0
 10
3608.6317330996521378
 20
322.4525646417176858
 30
0.0
 11
3608.6317330996521378
 21
322.4554853075845813
 31
0.0
  0
LINE
  5
D038
  8
0
 10
3608.623579289574991
 20
322.4505948093794245
 30
0.0
 11
3608.6235792892798599
 21
322.4548042095019014
 31
0.0
  0
LINE
  5
D039
  8
0
 10
3608.6038942499521909
 20
322.45428152811769
 30
0.0
 11
3608.6037881899019339
 21
322.4584452161902277
 31
0.0
  0
LINE
  5
D03A
  8
0
 10
3608.5957404396522179
 20
322.4541564329177277
 30
0.0
 11
3608.5962905499950466
 21
322.4564862994407122
 31
0.0
  0
LINE
  5
D03B
  8
0
 10
3608.5760554003309153
 20
322.4588761169148938
 30
0.0
 11
3608.5765894524679425
 21
322.4611379725803886
 31
0.0
  0
LINE
  5
D03C
  8
0
 10
3608.5968545677988004
 20
322.4592756529780218
 30
0.0
 11
3608.5968545677988004
 21
322.4618831100669922
 31
0.0
  0
LINE
  5
D03D
  8
0
 10
3608.5760554006451457
 20
322.4638545004235084
 30
0.0
 11
3608.5760554006451457
 21
322.466735464154624
 31
0.0
  0
LINE
  5
D03E
  8
0
 10
3608.567901590305155
 20
322.4628043955490853
 30
0.0
 11
3608.5679015900518607
 21
322.4668690943536262
 31
0.0
  0
LINE
  5
D03F
  8
0
 10
3608.5482165506518868
 20
322.4684736310176731
 30
0.0
 11
3608.5482165506768979
 21
322.472468880814688
 31
0.0
  0
LINE
  5
D040
  8
0
 10
3608.5400627403519138
 20
322.4741174646022728
 30
0.0
 11
3608.5400627403519138
 21
322.4770289122434974
 31
0.0
  0
LINE
  5
D041
  8
0
 10
3608.5203777010228805
 20
322.4807722056735884
 30
0.0
 11
3608.5203777010228805
 21
322.4836518808850201
 31
0.0
  0
LINE
  5
D042
  8
0
 10
3608.5400627403519138
 20
322.4693839901484012
 30
0.0
 11
3608.5400627403519138
 21
322.4716074414176887
 31
0.0
  0
LINE
  5
D043
  8
0
 10
3608.5207003607520164
 20
322.4760854755177206
 30
0.0
 11
3608.5213478557661801
 21
322.4779854186988928
 31
0.0
  0
LINE
  5
D044
  8
0
 10
3608.5122238906601524
 20
322.4807778243527991
 30
0.0
 11
3608.512026168014927
 21
322.4846948793683055
 31
0.0
  0
LINE
  5
D045
  8
0
 10
3608.4925388513520375
 20
322.4886218088176975
 30
0.0
 11
3608.4925390328749017
 21
322.4923577511008261
 31
0.0
  0
LINE
  5
D046
  8
0
 10
3608.4843858349281618
 20
322.4949616360685241
 30
0.0
 11
3608.4843858349281618
 21
322.497555533872287
 31
0.0
  0
LINE
  5
D047
  8
0
 10
3608.4647000016598213
 20
322.5038945160907247
 30
0.0
 11
3608.4647000016530001
 21
322.5092538257176784
 31
0.0
  0
LINE
  5
D048
  8
0
 10
3608.4764065625199692
 20
322.5038934082069773
 30
0.0
 11
3608.4764065625199692
 21
322.4985824065034876
 31
0.0
  0
LINE
  5
D049
  8
0
 10
3607.9661168177531181
 20
322.4531991278926171
 30
0.0
 11
3607.9661168177531181
 21
323.1189595739792253
 31
0.0
  0
ARC
  5
D04A
  8
0
 10
3608.9486833395540089
 20
300.8251528296951847
 30
0.0
 40
22.3455840430515984
 50
90.5733143608749884
 51
92.4427894816661109
  0
ARC
  5
D04B
  8
0
 10
3607.9976168177518048
 20
323.1189595739792253
 30
0.0
 40
0.0315
 50
92.4427894816661109
 51
180.0000000000032117
  0
ARC
  5
D04C
  8
0
 10
3610.8835110342379267
 20
221.4261938308119113
 30
0.0
 40
101.1848976660886024
 50
91.222293791013243
 51
91.5354980917878152
  0
ARC
  5
D04D
  8
0
 10
3608.7482774748618795
 20
323.6876965831589246
 30
0.0
 40
1.4801211252733899
 50
238.9659199213091938
 51
265.8951672339887864
  0
ARC
  5
D04E
  8
0
 10
3608.7482774748618795
 20
323.6876965831589246
 30
0.0
 40
1.4801211252733899
 50
265.9424498275491828
 51
269.1024555181937217
  0
ARC
  5
D04F
  8
0
 10
3608.0055168177518681
 20
322.4531991278926171
 30
0.0
 40
0.0394
 50
180.0000000000065086
 51
238.9659199212802037
  0
LINE
  5
D050
  8
0
 10
3608.1721312216268416
 20
322.5747575141811012
 30
0.0
 11
3607.9881836790941634
 21
322.4176509276347247
 31
0.0
  0
LINE
  5
D051
  8
0
 10
3608.6424150028519762
 20
322.2112854098177195
 30
0.0
 11
3608.8077693336508673
 21
322.2112854098177195
 31
0.0
  0
LINE
  5
D052
  8
0
 10
3608.626666971351824
 20
322.2270334413177011
 30
0.0
 11
3608.6424150028519762
 21
322.2112854098177195
 31
0.0
  0
LINE
  5
D053
  8
0
 10
3608.626666971351824
 20
322.2270334413177011
 30
0.0
 11
3608.626666971351824
 21
322.2348901708335234
 31
0.0
  0
ARC
  5
D054
  8
0
 10
3608.6206558820540522
 20
315.9444202446147187
 30
0.0
 40
6.2904727982766051
 50
89.0487148512958555
 51
90.0886843818599914
  0
ARC
  5
D055
  8
0
 10
3608.6276797030768648
 20
322.2741958204308048
 30
0.0
 40
0.0427342091805453
 50
246.9084374671188868
 51
268.6420554538809142
  0
ARC
  5
D056
  8
0
 10
3608.7018372688407908
 20
323.9992425883028773
 30
0.0
 40
1.5783917085464469
 50
270.8441857562814903
 51
274.3189660782578017
  0
ARC
  5
D057
  8
0
 10
3608.7469380600741715
 20
323.2404116873062208
 30
0.0
 40
0.8184097528306926
 50
275.1712786368510137
 51
283.3208803514913825
  0
ARC
  5
D058
  8
0
 10
3608.8493681729319178
 20
322.8078060727302727
 30
0.0
 40
0.3738430584163145
 50
283.3208803514913825
 51
295.7104090294008074
  0
ARC
  5
D059
  8
0
 10
3608.9537546969800133
 20
322.5910076991139022
 30
0.0
 40
0.1332228572576609
 50
295.7104090294008074
 51
311.2419186145415892
  0
ARC
  5
D05A
  8
0
 10
3608.9102172370539847
 20
322.640666785044175
 30
0.0
 40
0.1992647775228109
 50
311.2419186145415892
 51
320.6690850472340912
  0
ARC
  5
D05B
  8
0
 10
3609.0219370830109256
 20
322.5491244422963177
 30
0.0
 40
0.0548302785395653
 50
320.6690850472340912
 51
344.2869996605036249
  0
ARC
  5
D05C
  8
0
 10
3608.7896113632941706
 20
291.0954400948294278
 30
0.0
 40
31.4432136957033812
 50
89.9624372452106655
 51
90.117566868424916
  0
ARC
  5
D05D
  8
0
 10
3608.8072095537017958
 20
317.9385696400789811
 30
0.0
 40
4.600078381821846
 50
88.8963929480476907
 51
89.9624372452106655
  0
ARC
  5
D05E
  8
0
 10
3608.0584655276697958
 20
279.0709609049188771
 30
0.0
 40
43.474898335179887
 50
88.6957199142375856
 51
88.8963929480476907
  0
ARC
  5
D05F
  8
0
 10
3609.0762406307048877
 20
323.7731267960481887
 30
0.0
 40
1.238852363217082
 50
268.6957199142375998
 51
270.6030036343591973
  0
ARC
  5
D060
  8
0
 10
3609.0811248497539054
 20
323.309058605563223
 30
0.0
 40
0.774758470760303
 50
270.6030036343591973
 51
276.0237602068672231
  0
ARC
  5
D061
  8
0
 10
3607.8964390647129221
 20
334.5358039771616063
 30
0.0
 40
12.0638369118015607
 50
276.0237602068672231
 51
276.290044813776376
  0
ARC
  5
D062
  8
0
 10
3609.1599217853290611
 20
322.5964682757958144
 30
0.0
 40
0.0780023127024903
 50
291.681633961394823
 51
318.3123070880287173
  0
ARC
  5
D063
  8
0
 10
3608.7393739898911917
 20
323.547520427814618
 30
0.0
 40
1.117835052036253
 50
281.8142006463306188
 51
293.703042426839886
  0
ARC
  5
D064
  8
0
 10
3608.7151450391638718
 20
323.3789870905907833
 30
0.0
 40
0.8928442952941097
 50
270.6383423276432723
 51
273.5183319844023231
  0
ARC
  5
D065
  8
0
 10
3608.7252108496682013
 20
323.1030944477985827
 30
0.0
 40
0.6168923456009371
 50
274.1577283559095122
 51
283.0370697936796205
  0
ARC
  5
D066
  8
0
 10
3608.7268812406841789
 20
323.0958804867019012
 30
0.0
 40
0.6094875200898614
 50
283.0370697936796205
 51
293.3556924475900018
  0
ARC
  5
D067
  8
0
 10
3608.7250918216659556
 20
323.0730685407103806
 30
0.0
 40
0.6185024531620757
 50
270.0000321052814911
 51
274.8695524471920066
  0
ARC
  5
D068
  8
0
 10
3608.7252905063241997
 20
323.0707364229286895
 30
0.0
 40
0.6161618872174119
 50
274.8695524471920066
 51
285.7938618777332067
  0
ARC
  5
D069
  8
0
 10
3608.7280536231610313
 20
323.0609677807120761
 30
0.0
 40
0.606009981711202
 50
285.7938618777332067
 51
294.7102356033088881
  0
LINE
  5
D06A
  8
0
 10
3608.733245978577088
 20
322.4411345878742736
 30
0.0
 11
3608.743089157031136
 21
322.4402711679808817
 31
0.0
  0
LINE
  5
D06B
  8
0
 10
3608.743089157031136
 20
322.4402711679808817
 30
0.0
 11
3608.7629672350522014
 21
322.4412159547176771
 31
0.0
  0
LINE
  5
D06C
  8
0
 10
3608.7629672350522014
 20
322.4412159547176771
 30
0.0
 11
3608.7726160572860863
 21
322.4429540644944723
 31
0.0
  0
LINE
  5
D06D
  8
0
 10
3608.7726160572860863
 20
322.4429540644944723
 30
0.0
 11
3608.7627735375358498
 21
322.4438382715167108
 31
0.0
  0
LINE
  5
D06E
  8
0
 10
3608.7627735375358498
 20
322.4438382715167108
 30
0.0
 11
3608.7430884982481984
 21
322.4429350409428139
 31
0.0
  0
LINE
  5
D06F
  8
0
 10
3608.7430884982481984
 20
322.4429350409428139
 30
0.0
 11
3608.733245978577088
 21
322.4411345878742736
 31
0.0
  0
LINE
  5
D070
  8
0
 10
3608.7332459785520768
 20
322.4481595343177105
 30
0.0
 11
3608.7726160573038214
 21
322.4499455848437037
 31
0.0
  0
LINE
  5
D071
  8
0
 10
3608.7726160573038214
 20
322.4499455848437037
 30
0.0
 11
3608.7627735375522207
 21
322.4465573848672761
 31
0.0
  0
LINE
  5
D072
  8
0
 10
3608.7627735375522207
 20
322.4465573848672761
 30
0.0
 11
3608.7430884981918098
 21
322.4456606040807856
 31
0.0
  0
LINE
  5
D073
  8
0
 10
3608.7430884981918098
 20
322.4456606040807856
 30
0.0
 11
3608.7332459785520768
 21
322.4481595343177105
 31
0.0
  0
LINE
  5
D074
  8
0
 10
3608.7610848291851653
 20
322.4449963757028854
 30
0.0
 11
3608.7709273478521936
 21
322.4480501928456988
 31
0.0
  0
LINE
  5
D075
  8
0
 10
3608.7709273478521936
 20
322.4480501928456988
 30
0.0
 11
3608.7906123875218327
 21
322.4498466992463932
 31
0.0
  0
LINE
  5
D076
  8
0
 10
3608.7906123875218327
 20
322.4498466992463932
 30
0.0
 11
3608.8004549067190965
 21
322.4486098364171767
 31
0.0
  0
LINE
  5
D077
  8
0
 10
3608.8004549067190965
 20
322.4486098364171767
 30
0.0
 11
3608.7906123872521675
 21
322.4455797102510246
 31
0.0
  0
LINE
  5
D078
  8
0
 10
3608.7906123872521675
 20
322.4455797102510246
 30
0.0
 11
3608.7709273478521936
 21
322.4437625940811927
 31
0.0
  0
LINE
  5
D079
  8
0
 10
3608.7709273478521936
 20
322.4437625940811927
 30
0.0
 11
3608.7610848291851653
 21
322.4449963757028854
 31
0.0
  0
LINE
  5
D07A
  8
0
 10
3608.788923677834191
 20
322.4514295688102834
 30
0.0
 11
3608.8282937565700195
 21
322.4568372205155242
 31
0.0
  0
LINE
  5
D07B
  8
0
 10
3608.8282937565700195
 20
322.4568372205155242
 30
0.0
 11
3608.81845123685207
 21
322.4525646417176858
 31
0.0
  0
LINE
  5
D07C
  8
0
 10
3608.81845123685207
 20
322.4525646417176858
 30
0.0
 11
3608.79876619755305
 21
322.4498492547177193
 31
0.0
  0
LINE
  5
D07D
  8
0
 10
3608.79876619755305
 20
322.4498492547177193
 30
0.0
 11
3608.788923677834191
 21
322.4514295688102834
 31
0.0
  0
LINE
  5
D07E
  8
0
 10
3608.7889236778519262
 20
322.4444659905860249
 30
0.0
 11
3608.7987661975780611
 21
322.4471539994979139
 31
0.0
  0
LINE
  5
D07F
  8
0
 10
3608.7987661975780611
 20
322.4471539994979139
 30
0.0
 11
3608.81845123685207
 21
322.4498892853176812
 31
0.0
  0
LINE
  5
D080
  8
0
 10
3608.81845123685207
 20
322.4498892853176812
 30
0.0
 11
3608.8282937565368229
 21
322.4499767825375898
 31
0.0
  0
LINE
  5
D081
  8
0
 10
3608.8282937565368229
 20
322.4499767825375898
 30
0.0
 11
3608.818451236511919
 21
322.4473278406368877
 31
0.0
  0
LINE
  5
D082
  8
0
 10
3608.818451236511919
 20
322.4473278406368877
 30
0.0
 11
3608.79876619755305
 21
322.4445519396177247
 31
0.0
  0
LINE
  5
D083
  8
0
 10
3608.79876619755305
 20
322.4445519396177247
 30
0.0
 11
3608.7889236778519262
 21
322.4444659905860249
 31
0.0
  0
LINE
  5
D084
  8
0
 10
3608.816762527515948
 20
322.4508670282856997
 30
0.0
 11
3608.8266050472238931
 21
322.4548042095019014
 31
0.0
  0
LINE
  5
D085
  8
0
 10
3608.8266050472238931
 20
322.4548042095019014
 30
0.0
 11
3608.8462900865520169
 21
322.4584479178176935
 31
0.0
  0
LINE
  5
D086
  8
0
 10
3608.8462900865520169
 20
322.4584479178176935
 30
0.0
 11
3608.8561326062449552
 21
322.4581972030395036
 31
0.0
  0
LINE
  5
D087
  8
0
 10
3608.8561326062449552
 20
322.4581972030395036
 30
0.0
 11
3608.8462900865520169
 21
322.45428152811769
 31
0.0
  0
LINE
  5
D088
  8
0
 10
3608.8462900865520169
 20
322.45428152811769
 30
0.0
 11
3608.8266050469292168
 21
322.4505948093794245
 31
0.0
  0
LINE
  5
D089
  8
0
 10
3608.8266050469292168
 20
322.4505948093794245
 30
0.0
 11
3608.816762527515948
 21
322.4508670282856997
 31
0.0
  0
LINE
  5
D08A
  8
0
 10
3608.8450452090260114
 20
322.4599503587830895
 30
0.0
 11
3608.8839714558530432
 21
322.4690316807177055
 31
0.0
  0
LINE
  5
D08B
  8
0
 10
3608.8839714558530432
 20
322.4690316807177055
 30
0.0
 11
3608.874128935859062
 21
322.4638545004235084
 31
0.0
  0
LINE
  5
D08C
  8
0
 10
3608.874128935859062
 20
322.4638545004235084
 30
0.0
 11
3608.8533297687049526
 21
322.4592756529780218
 31
0.0
  0
LINE
  5
D08D
  8
0
 10
3608.8533297687049526
 20
322.4592756529780218
 30
0.0
 11
3608.8450452090260114
 21
322.4599503587830895
 31
0.0
  0
LINE
  5
D08E
  8
0
 10
3608.8446013770758327
 20
322.4530446923095042
 30
0.0
 11
3608.8544438967987844
 21
322.456616187293605
 31
0.0
  0
LINE
  5
D08F
  8
0
 10
3608.8544438967987844
 20
322.456616187293605
 30
0.0
 11
3608.8741289366130331
 21
322.4612640690086778
 31
0.0
  0
LINE
  5
D090
  8
0
 10
3608.8741289366130331
 20
322.4612640690086778
 30
0.0
 11
3608.8839714559021559
 21
322.4624117075435947
 31
0.0
  0
LINE
  5
D091
  8
0
 10
3608.8839714559021559
 20
322.4624117075435947
 30
0.0
 11
3608.874128936174202
 21
322.4588761169148938
 31
0.0
  0
LINE
  5
D092
  8
0
 10
3608.874128936174202
 20
322.4588761169148938
 30
0.0
 11
3608.8544438968519898
 21
322.4541564329177277
 31
0.0
  0
LINE
  5
D093
  8
0
 10
3608.8544438968519898
 20
322.4541564329177277
 30
0.0
 11
3608.8446013770758327
 21
322.4530446923095042
 31
0.0
  0
LINE
  5
D094
  8
0
 10
3608.8724402270368046
 20
322.4620320992551115
 30
0.0
 11
3608.8822827464518923
 21
322.4668690943536262
 31
0.0
  0
LINE
  5
D095
  8
0
 10
3608.8822827464518923
 20
322.4668690943536262
 30
0.0
 11
3608.9019677858268551
 21
322.472468880814688
 31
0.0
  0
LINE
  5
D096
  8
0
 10
3608.9019677858268551
 20
322.472468880814688
 30
0.0
 11
3608.9118103056011932
 21
322.4733009605134839
 31
0.0
  0
LINE
  5
D097
  8
0
 10
3608.9118103056011932
 20
322.4733009605134839
 30
0.0
 11
3608.9019677858518662
 21
322.4684736310176731
 31
0.0
  0
LINE
  5
D098
  8
0
 10
3608.9019677858518662
 20
322.4684736310176731
 30
0.0
 11
3608.8822827461990528
 21
322.4628043955490853
 31
0.0
  0
LINE
  5
D099
  8
0
 10
3608.8822827461990528
 20
322.4628043955490853
 30
0.0
 11
3608.8724402270368046
 21
322.4620320992551115
 31
0.0
  0
LINE
  5
D09A
  8
0
 10
3608.9000677972148878
 20
322.473646343685914
 30
0.0
 11
3608.9394068460019298
 21
322.4868818410677136
 31
0.0
  0
LINE
  5
D09B
  8
0
 10
3608.9394068460019298
 20
322.4868818410677136
 30
0.0
 11
3608.929806635481782
 21
322.4807722056735884
 31
0.0
  0
LINE
  5
D09C
  8
0
 10
3608.929806635481782
 20
322.4807722056735884
 30
0.0
 11
3608.9101215961518392
 21
322.4741174646022728
 31
0.0
  0
LINE
  5
D09D
  8
0
 10
3608.9101215961518392
 20
322.4741174646022728
 30
0.0
 11
3608.9000677972148878
 21
322.473646343685914
 31
0.0
  0
LINE
  5
D09E
  8
0
 10
3608.9002790764570818
 20
322.4671304438355151
 30
0.0
 11
3608.9101215961518392
 21
322.4716074414176887
 31
0.0
  0
LINE
  5
D09F
  8
0
 10
3608.9101215961518392
 20
322.4716074414176887
 30
0.0
 11
3608.9298066355518131
 21
322.4783160445883254
 31
0.0
  0
LINE
  5
D0A0
  8
0
 10
3608.9298066355518131
 20
322.4783160445883254
 30
0.0
 11
3608.9396491551410691
 21
322.4806575040096845
 31
0.0
  0
LINE
  5
D0A1
  8
0
 10
3608.9396491551410691
 20
322.4806575040096845
 30
0.0
 11
3608.9294839757521913
 21
322.4760854755177206
 31
0.0
  0
LINE
  5
D0A2
  8
0
 10
3608.9294839757521913
 20
322.4760854755177206
 30
0.0
 11
3608.9101215961518392
 21
322.4693839901484012
 31
0.0
  0
LINE
  5
D0A3
  8
0
 10
3608.9101215961518392
 20
322.4693839901484012
 30
0.0
 11
3608.9002790788540551
 21
322.4671304449259992
 31
0.0
  0
LINE
  5
D0A4
  8
0
 10
3608.928117985676181
 20
322.4788347405872173
 30
0.0
 11
3608.9379604458099493
 21
322.4846171294315127
 31
0.0
  0
LINE
  5
D0A5
  8
0
 10
3608.9379604458099493
 20
322.4846171294315127
 30
0.0
 11
3608.9576453036288513
 21
322.4923577511008261
 31
0.0
  0
LINE
  5
D0A6
  8
0
 10
3608.9576453036288513
 20
322.4923577511008261
 30
0.0
 11
3608.9674880048141858
 21
322.4944196870218889
 31
0.0
  0
LINE
  5
D0A7
  8
0
 10
3608.9674880048141858
 20
322.4944196870218889
 30
0.0
 11
3608.9576454851530798
 21
322.4886218088176975
 31
0.0
  0
LINE
  5
D0A8
  8
0
 10
3608.9576454851530798
 20
322.4886218088176975
 30
0.0
 11
3608.9379604458449649
 21
322.4807778243527991
 31
0.0
  0
LINE
  5
D0A9
  8
0
 10
3608.9379604458449649
 20
322.4807778243527991
 30
0.0
 11
3608.928117985676181
 21
322.4788347405872173
 31
0.0
  0
LINE
  5
D0AA
  8
0
 10
3608.9564238917091643
 20
322.4934972080656053
 30
0.0
 11
3608.9688689490521938
 21
322.4988847493177104
 31
0.0
  0
LINE
  5
D0AB
  8
0
 10
3608.9688689490521938
 20
322.4988847493177104
 30
0.0
 11
3608.9737777739837838
 21
322.5038934082069773
 31
0.0
  0
LINE
  5
D0AC
  8
0
 10
3608.9737777739837838
 20
322.5038934082069773
 30
0.0
 11
3608.9854843348521172
 21
322.5092538257176784
 31
0.0
  0
LINE
  5
D0AD
  8
0
 10
3608.9854843348521172
 20
322.5092538257176784
 30
0.0
 11
3608.9953274832919305
 21
322.5110710378648946
 31
0.0
  0
LINE
  5
D0AE
  8
0
 10
3608.9953274832919305
 20
322.5110710378648946
 30
0.0
 11
3608.9854843348439317
 21
322.5038945160907247
 31
0.0
  0
LINE
  5
D0AF
  8
0
 10
3608.9854843348439317
 20
322.5038945160907247
 30
0.0
 11
3608.965798501576046
 21
322.4949616360685241
 31
0.0
  0
LINE
  5
D0B0
  8
0
 10
3608.965798501576046
 20
322.4949616360685241
 30
0.0
 11
3608.9564238917091643
 21
322.4934972080656053
 31
0.0
  0
LINE
  5
D0B1
  8
0
 10
3608.9843654091969256
 20
322.5106900916612176
 30
0.0
 11
3608.9936381451370835
 21
322.5191123559883977
 31
0.0
  0
LINE
  5
D0B2
  8
0
 10
3608.9936381451370835
 20
322.5191123559883977
 30
0.0
 11
3609.0133231844629336
 21
322.529149425559126
 31
0.0
  0
LINE
  5
D0B3
  8
0
 10
3609.0133231844629336
 20
322.529149425559126
 30
0.0
 11
3609.0231657041567814
 21
322.5307561011927078
 31
0.0
  0
LINE
  5
D0B4
  8
0
 10
3609.0231657041567814
 20
322.5307561011927078
 30
0.0
 11
3609.013323184426099
 21
322.5221386910196202
 31
0.0
  0
LINE
  5
D0B5
  8
0
 10
3609.013323184426099
 20
322.5221386910196202
 30
0.0
 11
3608.9936381450520457
 21
322.5120301926177149
 31
0.0
  0
LINE
  5
D0B6
  8
0
 10
3608.9936381450520457
 20
322.5120301926177149
 30
0.0
 11
3608.9843654091969256
 21
322.5106900916612176
 31
0.0
  0
LINE
  5
D0B7
  8
0
 10
3608.9813835925478998
 20
322.5104480040067187
 30
0.0
 11
3608.9818890081141944
 21
322.5120830792980087
 31
0.0
  0
LINE
  5
D0B8
  8
0
 10
3608.9818890081141944
 20
322.5120830792980087
 30
0.0
 11
3608.9854843348189206
 21
322.5137545277233926
 31
0.0
  0
LINE
  5
D0B9
  8
0
 10
3608.9854843348189206
 20
322.5137545277233926
 30
0.0
 11
3608.9953268545168612
 21
322.5226216003720765
 31
0.0
  0
LINE
  5
D0BA
  8
0
 10
3608.9953268545168612
 20
322.5226216003720765
 30
0.0
 11
3608.985484334836201
 21
322.522584261664008
 31
0.0
  0
LINE
  5
D0BB
  8
0
 10
3608.985484334836201
 20
322.522584261664008
 30
0.0
 11
3608.983466585952101
 21
322.5216458586177168
 31
0.0
  0
LINE
  5
D0BC
  8
0
 10
3608.983466585952101
 20
322.5216458586177168
 30
0.0
 11
3608.9657992954521433
 21
322.5320749155176827
 31
0.0
  0
LINE
  5
D0BD
  8
0
 10
3608.9657992954521433
 20
322.5320749155176827
 30
0.0
 11
3608.9587242747829805
 21
322.5322105081817199
 31
0.0
  0
LINE
  5
D0BE
  8
0
 10
3608.9567161212407882
 20
322.5313887110095834
 30
0.0
 11
3608.9657992954930705
 21
322.5215388300854897
 31
0.0
  0
LINE
  5
D0BF
  8
0
 10
3608.9657992954930705
 20
322.5215388300854897
 30
0.0
 11
3608.9818890070400812
 21
322.5120830758233978
 31
0.0
  0
LINE
  5
D0C0
  8
0
 10
3608.9813835925019703
 20
322.5104480040350268
 30
0.0
 11
3608.96489189335216
 21
322.520102155079087
 31
0.0
  0
LINE
  5
D0C1
  8
0
 10
3608.96489189335216
 20
322.520102155079087
 30
0.0
 11
3608.9576454851530798
 21
322.5279491713321818
 31
0.0
  0
LINE
  5
D0C2
  8
0
 10
3608.9576454851530798
 20
322.5279491713321818
 30
0.0
 11
3608.9535659176708577
 21
322.5301163181966899
 31
0.0
  0
LINE
  5
D0C3
  8
0
 10
3608.96489189335216
 20
322.520102155079087
 30
0.0
 11
3608.96489189335216
 21
322.5086175681176996
 31
0.0
  0
LINE
  5
D0C4
  8
0
 10
3608.96489189335216
 20
322.5086175681176996
 30
0.0
 11
3608.9307140375531162
 21
322.5086175681176996
 31
0.0
  0
LINE
  5
D0C5
  8
0
 10
3608.9307140375531162
 20
322.5086175681176996
 30
0.0
 11
3608.9307140375531162
 21
322.5214875653788908
 31
0.0
  0
LINE
  5
D0C6
  8
0
 10
3609.01457313707715
 20
322.5353445252288225
 30
0.0
 11
3608.993911630601815
 21
322.5248264857177105
 31
0.0
  0
LINE
  5
D0C7
  8
0
 10
3608.993911630601815
 20
322.5248264857177105
 30
0.0
 11
3608.983795625465973
 21
322.5250285852673073
 31
0.0
  0
LINE
  5
D0C8
  8
0
 10
3608.983795625465973
 20
322.5250285852673073
 30
0.0
 11
3608.9941773741070392
 21
322.5357883932992991
 31
0.0
  0
LINE
  5
D0C9
  8
0
 10
3608.9917086568289051
 20
322.5358414697623743
 30
0.0
 11
3608.9854843348789473
 21
322.5292535316801832
 31
0.0
  0
LINE
  5
D0CA
  8
0
 10
3608.9854843348789473
 20
322.5292535316801832
 30
0.0
 11
3608.983466585952101
 21
322.5283151286344037
 31
0.0
  0
LINE
  5
D0CB
  8
0
 10
3608.983466585952101
 20
322.5283151286344037
 30
0.0
 11
3608.9701494659698255
 21
322.5362990222150756
 31
0.0
  0
LINE
  5
D0CC
  8
0
 10
3608.98346658595392
 20
322.5283151285570966
 30
0.0
 11
3608.983466585952101
 21
322.5216458586177168
 31
0.0
  0
LINE
  5
D0CD
  8
0
 10
3608.7332748055841876
 20
322.4993841379666151
 30
0.0
 11
3608.7726160573020024
 21
322.5015616507304799
 31
0.0
  0
LINE
  5
D0CE
  8
0
 10
3608.7726160573020024
 20
322.5015616507304799
 30
0.0
 11
3608.7627735376540841
 21
322.508709536145318
 31
0.0
  0
LINE
  5
D0CF
  8
0
 10
3608.7627735376540841
 20
322.508709536145318
 30
0.0
 11
3608.7430884981999952
 21
322.5078127553319973
 31
0.0
  0
LINE
  5
D0D0
  8
0
 10
3608.7430884981999952
 20
322.5078127553319973
 30
0.0
 11
3608.7332748055841876
 21
322.4993841379666151
 31
0.0
  0
LINE
  5
D0D1
  8
0
 10
3608.7610848281228755
 20
322.5138177966276203
 30
0.0
 11
3608.7709273479717922
 21
322.506335528598072
 31
0.0
  0
LINE
  5
D0D2
  8
0
 10
3608.7709273479717922
 20
322.506335528598072
 30
0.0
 11
3608.7906123872521675
 21
322.5081320350299734
 31
0.0
  0
LINE
  5
D0D3
  8
0
 10
3608.7906123872521675
 20
322.5081320350299734
 30
0.0
 11
3608.8004549069291897
 21
322.5174312576586999
 31
0.0
  0
LINE
  5
D0D4
  8
0
 10
3608.8004549069291897
 20
322.5174312576586999
 30
0.0
 11
3608.7906123872458011
 21
322.5249372166938997
 31
0.0
  0
LINE
  5
D0D5
  8
0
 10
3608.7906123872458011
 20
322.5249372166938997
 30
0.0
 11
3608.7709273479122203
 21
322.523120100459721
 31
0.0
  0
LINE
  5
D0D6
  8
0
 10
3608.7709273479122203
 20
322.523120100459721
 30
0.0
 11
3608.7610848281228755
 21
322.5138177966276203
 31
0.0
  0
LINE
  5
D0D7
  8
0
 10
3608.7332459785279752
 20
322.5271613642910893
 30
0.0
 11
3608.7430884982900352
 21
322.5184257320991037
 31
0.0
  0
LINE
  5
D0D8
  8
0
 10
3608.7430884982900352
 20
322.5184257320991037
 30
0.0
 11
3608.7627735375522207
 21
322.5193289627176796
 31
0.0
  0
LINE
  5
D0D9
  8
0
 10
3608.7627735375522207
 20
322.5193289627176796
 30
0.0
 11
3608.7726160573170091
 21
322.5289808410690853
 31
0.0
  0
LINE
  5
D0DA
  8
0
 10
3608.7726160573170091
 20
322.5289808410690853
 30
0.0
 11
3608.7627735376918281
 21
322.5377503947374862
 31
0.0
  0
LINE
  5
D0DB
  8
0
 10
3608.7627735376918281
 20
322.5377503947374862
 30
0.0
 11
3608.7430884982650241
 21
322.5368340077977223
 31
0.0
  0
LINE
  5
D0DC
  8
0
 10
3608.7430884982650241
 20
322.5368340077977223
 30
0.0
 11
3608.7332459785279752
 21
322.5271613642910893
 31
0.0
  0
LINE
  5
D0DD
  8
0
 10
3608.7965421791850531
 20
322.5386530266762861
 30
0.0
 11
3608.7889236778069062
 21
322.5304927670575239
 31
0.0
  0
LINE
  5
D0DE
  8
0
 10
3608.7889236778069062
 20
322.5304927670575239
 30
0.0
 11
3608.79876619755305
 21
322.5226446905850253
 31
0.0
  0
LINE
  5
D0DF
  8
0
 10
3608.79876619755305
 20
322.5226446905850253
 30
0.0
 11
3608.8184512369089134
 21
322.5253799765145004
 31
0.0
  0
LINE
  5
D0E0
  8
0
 10
3608.8184512369089134
 20
322.5253799765145004
 30
0.0
 11
3608.8282937565918473
 21
322.5360035589384893
 31
0.0
  0
LINE
  5
D0E1
  8
0
 10
3608.8282937565918473
 20
322.5360035589384893
 30
0.0
 11
3608.8249178036239755
 21
322.5386139373428023
 31
0.0
  0
LINE
  5
D0E2
  8
0
 10
3608.7889236778219129
 20
322.5030456347377026
 30
0.0
 11
3608.8282937566291366
 21
322.5084532864005951
 31
0.0
  0
LINE
  5
D0E3
  8
0
 10
3608.8282937566291366
 20
322.5084532864005951
 30
0.0
 11
3608.818451236886176
 21
322.5147167929600869
 31
0.0
  0
LINE
  5
D0E4
  8
0
 10
3608.818451236886176
 20
322.5147167929600869
 30
0.0
 11
3608.7987661975048468
 21
322.5120014059289133
 31
0.0
  0
LINE
  5
D0E5
  8
0
 10
3608.7987661975048468
 20
322.5120014059289133
 30
0.0
 11
3608.7889236778219129
 21
322.5030456347377026
 31
0.0
  0
LINE
  5
D0E6
  8
0
 10
3608.8167625274509192
 20
322.5196884494488927
 30
0.0
 11
3608.826605047152043
 21
322.513089545280593
 31
0.0
  0
LINE
  5
D0E7
  8
0
 10
3608.826605047152043
 20
322.513089545280593
 30
0.0
 11
3608.8462900865520169
 21
322.516733253734003
 31
0.0
  0
LINE
  5
D0E8
  8
0
 10
3608.8462900865520169
 20
322.516733253734003
 30
0.0
 11
3608.8561326062540502
 21
322.5270186242123032
 31
0.0
  0
LINE
  5
D0E9
  8
0
 10
3608.8561326062540502
 20
322.5270186242123032
 30
0.0
 11
3608.8462900865979464
 21
322.5336390346022881
 31
0.0
  0
LINE
  5
D0EA
  8
0
 10
3608.8462900865979464
 20
322.5336390346022881
 30
0.0
 11
3608.8266050472279858
 21
322.5299523158597026
 31
0.0
  0
LINE
  5
D0EB
  8
0
 10
3608.8266050472279858
 20
322.5299523158597026
 30
0.0
 11
3608.8167625274509192
 21
322.5196884494488927
 31
0.0
  0
LINE
  5
D0EC
  8
0
 10
3608.8443455399187769
 20
322.5112047430262123
 30
0.0
 11
3608.8839714558530432
 21
322.5206477466177262
 31
0.0
  0
LINE
  5
D0ED
  8
0
 10
3608.8839714558530432
 20
322.5206477466177262
 30
0.0
 11
3608.8741289362837961
 21
322.526006651800401
 31
0.0
  0
LINE
  5
D0EE
  8
0
 10
3608.8741289362837961
 20
322.526006651800401
 30
0.0
 11
3608.8544438967610404
 21
322.5213939024055207
 31
0.0
  0
LINE
  5
D0EF
  8
0
 10
3608.8544438967610404
 20
322.5213939024055207
 30
0.0
 11
3608.8443455399187769
 21
322.5112047430262123
 31
0.0
  0
LINE
  5
D0F0
  8
0
 10
3608.872440226785784
 20
322.5308535204313216
 30
0.0
 11
3608.882282746499186
 21
322.5251544302441857
 31
0.0
  0
LINE
  5
D0F1
  8
0
 10
3608.882282746499186
 20
322.5251544302441857
 30
0.0
 11
3608.9019677858518662
 21
322.5307542165821246
 31
0.0
  0
LINE
  5
D0F2
  8
0
 10
3608.9019677858518662
 20
322.5307542165821246
 30
0.0
 11
3608.907977736113935
 21
322.5375585893701214
 31
0.0
  0
LINE
  5
D0F3
  8
0
 10
3608.872440226785784
 20
322.5308535204313216
 30
0.0
 11
3608.8788426277669714
 21
322.5380902478819962
 31
0.0
  0
LINE
  5
D0F4
  8
0
 10
3608.9112184259788592
 20
322.537495132398476
 30
0.0
 11
3608.9002790764529891
 21
322.5252723101177139
 31
0.0
  0
LINE
  5
D0F5
  8
0
 10
3608.9002790764529891
 20
322.5252723101177139
 30
0.0
 11
3608.9371279826650607
 21
322.5369790978061815
 31
0.0
  0
LINE
  5
D0F6
  8
0
 10
3608.8753338235419506
 20
322.538143555428519
 30
0.0
 11
3608.8741289361150848
 21
322.5367547600171179
 31
0.0
  0
LINE
  5
D0F7
  8
0
 10
3608.8741289361150848
 20
322.5367547600171179
 30
0.0
 11
3608.8544438968519898
 21
322.5321068783159149
 31
0.0
  0
LINE
  5
D0F8
  8
0
 10
3608.8544438968519898
 20
322.5321068783159149
 30
0.0
 11
3608.8452599399720384
 21
322.5384906488583283
 31
0.0
  0
LINE
  5
D0F9
  8
0
 10
3608.7924861310011693
 20
322.538653659116676
 30
0.0
 11
3608.7906123872521675
 21
322.5366184629912141
 31
0.0
  0
LINE
  5
D0FA
  8
0
 10
3608.7906123872521675
 20
322.5366184629912141
 30
0.0
 11
3608.7709273478521936
 21
322.5347845272177096
 31
0.0
  0
LINE
  5
D0FB
  8
0
 10
3608.7709273478521936
 20
322.5347845272177096
 30
0.0
 11
3608.7666557342818123
 21
322.5386454109666943
 31
0.0
  0
ARC
  5
D0FC
  8
0
 10
3608.7238072202030708
 20
323.0495936676950919
 30
0.0
 40
0.6102496696659717
 50
270.1206426781643017
 51
272.8486652164731936
  0
ARC
  5
D0FD
  8
0
 10
3608.7234594737519728
 20
323.0473048572574157
 30
0.0
 40
0.6079811447106377
 50
272.8921158312135162
 51
278.6222399937856835
  0
ARC
  5
D0FE
  8
0
 10
3608.7294475663120465
 20
323.0078141214632979
 30
0.0
 40
0.5680389932153762
 50
278.6222399937856835
 51
286.270545947736025
  0
ARC
  5
D0FF
  8
0
 10
3608.7201982135361504
 20
323.039504907884691
 30
0.0
 40
0.6010519674951864
 50
286.270545947736025
 51
292.8123691864169018
  0
ARC
  5
D100
  8
0
 10
3608.6888942003370175
 20
323.1139292327687258
 30
0.0
 40
0.6817918051018828
 50
292.8123691864169018
 51
296.9725488313442838
  0
ARC
  5
D101
  8
0
 10
3608.9469513824169553
 20
322.6068630567385753
 30
0.0
 40
0.1128369597081573
 50
296.9725488313442838
 51
320.3852159472226049
  0
LINE
  5
D102
  8
0
 10
3608.7430884981999952
 20
322.5078127553319973
 30
0.0
 11
3608.7430884981999952
 21
322.4999273194873126
 31
0.0
  0
LINE
  5
D103
  8
0
 10
3608.7627735376540841
 20
322.508709536145318
 30
0.0
 11
3608.7627735376540841
 21
322.5010168736524179
 31
0.0
  0
LINE
  5
D104
  8
0
 10
3608.7709273479717922
 20
322.506335528598072
 30
0.0
 11
3608.7709273479122203
 21
322.523120100459721
 31
0.0
  0
LINE
  5
D105
  8
0
 10
3608.7906123872521675
 20
322.5081320350299734
 30
0.0
 11
3608.7906123872458011
 21
322.5249372166938997
 31
0.0
  0
LINE
  5
D106
  8
0
 10
3608.7430884982900352
 20
322.5184257320991037
 30
0.0
 11
3608.7430884982650241
 21
322.5368340077977223
 31
0.0
  0
LINE
  5
D107
  8
0
 10
3608.7627735375522207
 20
322.5193289627176796
 30
0.0
 11
3608.7627735376918281
 21
322.5377503947374862
 31
0.0
  0
LINE
  5
D108
  8
0
 10
3608.7709273478521936
 20
322.5347845272177096
 30
0.0
 11
3608.7709273478521936
 21
322.5386482393752772
 31
0.0
  0
LINE
  5
D109
  8
0
 10
3608.7906123872521675
 20
322.5366184629912141
 30
0.0
 11
3608.7906123872521675
 21
322.538653774598572
 31
0.0
  0
LINE
  5
D10A
  8
0
 10
3608.79876619755305
 20
322.5226446905850253
 30
0.0
 11
3608.79876619755305
 21
322.5386524577970135
 31
0.0
  0
LINE
  5
D10B
  8
0
 10
3608.8184512369089134
 20
322.5253799765145004
 30
0.0
 11
3608.8184512369089134
 21
322.5386342856534156
 31
0.0
  0
LINE
  5
D10C
  8
0
 10
3608.7987661975048468
 20
322.5120014059289133
 30
0.0
 11
3608.7987661975048468
 21
322.5043975476509104
 31
0.0
  0
LINE
  5
D10D
  8
0
 10
3608.818451236886176
 20
322.5147167929600869
 30
0.0
 11
3608.818451236886176
 21
322.5071013734790881
 31
0.0
  0
LINE
  5
D10E
  8
0
 10
3608.826605047152043
 20
322.513089545280593
 30
0.0
 11
3608.8266050472279858
 21
322.5299523158597026
 31
0.0
  0
LINE
  5
D10F
  8
0
 10
3608.8462900865520169
 20
322.516733253734003
 30
0.0
 11
3608.8462900865979464
 21
322.5336390346022881
 31
0.0
  0
LINE
  5
D110
  8
0
 10
3608.8544438968519898
 20
322.5321068783159149
 30
0.0
 11
3608.8544438968519898
 21
322.5384055106000005
 31
0.0
  0
LINE
  5
D111
  8
0
 10
3608.8544438967610404
 20
322.5213939024055207
 30
0.0
 11
3608.8544438967610404
 21
322.5136112191337929
 31
0.0
  0
LINE
  5
D112
  8
0
 10
3608.8741289362837961
 20
322.526006651800401
 30
0.0
 11
3608.8741289362837961
 21
322.5183022374869779
 31
0.0
  0
LINE
  5
D113
  8
0
 10
3608.882282746499186
 20
322.5251544302441857
 30
0.0
 11
3608.882282746499186
 21
322.5380353845570767
 31
0.0
  0
LINE
  5
D114
  8
0
 10
3608.9019677858518662
 20
322.5307542165821246
 30
0.0
 11
3608.9019677858518662
 21
322.5376756323361747
 31
0.0
  0
LINE
  5
D115
  8
0
 10
3608.743089157031136
 20
322.4402711679808817
 30
0.0
 11
3608.7426176217581997
 21
322.4428489053747739
 31
0.0
  0
LINE
  5
D116
  8
0
 10
3608.7629672350522014
 20
322.4412159547176771
 30
0.0
 11
3608.7627735375358498
 21
322.4438382715167108
 31
0.0
  0
LINE
  5
D117
  8
0
 10
3608.7430884981918098
 20
322.4456606040807856
 30
0.0
 11
3608.7430884981918098
 21
322.4486060469470203
 31
0.0
  0
LINE
  5
D118
  8
0
 10
3608.7627735375522207
 20
322.4465573848672761
 30
0.0
 11
3608.7627735375522207
 21
322.449499072209278
 31
0.0
  0
LINE
  5
D119
  8
0
 10
3608.7709273478521936
 20
322.4437625940811927
 30
0.0
 11
3608.7709273478521936
 21
322.4480501928456988
 31
0.0
  0
LINE
  5
D11A
  8
0
 10
3608.7906123872521675
 20
322.4455797102510246
 30
0.0
 11
3608.7906123875218327
 21
322.4498466992463932
 31
0.0
  0
LINE
  5
D11B
  8
0
 10
3608.79876619755305
 20
322.4445519396177247
 30
0.0
 11
3608.7987661975780611
 21
322.4471539994979139
 31
0.0
  0
LINE
  5
D11C
  8
0
 10
3608.818451236511919
 20
322.4473278406368877
 30
0.0
 11
3608.81845123685207
 21
322.4498892853176812
 31
0.0
  0
LINE
  5
D11D
  8
0
 10
3608.79876619755305
 20
322.4498492547177193
 30
0.0
 11
3608.79876619755305
 21
322.4527814817413969
 31
0.0
  0
LINE
  5
D11E
  8
0
 10
3608.81845123685207
 20
322.4525646417176858
 30
0.0
 11
3608.81845123685207
 21
322.4554853075845813
 31
0.0
  0
LINE
  5
D11F
  8
0
 10
3608.8266050469292168
 20
322.4505948093794245
 30
0.0
 11
3608.8266050472238931
 21
322.4548042095019014
 31
0.0
  0
LINE
  5
D120
  8
0
 10
3608.8462900865520169
 20
322.45428152811769
 30
0.0
 11
3608.8463961466031833
 21
322.4584452161902277
 31
0.0
  0
LINE
  5
D121
  8
0
 10
3608.8544438968519898
 20
322.4541564329177277
 30
0.0
 11
3608.8538937865091611
 21
322.4564862994407122
 31
0.0
  0
LINE
  5
D122
  8
0
 10
3608.874128936174202
 20
322.4588761169148938
 30
0.0
 11
3608.8735948840358105
 21
322.4611379725803886
 31
0.0
  0
LINE
  5
D123
  8
0
 10
3608.8533297687049526
 20
322.4592756529780218
 30
0.0
 11
3608.8533297687049526
 21
322.4618831100669922
 31
0.0
  0
LINE
  5
D124
  8
0
 10
3608.874128935859062
 20
322.4638545004235084
 30
0.0
 11
3608.874128935859062
 21
322.466735464154624
 31
0.0
  0
LINE
  5
D125
  8
0
 10
3608.8822827461990528
 20
322.4628043955490853
 30
0.0
 11
3608.8822827464518923
 21
322.4668690943536262
 31
0.0
  0
LINE
  5
D126
  8
0
 10
3608.9019677858518662
 20
322.4684736310176731
 30
0.0
 11
3608.9019677858268551
 21
322.472468880814688
 31
0.0
  0
LINE
  5
D127
  8
0
 10
3608.9101215961518392
 20
322.4741174646022728
 30
0.0
 11
3608.9101215961518392
 21
322.4770289122434974
 31
0.0
  0
LINE
  5
D128
  8
0
 10
3608.929806635481782
 20
322.4807722056735884
 30
0.0
 11
3608.929806635481782
 21
322.4836518808850201
 31
0.0
  0
LINE
  5
D129
  8
0
 10
3608.9101215961518392
 20
322.4693839901484012
 30
0.0
 11
3608.9101215961518392
 21
322.4716074414176887
 31
0.0
  0
LINE
  5
D12A
  8
0
 10
3608.9294839757521913
 20
322.4760854755177206
 30
0.0
 11
3608.9288364807389371
 21
322.4779854186988928
 31
0.0
  0
LINE
  5
D12B
  8
0
 10
3608.9379604458449649
 20
322.4807778243527991
 30
0.0
 11
3608.938158168488826
 21
322.4846948793683055
 31
0.0
  0
LINE
  5
D12C
  8
0
 10
3608.9576454851530798
 20
322.4886218088176975
 30
0.0
 11
3608.9576453036288513
 21
322.4923577511008261
 31
0.0
  0
LINE
  5
D12D
  8
0
 10
3608.965798501576046
 20
322.4949616360685241
 30
0.0
 11
3608.965798501576046
 21
322.497555533872287
 31
0.0
  0
LINE
  5
D12E
  8
0
 10
3608.9854843348439317
 20
322.5038945160907247
 30
0.0
 11
3608.9854843348521172
 21
322.5092538257176784
 31
0.0
  0
LINE
  5
D12F
  8
0
 10
3608.9737777739837838
 20
322.5038934082069773
 30
0.0
 11
3608.9737777739837838
 21
322.4985824065034876
 31
0.0
  0
LINE
  5
D130
  8
0
 10
3609.4840675187519992
 20
322.4531991278926171
 30
0.0
 11
3609.4840675187519992
 21
323.1189595739792253
 31
0.0
  0
ARC
  5
D131
  8
0
 10
3608.5015009969501989
 20
300.8251528296951847
 30
0.0
 40
22.3455840430515984
 50
87.5572105183339033
 51
89.4266856391250116
  0
ARC
  5
D132
  8
0
 10
3609.4525675187519482
 20
323.1189595739792253
 30
0.0
 40
0.0315
 50
359.9999999999968168
 51
87.5572105183339033
  0
ARC
  5
D133
  8
0
 10
3608.7019068616418735
 20
323.6876965831589246
 30
0.0
 40
1.4801211252733899
 50
274.1048327660112136
 51
301.0340800786908062
  0
ARC
  5
D134
  8
0
 10
3608.7019068616418735
 20
323.6876965831589246
 30
0.0
 40
1.4801211252733899
 50
270.8975444818062783
 51
274.0575501724507035
  0
ARC
  5
D135
  8
0
 10
3609.4446675187518849
 20
322.4531991278926171
 30
0.0
 40
0.0394
 50
301.0340800787197963
 51
359.9999999999935199
  0
LINE
  5
D136
  8
0
 10
3609.2780531148769114
 20
322.5747575141811012
 30
0.0
 11
3609.4620006574109539
 21
322.4176509276347247
 31
0.0
  0
LINE
  5
D137
  8
0
 10
3608.823517365151929
 20
322.2270334413177011
 30
0.0
 11
3608.8077693336508673
 21
322.2112854098177195
 31
0.0
  0
LINE
  5
D138
  8
0
 10
3608.823517365151929
 20
322.2270334413177011
 30
0.0
 11
3608.823517365151929
 21
322.2348901708335234
 31
0.0
  0
ARC
  5
D139
  8
0
 10
3608.829528454451065
 20
315.9444202446147187
 30
0.0
 40
6.2904727982766051
 50
89.9113156181399944
 51
90.9512851487041445
  0
ARC
  5
D13A
  8
0
 10
3608.8225046334268882
 20
322.2741958204308048
 30
0.0
 40
0.0427342091805453
 50
271.3579445461190858
 51
293.0915625328810279
  0
ARC
  5
D13B
  8
0
 10
3606.5666733022158041
 20
221.4261938287218925
 30
0.0
 40
101.1848976681792038
 50
88.4645019082121706
 51
88.7777062089867854
  0
LINE
  5
D13C
  8
0
 10
3607.9962742309189707
 20
323.1504309492365792
 30
0.0
 11
3609.4539101055861465
 21
323.1504309492365792
 31
0.0
  0
CIRCLE
  5
D13D
  8
0
 10
3608.7250921682530134
 20
322.6871123421677225
 30
0.0
 40
1.1967382024500011
  0
LINE
  5
D13E
  8
0
 10
3608.1350622660488625
 20
323.1186405771961745
 30
0.0
 11
3608.1397884768839504
 21
322.6059558309619888
 31
0.0
  0
ARC
  5
D13F
  8
0
 10
3608.1665609276728901
 20
323.1189309492365851
 30
0.0
 40
0.0315
 50
90.0
 51
180.5281691439442113
  0
ARC
  5
D140
  8
0
 10
3608.1712871385079779
 20
322.6062462030025131
 30
0.0
 40
0.0315
 50
180.5281691439508052
 51
271.5354980917617809
  0
LINE
  5
D141
  8
0
 10
3609.3151220704548905
 20
323.1186405771961745
 30
0.0
 11
3609.3103958596198026
 21
322.6059558309619888
 31
0.0
  0
ARC
  5
D142
  8
0
 10
3609.2836234088322271
 20
323.1189309492365851
 30
0.0
 40
0.0315
 50
359.4718308560558171
 51
90.0
  0
ARC
  5
D143
  8
0
 10
3609.2788971979957751
 20
322.6062462030025131
 30
0.0
 40
0.0315
 50
268.4645019082382191
 51
359.4718308560492233
  0
LINE
  5
D145
  8
0
 10
3608.7349346879518635
 20
322.5330326842176873
 30
0.0
 11
3608.715249648552799
 21
322.5330326842176873
 31
0.0
  0
LINE
  5
D146
  8
0
 10
3608.715249648552799
 20
322.5330326842176873
 30
0.0
 11
3608.7097656614278094
 21
322.5386153097006741
 31
0.0
  0
LINE
  5
D147
  8
0
 10
3608.7349346879518635
 20
322.5213842194177118
 30
0.0
 11
3608.715249648552799
 21
322.5213842194177118
 31
0.0
  0
LINE
  5
D148
  8
0
 10
3608.715249648552799
 20
322.5213842194177118
 30
0.0
 11
3608.705407128888055
 21
322.5130723851211201
 31
0.0
  0
LINE
  5
D149
  8
0
 10
3608.705407128888055
 20
322.5130723851211201
 30
0.0
 11
3608.715249648552799
 21
322.5046982320952793
 31
0.0
  0
LINE
  5
D14A
  8
0
 10
3608.715249648552799
 20
322.5046982320952793
 30
0.0
 11
3608.7349346879518635
 21
322.5046982320952793
 31
0.0
  0
LINE
  5
D14B
  8
0
 10
3608.715249648552799
 20
322.5330326842176873
 30
0.0
 11
3608.715249648552799
 21
322.5386062517997061
 31
0.0
  0
LINE
  5
D14C
  8
0
 10
3608.715249648552799
 20
322.5213842194177118
 30
0.0
 11
3608.715249648552799
 21
322.5046982320952793
 31
0.0
  0
LINE
  5
D14D
  8
0
 10
3608.7349346879518635
 20
322.5330326842176873
 30
0.0
 11
3608.7404186750768531
 21
322.5386153097006741
 31
0.0
  0
LINE
  5
D14E
  8
0
 10
3608.7349346879518635
 20
322.5213842194177118
 30
0.0
 11
3608.7447772076147885
 21
322.5130723851211201
 31
0.0
  0
LINE
  5
D14F
  8
0
 10
3608.7447772076147885
 20
322.5130723851211201
 30
0.0
 11
3608.7349346879518635
 21
322.5046982320952793
 31
0.0
  0
LINE
  5
D150
  8
0
 10
3608.7349346879518635
 20
322.5330326842176873
 30
0.0
 11
3608.7349346879518635
 21
322.5386062517997061
 31
0.0
  0
LINE
  5
D151
  8
0
 10
3608.7349346879518635
 20
322.5213842194177118
 30
0.0
 11
3608.7349346879518635
 21
322.5046982320952793
 31
0.0
  0
LINE
  5
D152
  8
0
 10
3608.715249648515055
 20
322.4421066327025187
 30
0.0
 11
3608.7054071288907835
 21
322.4442509638827801
 31
0.0
  0
LINE
  5
D153
  8
0
 10
3608.7054071288907835
 20
322.4442509638827801
 30
0.0
 11
3608.7152496482840434
 21
322.4464128963215899
 31
0.0
  0
LINE
  5
D154
  8
0
 10
3608.7152496482840434
 20
322.4464128963215899
 30
0.0
 11
3608.715249648515055
 21
322.4421066327025187
 31
0.0
  0
LINE
  5
D155
  8
0
 10
3608.706263699243209
 20
322.4396755504188832
 30
0.0
 11
3608.7152496485327902
 21
322.440417290045275
 31
0.0
  0
LINE
  5
D156
  8
0
 10
3608.7349346879891527
 20
322.4421066327025187
 30
0.0
 11
3608.7447772076129695
 21
322.4442509638827801
 31
0.0
  0
LINE
  5
D157
  8
0
 10
3608.7447772076129695
 20
322.4442509638827801
 30
0.0
 11
3608.7349346882210739
 21
322.4464128963215899
 31
0.0
  0
LINE
  5
D158
  8
0
 10
3608.7349346882210739
 20
322.4464128963215899
 30
0.0
 11
3608.7349346879891527
 21
322.4421066327025187
 31
0.0
  0
LINE
  5
D159
  8
0
 10
3608.7439206372619083
 20
322.4396755504188832
 30
0.0
 11
3608.7349346879718723
 21
322.440417290045275
 31
0.0
  0
LINE
  5
D15A
  8
0
 10
3608.7152496485327902
 20
322.440417290045275
 30
0.0
 11
3608.7152496485327902
 21
322.4394454571851725
 31
0.0
  0
LINE
  5
D15B
  8
0
 10
3608.7152496485327902
 20
322.440417290045275
 30
0.0
 11
3608.7349346879718723
 21
322.440417290045275
 31
0.0
  0
LINE
  5
D15C
  8
0
 10
3608.7349346879718723
 20
322.440417290045275
 30
0.0
 11
3608.7349346879718723
 21
322.4394454571851725
 31
0.0
  0
LINE
  5
D15D
  8
0
 10
3608.715249648515055
 20
322.4421066327025187
 30
0.0
 11
3608.7349346879891527
 21
322.4421066327025187
 31
0.0
  0
LINE
  5
D15E
  8
0
 10
3608.7152496482840434
 20
322.4464128963215899
 30
0.0
 11
3608.7349346882210739
 21
322.4464128963215899
 31
0.0
  0
ENDSEC
  0
EOF
