  0
SECTION
  2
HEADER
  9
$ACADVER
  1
AC1009
  9
$INSBASE
 10
3626.8784650256961868
 20
322.4076492364657156
 30
0.0
  9
$EXTMIN
 10
3625.6817268232462084
 20
315.488296795995609
 30
0.0
  9
$EXTMAX
 10
3632.0595673878970047
 20
322.4076492364657156
 30
0.0
  9
$LIMMIN
 10
0.0
 20
0.0
  9
$LIMMAX
 10
11.6929133858000007
 20
8.2677165353999982
  9
$ORTHOMODE
 70
     0
  9
$REGENMODE
 70
     1
  9
$FILLMODE
 70
     1
  9
$QTEXTMODE
 70
     0
  9
$MIRRTEXT
 70
     0
  9
$DRAGMODE
 70
     2
  9
$LTSCALE
 40
0.6431102362
  9
$OSMODE
 70
  4095
  9
$ATTMODE
 70
     1
  9
$TEXTSIZE
 40
0.2
  9
$TRACEWID
 40
0.05
  9
$TEXTSTYLE
  7
STANDARD
  9
$CLAYER
  8
0
  9
$CELTYPE
  6
BYLAYER
  9
$CECOLOR
 62
   256
  9
$DIMSCALE
 40
1.0
  9
$DIMASZ
 40
0.1875
  9
$DIMEXO
 40
0.0625
  9
$DIMDLI
 40
0.4443307087
  9
$DIMRND
 40
0.0
  9
$DIMDLE
 40
0.0
  9
$DIMEXE
 40
0.125
  9
$DIMTP
 40
0.01
  9
$DIMTM
 40
0.01
  9
$DIMTXT
 40
2.0
  9
$DIMCEN
 40
0.1052362205
  9
$DIMTSZ
 40
0.0
  9
$DIMTOL
 70
     1
  9
$DIMLIM
 70
     0
  9
$DIMTIH
 70
     1
  9
$DIMTOH
 70
     1
  9
$DIMSE1
 70
     0
  9
$DIMSE2
 70
     0
  9
$DIMTAD
 70
     0
  9
$DIMZIN
 70
     0
  9
$DIMBLK
  1

  9
$DIMASO
 70
     1
  9
$DIMSHO
 70
     1
  9
$DIMPOST
  1
\X
  9
$DIMAPOST
  1

  9
$DIMALT
 70
     1
  9
$DIMALTD
 70
     2
  9
$DIMALTF
 40
25.3999999999999986
  9
$DIMLFAC
 40
1.0
  9
$DIMTOFL
 70
     0
  9
$DIMTVP
 40
0.0
  9
$DIMTIX
 70
     0
  9
$DIMSOXD
 70
     0
  9
$DIMSAH
 70
     0
  9
$DIMBLK1
  1

  9
$DIMBLK2
  1

  9
$DIMSTYLE
  2
STANDARD
  9
$DIMCLRD
 70
     0
  9
$DIMCLRE
 70
     0
  9
$DIMCLRT
 70
     0
  9
$DIMTFAC
 40
1.0
  9
$DIMGAP
 40
0.09
  9
$LUNITS
 70
     2
  9
$LUPREC
 70
     4
  9
$SKETCHINC
 40
0.1
  9
$FILLETRAD
 40
0.0
  9
$AUNITS
 70
     0
  9
$AUPREC
 70
     0
  9
$MENU
  1
.
  9
$ELEVATION
 40
0.0
  9
$PELEVATION
 40
0.0
  9
$THICKNESS
 40
0.0
  9
$LIMCHECK
 70
     0
  9
$BLIPMODE
 70
     0
  9
$CHAMFERA
 40
0.0
  9
$CHAMFERB
 40
0.0
  9
$SKPOLY
 70
     0
  9
$TDCREATE
 40
2458060.468368056230247
  9
$TDUPDATE
 40
2459423.6466782409697771
  9
$TDINDWG
 40
0.7413380787
  9
$TDUSRTIMER
 40
0.7413380787
  9
$USRTIMER
 70
     1
  9
$ANGBASE
 50
0.0
  9
$ANGDIR
 70
     0
  9
$PDMODE
 70
     0
  9
$PDSIZE
 40
0.3125
  9
$PLINEWID
 40
0.0
  9
$COORDS
 70
     1
  9
$SPLFRAME
 70
     0
  9
$SPLINETYPE
 70
     6
  9
$SPLINESEGS
 70
     8
  9
$ATTDIA
 70
     1
  9
$ATTREQ
 70
     1
  9
$HANDLING
 70
     1
  9
$HANDSEED
  5
D220
  9
$SURFTAB1
 70
     6
  9
$SURFTAB2
 70
     6
  9
$SURFTYPE
 70
     6
  9
$SURFU
 70
     6
  9
$SURFV
 70
     6
  9
$UCSNAME
  2

  9
$UCSORG
 10
0.0
 20
0.0
 30
0.0
  9
$UCSXDIR
 10
1.0
 20
0.0
 30
0.0
  9
$UCSYDIR
 10
0.0
 20
1.0
 30
0.0
  9
$PUCSNAME
  2

  9
$PUCSORG
 10
0.0
 20
0.0
 30
0.0
  9
$PUCSXDIR
 10
1.0
 20
0.0
 30
0.0
  9
$PUCSYDIR
 10
0.0
 20
1.0
 30
0.0
  9
$USERI1
 70
     0
  9
$USERI2
 70
     0
  9
$USERI3
 70
     0
  9
$USERI4
 70
     0
  9
$USERI5
 70
     0
  9
$USERR1
 40
0.0
  9
$USERR2
 40
0.0
  9
$USERR3
 40
0.0
  9
$USERR4
 40
0.0
  9
$USERR5
 40
0.0
  9
$WORLDVIEW
 70
     1
  9
$SHADEDGE
 70
     3
  9
$SHADEDIF
 70
    70
  9
$TILEMODE
 70
     1
  9
$MAXACTVP
 70
    64
  9
$PLIMCHECK
 70
     0
  9
$PEXTMIN
 10
1.0000000000000000E+20
 20
1.0000000000000000E+20
 30
1.0000000000000000E+20
  9
$PEXTMAX
 10
-1.0000000000000000E+20
 20
-1.0000000000000000E+20
 30
-1.0000000000000000E+20
  9
$PLIMMIN
 10
0.0
 20
0.0
  9
$PLIMMAX
 10
12.0
 20
9.0
  9
$UNITMODE
 70
     0
  9
$VISRETAIN
 70
     1
  9
$PLINEGEN
 70
     0
  9
$PSLTSCALE
 70
     1
  0
ENDSEC
  0
SECTION
  2
TABLES
  0
TABLE
  2
VPORT
 70
     1
  0
VPORT
  2
*ACTIVE
 70
     0
 10
0.0
 20
0.0
 11
1.0
 21
1.0
 12
48.4652835937909074
 22
-3.4676385185185832
 13
0.0
 23
0.0
 14
1.0
 24
1.0
 15
0.0
 25
0.0
 16
0.0
 26
0.0
 36
24.2172351446446505
 17
3580.69287109375
 27
322.4241180419921875
 37
0.0
 40
7.0077867293068312
 41
2.8440779610194902
 42
50.0
 43
0.0
 44
0.0
 50
0.0
 51
0.0
 71
     0
 72
   100
 73
     1
 74
     1
 75
     0
 76
     0
 77
     0
 78
     0
  0
ENDTAB
  0
TABLE
  2
LTYPE
 70
     2
  0
LTYPE
  2
CONTINUOUS
 70
     0
  3
Solid line
 72
    65
 73
     0
 40
0.0
  0
LTYPE
  2
PHANTOM2
 70
     0
  3
___ _ _ ___ _ _ ___ _ _ ___ _ _
 72
    65
 73
     6
 40
1.25
 49
0.625
 49
-0.125
 49
0.125
 49
-0.125
 49
0.125
 49
-0.125
  0
ENDTAB
  0
TABLE
  2
LAYER
 70
     2
  0
LAYER
  2
0
 70
     0
 62
   255
  6
CONTINUOUS
  0
LAYER
  2
DEFPOINTS
 70
     0
 62
     7
  6
CONTINUOUS
  0
ENDTAB
  0
TABLE
  2
STYLE
 70
     1
  0
STYLE
  2
STANDARD
 70
     0
 40
0.0
 41
0.8
 50
0.0
 71
     0
 42
0.2
  3
txt
  4

  0
ENDTAB
  0
TABLE
  2
VIEW
 70
     0
  0
ENDTAB
  0
TABLE
  2
UCS
 70
     0
  0
ENDTAB
  0
TABLE
  2
APPID
 70
     9
  0
APPID
  2
ACAD
 70
     0
  0
APPID
  2
ACAD_MLEADERVER
 70
     0
  0
APPID
  2
ACAD_EXEMPT_FROM_CAD_STANDARDS
 70
     0
  0
APPID
  2
ACAD_NAV_VCDISPLAY
 70
     0
  0
APPID
  2
ACAECLAYERSTANDARD
 70
     0
  0
APPID
  2
ACCMTRANSPARENCY
 70
     0
  0
APPID
  2
ACAD_DSTYLE_DIMJAG
 70
     0
  0
APPID
  2
ACAD_DSTYLE_DIMTALN
 70
     0
  0
APPID
  2
ACDBATTR
 70
     0
  0
ENDTAB
  0
TABLE
  2
DIMSTYLE
 70
     1
  0
DIMSTYLE
  2
STANDARD
 70
     0
  3

  4

  5

  6

  7

 40
1.0
 41
0.1875
 42
0.0625
 43
0.38
 44
0.125
 45
0.0
 46
0.0
 47
0.01
 48
0.01
140
0.15625
141
0.09
142
0.0
143
25.3999999999999986
144
1.0
145
0.0
146
1.0
147
0.09
 71
     1
 72
     0
 73
     1
 74
     1
 75
     0
 76
     0
 77
     0
 78
     4
170
     0
171
     2
172
     0
173
     0
174
     0
175
     0
176
     0
177
     0
178
     0
  0
ENDTAB
  0
ENDSEC
  0
SECTION
  2
BLOCKS
  0
BLOCK
  8
0
  2
$MODEL_SPACE
 70
     0
 10
0.0
 20
0.0
 30
0.0
  3
$MODEL_SPACE
  1

  0
ENDBLK
  5
21
  8
0
  0
BLOCK
 67
     1
  8
0
  2
$PAPER_SPACE
 70
     0
 10
0.0
 20
0.0
 30
0.0
  3
$PAPER_SPACE
  1

  0
ENDBLK
  5
1D
 67
     1
  8
0
  0
ENDSEC
  0
SECTION
  2
ENTITIES
  0
ATTDEF
  5
3930
  8
DEFPOINTS
 10
3626.8738588608148348
 20
322.4059921339057837
 30
0.0
 40
0.001
  1
K-26048T-4
  3

  2
MODELNUMBER
 70
     0
1001
ACDBATTR
1070
     0
1070
     1
  0
ATTDEF
  5
3931
  8
DEFPOINTS
 10
3626.8738588608148348
 20
322.4043254672391186
 30
0.0
 40
0.001
  1

  3

  2
TRADENAME
 70
     0
1001
ACDBATTR
1070
     0
1070
     1
  0
ATTDEF
  5
3932
  8
DEFPOINTS
 10
3626.8738588608148348
 20
322.4026588005723966
 30
0.0
 40
0.001
  1
BATHROOM SINK FAUCET
  3

  2
PRODUCT
 70
     0
1001
ACDBATTR
1070
     0
1070
     1
  0
LINE
  5
D0CC
  8
0
 10
3630.0517116615969826
 20
321.4806932031222004
 30
0.0
 11
3630.0517116615969826
 21
320.5257764611657194
 31
0.0
  0
LINE
  5
D0CD
  8
0
 10
3630.0714116615959028
 20
320.5060764611657191
 30
0.0
 11
3631.685518389796016
 21
320.5060764611657191
 31
0.0
  0
LINE
  5
D0CE
  8
0
 10
3630.0714116615959028
 20
321.5887515986656808
 30
0.0
 11
3631.685518389796016
 21
321.5887515986656808
 31
0.0
  0
LINE
  5
D0CF
  8
0
 10
3630.0593633108887843
 20
321.4903259551114161
 30
0.0
 11
3630.1460893257071803
 21
321.4903259551114161
 31
0.0
  0
LINE
  5
D0D0
  8
0
 10
3629.7436598018730365
 20
322.171428763965821
 30
0.0
 11
3632.0132702495197918
 21
322.171428763965821
 31
0.0
  0
LINE
  5
D0D1
  8
0
 10
3629.6973626634971879
 20
322.4076492364657156
 30
0.0
 11
3632.0595673878970047
 21
322.4076492364657156
 31
0.0
  0
LINE
  5
D0D2
  8
0
 10
3629.6973626634971879
 20
322.4076492364657156
 30
0.0
 11
3629.7042838032880354
 21
322.2094537237996974
 31
0.0
  0
ARC
  5
D0D3
  8
0
 10
3629.7436598018730365
 20
322.2108287639658215
 30
0.0
 40
0.0394
 50
181.9999999941281033
 51
270.0
  0
ARC
  5
D0D4
  8
0
 10
3630.1100351098361898
 20
321.4720106208447987
 30
0.0
 40
0.0192128999296629
 50
107.5785441517781038
 51
135.853511570633799
  0
ARC
  5
D0D5
  8
0
 10
3630.1085199015351463
 20
321.4802093570137913
 30
0.0
 40
0.0133208883079967
 50
157.1024258013931103
 51
203.8774012987055073
  0
ARC
  5
D0D6
  8
0
 10
3630.484110532323939
 20
321.7450760628057083
 30
0.0
 40
0.4726589417017025
 50
214.8747126876498896
 51
233.5571751612691003
  0
ARC
  5
D0D7
  8
0
 10
3630.643677851854136
 20
321.9611417206422743
 30
0.0
 40
0.7412591981870342
 50
233.5558964987515935
 51
251.9829192664911091
  0
ARC
  5
D0D8
  8
0
 10
3630.8465101054780462
 20
322.571703562585185
 30
0.0
 40
1.3846237540941271
 50
251.8157785902893124
 51
265.0985515952481819
  0
ARC
  5
D0D9
  8
0
 10
3630.878027192081845
 20
322.8459092683011136
 30
0.0
 40
1.660538755057094
 50
264.8234434043736201
 51
270.0151071562959828
  0
ARC
  5
D0DA
  8
0
 10
3630.8790601970381431
 20
322.9278719247296863
 30
0.0
 40
1.765073960670797
 50
266.4287375767657977
 51
269.9806802392462828
  0
ARC
  5
D0DB
  8
0
 10
3630.8726573017847841
 20
322.8252797267713277
 30
0.0
 40
1.6622821509310171
 50
259.2324024917327847
 51
266.4287375767657977
  0
ARC
  5
D0DC
  8
0
 10
3630.7960839019929153
 20
322.422630905022686
 30
0.0
 40
1.2524168569488849
 50
247.937437770240706
 51
259.2324024917327847
  0
ARC
  5
D0DD
  8
0
 10
3630.5769346536349076
 20
321.8819180994854037
 30
0.0
 40
0.6689815725106067
 50
229.6222614373731119
 51
247.937437770240706
  0
ARC
  5
D0DE
  8
0
 10
3630.4778426229968318
 20
321.7653936599887743
 30
0.0
 40
0.5160202194311201
 50
215.3481165391513912
 51
229.6222614373731119
  0
ARC
  5
D0DF
  8
0
 10
3630.0808633205670048
 20
321.4838158382268034
 30
0.0
 40
0.0293184254477363
 50
186.1140327515103081
 51
215.3481165391486059
  0
ARC
  5
D0E0
  8
0
 10
3630.0626111584838327
 20
321.4798907010140283
 30
0.0
 40
0.0109290000480442
 50
107.2881266267633009
 51
175.7890563500104975
  0
ARC
  5
D0E1
  8
0
 10
3630.984340930595863
 20
321.7083528968657902
 30
0.0
 40
0.8661417323000854
 50
187.9370563895849102
 51
202.1843184629042867
  0
ARC
  5
D0E2
  8
0
 10
3630.0714116615959028
 20
320.5257764611657194
 30
0.0
 40
0.0197
 50
179.999999999980389
 51
270.0
  0
LINE
  5
D0E3
  8
0
 10
3631.70521838979721
 20
321.4806932031222004
 30
0.0
 11
3631.70521838979721
 21
320.5257764611657194
 31
0.0
  0
LINE
  5
D0E4
  8
0
 10
3631.697566740504044
 20
321.4903259551114161
 30
0.0
 11
3631.6108407256870123
 21
321.4903259551114161
 31
0.0
  0
LINE
  5
D0E5
  8
0
 10
3632.0595673878970047
 20
322.4076492364657156
 30
0.0
 11
3632.0526462481038834
 21
322.2094537237996974
 31
0.0
  0
ARC
  5
D0E6
  8
0
 10
3632.0132702495197918
 20
322.2108287639658215
 30
0.0
 40
0.0394
 50
270.0
 51
358.0000000058719252
  0
ARC
  5
D0E7
  8
0
 10
3631.6468949415570933
 20
321.4720106208447987
 30
0.0
 40
0.0192128999296629
 50
44.146488429366201
 51
72.4214558482218536
  0
ARC
  5
D0E8
  8
0
 10
3631.6484101498581367
 20
321.4802093570137913
 30
0.0
 40
0.0133208883079967
 50
336.1225987012945211
 51
22.89757419860684
  0
ARC
  5
D0E9
  8
0
 10
3631.2728195190688893
 20
321.7450760628057083
 30
0.0
 40
0.4726589417017025
 50
306.4428248387309281
 51
325.1252873123501104
  0
ARC
  5
D0EA
  8
0
 10
3631.1132521995391471
 20
321.9611417206422743
 30
0.0
 40
0.7412591981870342
 50
288.0170807335089194
 51
306.4441035012483781
  0
ARC
  5
D0EB
  8
0
 10
3630.9104199459147821
 20
322.571703562585185
 30
0.0
 40
1.3846237540941271
 50
274.9014484047517044
 51
288.1842214097106876
  0
ARC
  5
D0EC
  8
0
 10
3630.8789028593100738
 20
322.8459092683011136
 30
0.0
 40
1.660538755057094
 50
269.9848928437039035
 51
275.1765565956263799
  0
ARC
  5
D0ED
  8
0
 10
3630.8778698543537757
 20
322.9278719247296863
 30
0.0
 40
1.765073960670797
 50
270.0193197607537172
 51
273.5712624232340886
  0
ARC
  5
D0EE
  8
0
 10
3630.8842727496089537
 20
322.8252797267713277
 30
0.0
 40
1.6622821509310171
 50
273.5712624232340886
 51
280.7675975082672153
  0
ARC
  5
D0EF
  8
0
 10
3630.960846149399913
 20
322.422630905022686
 30
0.0
 40
1.2524168569488849
 50
280.7675975082672153
 51
292.0625622297591804
  0
ARC
  5
D0F0
  8
0
 10
3631.1799953977570112
 20
321.8819180994854037
 30
0.0
 40
0.6689815725106067
 50
292.0625622297591804
 51
310.3777385626269165
  0
ARC
  5
D0F1
  8
0
 10
3631.2790874283959965
 20
321.7653936599887743
 30
0.0
 40
0.5160202194311201
 50
310.3777385626269165
 51
324.6518834608486941
  0
ARC
  5
D0F2
  8
0
 10
3631.676066730824914
 20
321.4838158382268034
 30
0.0
 40
0.0293184254477363
 50
324.6518834608513089
 51
353.8859672484896919
  0
ARC
  5
D0F3
  8
0
 10
3631.6943188929080861
 20
321.4798907010140283
 30
0.0
 40
0.0109290000480442
 50
4.2109436499894413
 51
72.7118733732366564
  0
ARC
  5
D0F4
  8
0
 10
3630.7725891207960558
 20
321.7083528968657902
 30
0.0
 40
0.8661417323000854
 50
337.8156815370957133
 51
352.0629436104150045
  0
ARC
  5
D0F5
  8
0
 10
3631.685518389796016
 20
320.5257764611657194
 30
0.0
 40
0.0197
 50
270.0
 51
0.0000000000195413
  0
LINE
  5
D0F6
  8
0
 10
3631.0125595239010181
 20
321.190758262181987
 30
0.0
 11
3630.7443705274918102
 21
321.190758262181987
 31
0.0
  0
CIRCLE
  5
D0F7
  8
0
 10
3630.8784650256961868
 20
320.7816649844656922
 30
0.0
 40
0.1259842520000003
  0
ARC
  5
D0F8
  8
0
 10
3626.8823733439508032
 20
316.0877492865340059
 30
0.0
 40
0.5994652311554447
 50
250.8326465163285093
 51
269.6264475139074079
  0
ARC
  5
D0F9
  8
0
 10
3626.8831173462222068
 20
316.0878255752439827
 30
0.0
 40
0.5997819507234757
 50
226.1926404364166103
 51
250.7679064651227065
  0
ARC
  5
D0FA
  8
0
 10
3626.8577562510499774
 20
316.0613860687658985
 30
0.0
 40
0.5631454572895508
 50
198.3057113082113005
 51
226.1926404364166103
  0
ARC
  5
D0FB
  8
0
 10
3626.8915677221320948
 20
316.0722885538157811
 30
0.0
 40
0.5986702612226519
 50
182.4536768839128911
 51
198.2799675126753129
  0
LINE
  5
D0FC
  8
0
 10
3626.2934463451911142
 20
316.0466584910457186
 30
0.0
 11
3626.119489675197201
 21
322.171428763965821
 31
0.0
  0
ARC
  5
D0FD
  8
0
 10
3626.8787555361150226
 20
316.2450970688577172
 30
0.0
 40
0.5886009930725983
 50
259.1798900717016068
 51
269.9717036294638888
  0
ARC
  5
D0FE
  8
0
 10
3626.8823487082058818
 20
316.2638972844569025
 30
0.0
 40
0.6077414996552742
 50
237.6236287920187067
 51
259.1798900717016068
  0
ARC
  5
D0FF
  8
0
 10
3626.8766208011070376
 20
316.2548633142891958
 30
0.0
 40
0.5970446993523181
 50
215.8736034145792075
 51
237.6236287920170014
  0
ARC
  5
D100
  8
0
 10
3626.8307708004481356
 20
316.2217056303829281
 30
0.0
 40
0.5404615343432847
 50
191.0879547440862041
 51
215.8736034145792075
  0
ARC
  5
D101
  8
0
 10
3627.0078035693818492
 20
316.2563994303328059
 30
0.0
 40
0.7208618143633301
 50
184.3896099562165887
 51
191.0879547440862041
  0
LINE
  5
D102
  8
0
 10
3625.7601223006831788
 20
322.171428763965821
 30
0.0
 11
3627.9968077507091948
 21
322.171428763965821
 31
0.0
  0
LINE
  5
D103
  8
0
 10
3625.6817268232462084
 20
322.4076492364657156
 30
0.0
 11
3628.0752032281461652
 21
322.4076492364657156
 31
0.0
  0
LINE
  5
D104
  8
0
 10
3625.6817268232462084
 20
322.4076492364657156
 30
0.0
 11
3625.6973620347048382
 21
322.2289379521595833
 31
0.0
  0
ARC
  5
D105
  8
0
 10
3625.7601223006831788
 20
322.2344287639656955
 30
0.0
 40
0.063
 50
185.0000000118764092
 51
270.0
  0
ARC
  5
D106
  8
0
 10
3626.8745567074420251
 20
316.0877492865340059
 30
0.0
 40
0.5994652311554445
 50
270.3735524860924784
 51
289.1673534836716044
  0
ARC
  5
D107
  8
0
 10
3626.8738127051701667
 20
316.0878255752439827
 30
0.0
 40
0.5997819507234757
 50
289.2320935348773219
 51
313.8073595635834181
  0
ARC
  5
D108
  8
0
 10
3626.8991738003428509
 20
316.0613860687658985
 30
0.0
 40
0.5631454572895508
 50
313.8073595635834181
 51
341.6942886917886995
  0
ARC
  5
D109
  8
0
 10
3626.865362329259824
 20
316.0722885538157811
 30
0.0
 40
0.5986702612226519
 50
341.7200324873247155
 51
357.5463231160870237
  0
LINE
  5
D10A
  8
0
 10
3627.4634837062030783
 20
316.0466584910457186
 30
0.0
 11
3627.6374403761960821
 21
322.171428763965821
 31
0.0
  0
ARC
  5
D10B
  8
0
 10
3626.8781745152768963
 20
316.2450970688577172
 30
0.0
 40
0.5886009930725983
 50
270.0282963705359975
 51
280.8201099282983932
  0
ARC
  5
D10C
  8
0
 10
3626.8745813431869465
 20
316.2638972844569025
 30
0.0
 40
0.6077414996552742
 50
280.8201099282983932
 51
302.3763712079813217
  0
ARC
  5
D10D
  8
0
 10
3626.8803092502857908
 20
316.2548633142891958
 30
0.0
 40
0.5970446993523181
 50
302.376371207983027
 51
324.1263965854208209
  0
ARC
  5
D10E
  8
0
 10
3626.9261592509437833
 20
316.2217056303829281
 30
0.0
 40
0.5404615343432847
 50
324.1263965854208209
 51
348.9120452559138243
  0
ARC
  5
D10F
  8
0
 10
3626.7491264820109791
 20
316.2563994303328059
 30
0.0
 40
0.7208618143633301
 50
348.9120452559138243
 51
355.6103900437832976
  0
LINE
  5
D110
  8
0
 10
3628.0752032281461652
 20
322.4076492364657156
 30
0.0
 11
3628.0595680166879902
 21
322.2289379521595833
 31
0.0
  0
ARC
  5
D111
  8
0
 10
3627.9968077507091948
 20
322.2344287639656955
 30
0.0
 40
0.063
 50
270.0
 51
354.9999999881235908
  0
LINE
  5
D113
  8
0
 10
3630.0517116615969826
 20
321.6084515986656811
 30
0.0
 11
3630.0517116615969826
 21
322.171428763965821
 31
0.0
  0
LINE
  5
D114
  8
0
 10
3631.70521838979721
 20
321.6084515986656811
 30
0.0
 11
3631.70521838979721
 21
322.171428763965821
 31
0.0
  0
ARC
  5
D115
  8
0
 10
3630.0714116615959028
 20
321.6084515986656811
 30
0.0
 40
0.0197
 50
180.0
 51
270.0
  0
ARC
  5
D116
  8
0
 10
3631.685518389796016
 20
321.6084515986656811
 30
0.0
 40
0.0197
 50
270.0
 51
0.0000000000097707
  0
ENDSEC
  0
EOF
