  0
SECTION
  2
HEADER
  9
$ACADVER
  1
AC1009
  9
$INSBASE
 10
415.19518564635041
 20
52.7167703821214033
 30
0.0
  9
$EXTMIN
 10
407.1169049540619085
 20
28.6532701428981085
 30
-0.0015258207003583
  9
$EXTMAX
 10
423.2625984859150776
 20
52.7227248235857999
 30
0.0000000349246037
  9
$LIMMIN
 10
0.0
 20
0.0
  9
$LIMMAX
 10
22.0
 20
17.0
  9
$ORTHOMODE
 70
     0
  9
$REGENMODE
 70
     1
  9
$FILLMODE
 70
     1
  9
$QTEXTMODE
 70
     0
  9
$MIRRTEXT
 70
     0
  9
$DRAGMODE
 70
     2
  9
$LTSCALE
 40
1.2099999999999991
  9
$OSMODE
 70
     7
  9
$ATTMODE
 70
     1
  9
$TEXTSIZE
 40
0.2
  9
$TRACEWID
 40
0.05
  9
$TEXTSTYLE
  7
STANDARD
  9
$CLAYER
  8
0
  9
$CELTYPE
  6
BYLAYER
  9
$CECOLOR
 62
   256
  9
$DIMSCALE
 40
1.0
  9
$DIMASZ
 40
0.1875
  9
$DIMEXO
 40
0.0625
  9
$DIMDLI
 40
0.38
  9
$DIMRND
 40
0.0
  9
$DIMDLE
 40
0.0
  9
$DIMEXE
 40
0.125
  9
$DIMTP
 40
1.5
  9
$DIMTM
 40
1.5
  9
$DIMTXT
 40
1.5
  9
$DIMCEN
 40
0.09
  9
$DIMTSZ
 40
0.0
  9
$DIMTOL
 70
     0
  9
$DIMLIM
 70
     0
  9
$DIMTIH
 70
     1
  9
$DIMTOH
 70
     1
  9
$DIMSE1
 70
     0
  9
$DIMSE2
 70
     0
  9
$DIMTAD
 70
     0
  9
$DIMZIN
 70
     4
  9
$DIMBLK
  1

  9
$DIMASO
 70
     1
  9
$DIMSHO
 70
     1
  9
$DIMPOST
  1

  9
$DIMAPOST
  1

  9
$DIMALT
 70
     0
  9
$DIMALTD
 70
     2
  9
$DIMALTF
 40
25.3999999999999986
  9
$DIMLFAC
 40
1.0
  9
$DIMTOFL
 70
     0
  9
$DIMTVP
 40
0.0
  9
$DIMTIX
 70
     0
  9
$DIMSOXD
 70
     0
  9
$DIMSAH
 70
     0
  9
$DIMBLK1
  1

  9
$DIMBLK2
  1

  9
$DIMSTYLE
  2
STANDARD
  9
$DIMCLRD
 70
     0
  9
$DIMCLRE
 70
     0
  9
$DIMCLRT
 70
     0
  9
$DIMTFAC
 40
1.0
  9
$DIMGAP
 40
0.09
  9
$LUNITS
 70
     2
  9
$LUPREC
 70
     4
  9
$SKETCHINC
 40
0.1
  9
$FILLETRAD
 40
0.0
  9
$AUNITS
 70
     0
  9
$AUPREC
 70
     0
  9
$MENU
  1
.
  9
$ELEVATION
 40
0.0
  9
$PELEVATION
 40
0.0
  9
$THICKNESS
 40
0.0
  9
$LIMCHECK
 70
     0
  9
$BLIPMODE
 70
     0
  9
$CHAMFERA
 40
0.0
  9
$CHAMFERB
 40
0.0
  9
$SKPOLY
 70
     0
  9
$TDCREATE
 40
2457827.4934837957844138
  9
$TDUPDATE
 40
2459576.4994212961755693
  9
$TDINDWG
 40
0.5061246528
  9
$TDUSRTIMER
 40
0.5061246528
  9
$USRTIMER
 70
     1
  9
$ANGBASE
 50
0.0
  9
$ANGDIR
 70
     0
  9
$PDMODE
 70
     0
  9
$PDSIZE
 40
0.3125
  9
$PLINEWID
 40
0.0
  9
$COORDS
 70
     1
  9
$SPLFRAME
 70
     0
  9
$SPLINETYPE
 70
     6
  9
$SPLINESEGS
 70
     8
  9
$ATTDIA
 70
     1
  9
$ATTREQ
 70
     1
  9
$HANDLING
 70
     1
  9
$HANDSEED
  5
1487C
  9
$SURFTAB1
 70
     6
  9
$SURFTAB2
 70
     6
  9
$SURFTYPE
 70
     6
  9
$SURFU
 70
     6
  9
$SURFV
 70
     6
  9
$UCSNAME
  2

  9
$UCSORG
 10
0.0
 20
0.0
 30
0.0
  9
$UCSXDIR
 10
1.0
 20
0.0
 30
0.0
  9
$UCSYDIR
 10
0.0
 20
1.0
 30
0.0
  9
$PUCSNAME
  2

  9
$PUCSORG
 10
0.0
 20
0.0
 30
0.0
  9
$PUCSXDIR
 10
1.0
 20
0.0
 30
0.0
  9
$PUCSYDIR
 10
0.0
 20
1.0
 30
0.0
  9
$USERI1
 70
     0
  9
$USERI2
 70
     0
  9
$USERI3
 70
     0
  9
$USERI4
 70
     0
  9
$USERI5
 70
     0
  9
$USERR1
 40
0.0
  9
$USERR2
 40
0.0
  9
$USERR3
 40
0.0
  9
$USERR4
 40
0.0
  9
$USERR5
 40
0.0
  9
$WORLDVIEW
 70
     1
  9
$SHADEDGE
 70
     3
  9
$SHADEDIF
 70
    70
  9
$TILEMODE
 70
     1
  9
$MAXACTVP
 70
    48
  9
$PLIMCHECK
 70
     0
  9
$PEXTMIN
 10
1.0000000000000000E+20
 20
1.0000000000000000E+20
 30
1.0000000000000000E+20
  9
$PEXTMAX
 10
-1.0000000000000000E+20
 20
-1.0000000000000000E+20
 30
-1.0000000000000000E+20
  9
$PLIMMIN
 10
0.0
 20
0.0
  9
$PLIMMAX
 10
12.0
 20
9.0
  9
$UNITMODE
 70
     0
  9
$VISRETAIN
 70
     1
  9
$PLINEGEN
 70
     0
  9
$PSLTSCALE
 70
     1
  0
ENDSEC
  0
SECTION
  2
TABLES
  0
TABLE
  2
VPORT
 70
     1
  0
VPORT
  2
*ACTIVE
 70
     0
 10
0.0
 20
0.0
 11
1.0
 21
1.0
 12
204.2108241076838056
 22
33.4855482976813974
 13
0.0
 23
0.0
 14
1.0
 24
1.0
 15
0.0
 25
0.0
 16
-0.0000000000000284
 26
0.0
 36
157.2215818301446859
 17
210.9789276123046875
 27
7.2024491855605604
 37
0.0
 40
24.2417896784014495
 41
2.2831541218637992
 42
50.0
 43
0.0
 44
0.0
 50
0.0
 51
0.0
 71
     0
 72
   100
 73
     1
 74
     1
 75
     0
 76
     0
 77
     0
 78
     0
  0
ENDTAB
  0
TABLE
  2
LTYPE
 70
     2
  0
LTYPE
  2
CONTINUOUS
 70
     0
  3
Solid line
 72
    65
 73
     0
 40
0.0
  0
LTYPE
  2
PHANTOM2
 70
     0
  3
___ _ _ ___ _ _ ___ _ _ ___ _ _
 72
    65
 73
     6
 40
1.25
 49
0.625
 49
-0.125
 49
0.125
 49
-0.125
 49
0.125
 49
-0.125
  0
ENDTAB
  0
TABLE
  2
LAYER
 70
     2
  0
LAYER
  2
0
 70
     0
 62
     7
  6
CONTINUOUS
  0
LAYER
  2
DEFPOINTS
 70
     0
 62
     7
  6
CONTINUOUS
  0
ENDTAB
  0
TABLE
  2
STYLE
 70
     1
  0
STYLE
  2
STANDARD
 70
     0
 40
0.0
 41
0.8
 50
0.0
 71
     0
 42
0.2
  3
txt
  4

  0
ENDTAB
  0
TABLE
  2
VIEW
 70
     0
  0
ENDTAB
  0
TABLE
  2
UCS
 70
     0
  0
ENDTAB
  0
TABLE
  2
APPID
 70
    10
  0
APPID
  2
ACAD
 70
     0
  0
APPID
  2
ACAD_MLEADERVER
 70
     0
  0
APPID
  2
ACAD_EXEMPT_FROM_CAD_STANDARDS
 70
     0
  0
APPID
  2
ACAD_NAV_VCDISPLAY
 70
     0
  0
APPID
  2
ACADANNOMONITORALERTICONDI
 70
     0
  0
APPID
  2
ACAD_DSTYLE_DIMJAG
 70
     0
  0
APPID
  2
ACAD_DSTYLE_DIMTALN
 70
     0
  0
APPID
  2
ACDBATTR
 70
     0
  0
APPID
  2
DCO15
 70
     0
  0
APPID
  2
ACAD_PSEXT
 70
     0
  0
ENDTAB
  0
TABLE
  2
DIMSTYLE
 70
     1
  0
DIMSTYLE
  2
STANDARD
 70
     0
  3

  4

  5

  6

  7

 40
1.0
 41
0.1875
 42
0.0625
 43
0.38
 44
0.125
 45
0.0
 46
0.0
 47
1.5
 48
1.5
140
1.5
141
0.09
142
0.0
143
25.3999999999999986
144
1.0
145
0.0
146
1.0
147
0.09
 71
     0
 72
     0
 73
     1
 74
     1
 75
     0
 76
     0
 77
     0
 78
     4
170
     0
171
     2
172
     0
173
     0
174
     0
175
     0
176
     0
177
     0
178
     0
  0
ENDTAB
  0
ENDSEC
  0
SECTION
  2
BLOCKS
  0
BLOCK
  8
0
  2
$MODEL_SPACE
 70
     0
 10
0.0
 20
0.0
 30
0.0
  3
$MODEL_SPACE
  1

  0
ENDBLK
  5
21
  8
0
  0
BLOCK
 67
     1
  8
0
  2
$PAPER_SPACE
 70
     0
 10
0.0
 20
0.0
 30
0.0
  3
$PAPER_SPACE
  1

  0
ENDBLK
  5
1D
 67
     1
  8
0
  0
ENDSEC
  0
SECTION
  2
ENTITIES
  0
ATTDEF
  5
4EF9
  8
DEFPOINTS
 10
415.1952016934448011
 20
52.7201157800633524
 30
0.0
 40
0.001
  1
K-26062K
  3

  2
MODELNUMBER
 70
     0
1001
ACDBATTR
1070
     0
1070
     1
  0
ATTDEF
  5
4EFA
  8
DEFPOINTS
 10
415.1952016934448011
 20
52.7184491133966731
 30
0.0
 40
0.001
  1

  3

  2
TRADENAME
 70
     0
1001
ACDBATTR
1070
     0
1070
     1
  0
ATTDEF
  5
4EFB
  8
DEFPOINTS
 10
415.1952016934448011
 20
52.7167824467299866
 30
0.0
 40
0.001
  1
TOILET
  3

  2
PRODUCT
 70
     0
1001
ACDBATTR
1070
     0
1070
     1
  0
ARC
  5
146B7
  8
0
 10
407.645869062165275
 20
52.3995924538812616
 30
0.0
 40
0.3171795655299738
 50
90.184097546427509
 51
117.496636551561906
  0
ARC
  5
146B8
  8
0
 10
407.6446960771318118
 20
52.4028644927816103
 30
0.0
 40
0.3137359321153797
 50
117.5825077369728007
 51
170.0758160267241124
  0
ARC
  5
146B9
  8
0
 10
407.8506303950759957
 20
52.3748111579162625
 30
0.0
 40
0.5214828458049489
 50
170.9392320805681038
 51
176.9445553713422896
  0
ARC
  5
146BA
  8
0
 10
425.4759722791059744
 20
49.8986786770935211
 30
0.0
 40
18.1461301294755906
 50
180.1300273805912866
 51
183.7228356409482046
  0
ARC
  5
146BB
  8
0
 10
409.3127070978518987
 20
48.8350969630305016
 30
0.0
 40
1.9479500489401551
 50
183.3741062125857013
 51
264.1098408111989215
  0
LINE
  5
146BC
  8
0
 10
407.9715135846651037
 20
47.422401187800908
 30
0.0
 11
407.9749524406390719
 21
44.4787542612993292
 31
0.0
  0
ARC
  5
146BD
  8
0
 10
802.087774333653897
 20
40.8018731581146525
 30
0.0
 40
394.1132352839728128
 50
180.0829865375490897
 51
180.7129176740396872
  0
LINE
  5
146BE
  8
0
 10
408.015683264160316
 20
44.4327165701973783
 30
0.0
 11
408.015683264160316
 21
44.4247377056841373
 31
0.0
  0
LINE
  5
146BF
  8
0
 10
408.0210421288796852
 20
44.5054742071914475
 30
0.0
 11
408.0210421288796852
 21
44.4769360804753973
 31
0.0
  0
LINE
  5
146C0
  8
0
 10
408.2116306716234249
 20
44.6277251834993223
 30
0.0
 11
410.861022875296328
 21
44.6277251834993223
 31
0.0
  0
ARC
  5
146C1
  8
0
 10
408.21205043019188
 20
44.431353736969001
 30
0.0
 40
0.1963718951623989
 50
90.1224738024873488
 51
179.6023605157718919
  0
LINE
  5
146C2
  8
0
 10
408.218298548460325
 20
44.7026831022993392
 30
0.0
 11
408.3639620838591782
 21
44.7026831022993392
 31
0.0
  0
ARC
  5
146C3
  8
0
 10
408.2183666648829785
 20
44.5053585441546176
 30
0.0
 40
0.1973245699016133
 50
90.019778498026966
 51
179.9664157168099052
  0
ARC
  5
146C4
  8
0
 10
410.8289049619091884
 20
44.64038715091759
 30
0.0
 40
0.0791170432638141
 50
5.2327560170811411
 51
89.2847046138238483
  0
ARC
  5
146C5
  8
0
 10
410.7026505170314863
 20
44.627838990449348
 30
0.0
 40
0.205992065999601
 50
2.223443989106205
 51
5.5056785246362159
  0
LINE
  5
146C6
  8
0
 10
410.932703584361775
 20
44.7198184658493503
 30
0.0
 11
410.9279594965602769
 21
44.6443297361993388
 31
0.0
  0
ARC
  5
146C7
  8
0
 10
410.9139479750122064
 20
44.6555261632196974
 30
0.0
 40
0.0179355154404663
 50
287.9737267708140962
 51
321.3720971918430109
  0
ARC
  5
146C8
  8
0
 10
410.8091113665881267
 20
45.0747308395241291
 30
0.0
 40
0.4500098457306318
 50
276.6241811699297841
 51
284.1974293035045207
  0
LINE
  5
146C9
  8
0
 10
410.932703584361775
 20
44.7198184658493503
 30
0.0
 11
411.4543572114409926
 21
44.7198184658493503
 31
0.0
  0
ARC
  5
146CA
  8
0
 10
410.425127167283506
 20
2.2763969828772441
 30
0.0
 40
42.4450310577523098
 50
89.4536061108242393
 51
90.2485996156317611
  0
ARC
  5
146CB
  8
0
 10
403.5762110176021906
 20
630.5906552681343555
 30
0.0
 40
585.9075340775768836
 50
270.4681984211816257
 51
270.6517588827920804
  0
LINE
  5
146CC
  8
0
 10
411.4543572114409926
 20
44.7198184658493503
 30
0.0
 11
411.4591674138603139
 21
44.6423297185993277
 31
0.0
  0
ARC
  5
146CD
  8
0
 10
411.4651305991989716
 20
44.6439697752894489
 30
0.0
 40
0.0061846071282503
 50
195.3778655738956047
 51
239.218475063327304
  0
ARC
  5
146CE
  8
0
 10
411.5316159817746211
 20
44.8414440618157286
 30
0.0
 40
0.2144155109391829
 50
251.0441977213239113
 51
265.9737071394047234
  0
LINE
  5
146CF
  8
0
 10
411.5773279655603005
 20
44.6240829807993435
 30
0.0
 11
418.8130433271404058
 21
44.6240829807993435
 31
0.0
  0
ARC
  5
146D0
  8
0
 10
411.1874646110290996
 20
38.3391979278594306
 30
0.0
 40
6.2969654250181444
 50
86.4503822572593634
 51
87.0042036406091484
  0
ARC
  5
146D1
  8
0
 10
412.5265707764397121
 20
43.6465562622871488
 30
0.0
 40
1.0881016787769451
 50
90.7223287341522848
 51
99.8520504388451258
  0
LINE
  5
146D2
  8
0
 10
411.4987220927653766
 20
44.7186115584993473
 30
0.0
 11
418.8916491999353866
 21
44.7186115584993473
 31
0.0
  0
ARC
  5
146D3
  8
0
 10
411.4987220927653766
 20
44.6792414809942997
 30
0.0
 40
0.0393700775050405
 50
89.9999982609455742
 51
180.0000007203275061
  0
LINE
  5
146D4
  8
0
 10
411.4593520151602775
 20
44.6792414804993427
 30
0.0
 11
411.4593520151602775
 21
44.641765839755422
 31
0.0
  0
LINE
  5
146D5
  8
0
 10
408.015683264160316
 20
44.4247377056841373
 30
0.0
 11
408.0306499254975847
 21
35.7256181737818324
 31
0.0
  0
ARC
  5
146D7
  8
0
 10
415.1995094955602781
 20
-1128.7774402123300206
 30
0.0
 40
1173.5150871162300064
 50
89.8693517820069445
 51
90.1311735911649237
  0
ARC
  5
146D8
  8
0
 10
415.19518564635041
 20
35.8220305589057588
 30
0.0
 40
7.1651843970256772
 50
180.7709765946021889
 51
359.2290234053986069
  0
ARC
  5
146D9
  8
0
 10
415.1995094955602781
 20
35.9288058701017903
 30
0.0
 40
7.1945274242640851
 50
180.2441935813664884
 51
194.0280061053645113
  0
ARC
  5
146DA
  8
0
 10
415.19518564635041
 20
105.7823683501325007
 30
0.0
 40
59.1982362535487283
 50
264.1026820203026091
 51
275.897317979694094
  0
CIRCLE
  5
146DB
  8
0
 10
415.1995094955602781
 20
49.9645872307993315
 30
0.0
 40
0.9448818898000004
  0
CIRCLE
  5
146DC
  8
0
 10
415.1995094955602781
 20
49.9645872307993315
 30
0.0
 40
0.6822648631999968
  0
ARC
  5
146DD
  8
0
 10
415.1995094955602781
 20
49.9645872307993315
 30
0.0
 40
0.6692913385999973
 50
269.7014644439287849
 51
90.2985340690373732
  0
ARC
  5
146DE
  8
0
 10
418.9101394168603179
 20
49.9645872307993315
 30
0.0
 40
3.8162633976999998
 50
170.2012010616780913
 51
189.930806539199807
  0
ARC
  5
146DF
  8
0
 10
418.9101394168603179
 20
49.9645872307993315
 30
0.0
 40
3.8282233706999991
 50
170.3333571122001899
 51
189.6666428880647004
  0
ARC
  5
146E0
  8
0
 10
415.1921760158804204
 20
50.6269672897822574
 30
0.0
 40
0.0079014988922865
 50
60.8714501076892702
 51
90.5832397172938926
  0
ARC
  5
146E1
  8
0
 10
415.1995094955607897
 20
49.9645872307833869
 30
0.0
 40
0.6703221495159563
 50
90.6337169144248236
 51
92.7348443357747527
  0
ARC
  5
146E2
  8
0
 10
415.1684283303337111
 20
50.6152520306698506
 30
0.0
 40
0.0189154250778503
 50
92.7348443357616929
 51
183.5746275479037877
  0
ARC
  5
146E3
  8
0
 10
415.1921820218735206
 20
49.3021834948961697
 30
0.0
 40
0.0078778868116217
 50
269.3712912374027724
 51
299.1741056285276272
  0
LINE
  5
146E4
  8
0
 10
415.192095579257284
 20
49.2943060823583465
 30
0.0
 11
415.1675258013427197
 21
49.2950285497156671
 31
0.0
  0
ARC
  5
146E5
  8
0
 10
415.1684283305042982
 20
49.3139224311440998
 30
0.0
 40
0.0189154253010257
 50
203.3042331825334941
 51
267.2651551719330882
  0
ARC
  5
146E6
  8
0
 10
415.1995094955602781
 20
49.9645872307993315
 30
0.0
 40
0.6692913385999999
 50
97.4942612180879564
 51
262.5041814510116183
  0
ARC
  5
146E7
  8
0
 10
415.1148050968752727
 20
50.6063022897125592
 30
0.0
 40
0.0214946949805036
 50
2.94120285131347
 51
54.3486332196647624
  0
ARC
  5
146E8
  8
0
 10
415.1147641505087904
 20
50.6087227495330225
 30
0.0
 40
0.0196050009520894
 50
50.1245852055861292
 51
97.4683872515486058
  0
ARC
  5
146E9
  8
0
 10
415.1148050968603229
 20
49.3228721718993128
 30
0.0
 40
0.0214946949999717
 50
306.3048905884992905
 51
357.0587970695002014
  0
ARC
  5
146EA
  8
0
 10
415.1147561803319945
 20
49.3205573338565202
 30
0.0
 40
0.0197086826055526
 50
262.5416117965065155
 51
310.4074384380073752
  0
ARC
  5
146EB
  8
0
 10
415.0724950756601856
 20
50.361378623099327
 30
0.0
 40
0.0357824095000002
 50
320.8625746388465245
 51
27.3312379796186988
  0
ARC
  5
146EC
  8
0
 10
414.8156512278602008
 20
49.9645872307993315
 30
0.0
 40
0.2791457053000003
 50
343.1228359609133918
 51
355.5059677665109916
  0
ARC
  5
146ED
  8
0
 10
414.8156512278602008
 20
49.9645872307993315
 30
0.0
 40
0.2791457053000003
 50
4.4940322334889613
 51
16.8771640390865088
  0
ARC
  5
146EE
  8
0
 10
415.0724939879602857
 20
49.5678033094993324
 30
0.0
 40
0.0357789404999998
 50
332.6779444074023786
 51
39.1280189281017812
  0
ARC
  5
146EF
  8
0
 10
415.0315318594603013
 20
50.5914883034993395
 30
0.0
 40
0.0333271255000007
 50
109.020361809477393
 51
158.6860800395504043
  0
ARC
  5
146F0
  8
0
 10
415.0315318594603013
 20
50.5914883034993395
 30
0.0
 40
0.0333271255000007
 50
51.3139199495042035
 51
100.9796381795786004
  0
ARC
  5
146F1
  8
0
 10
414.7405860590603197
 20
50.4235106672993112
 30
0.0
 40
0.0333271254999983
 50
81.3139200298712552
 51
130.9796390631391034
  0
ARC
  5
146F2
  8
0
 10
414.7405860590603197
 20
50.4235106672993112
 30
0.0
 40
0.0333271254999983
 50
139.0203609368545017
 51
188.6860799701368876
  0
ARC
  5
146F3
  8
0
 10
414.5726084228602986
 20
50.1325648669993171
 30
0.0
 40
0.0333271254999996
 50
111.3139198950193958
 51
160.9796375147290064
  0
ARC
  5
146F4
  8
0
 10
414.5726084228602986
 20
50.1325648669993171
 30
0.0
 40
0.0333271254999996
 50
169.0203624791622019
 51
218.6860800988775111
  0
ARC
  5
146F5
  8
0
 10
414.8156512278602008
 20
49.9645872307993315
 30
0.0
 40
0.2969642898999998
 50
158.7033731452958136
 51
201.2966268547037885
  0
ARC
  5
146F6
  8
0
 10
414.5726084228602986
 20
49.7966095945993388
 30
0.0
 40
0.0333271255000002
 50
199.0203624852827886
 51
248.6860801049838869
  0
ARC
  5
146F7
  8
0
 10
414.5726084228602986
 20
49.7966095945993388
 30
0.0
 40
0.0333271255000002
 50
141.3139199011224889
 51
190.9796375208246957
  0
ARC
  5
146F8
  8
0
 10
414.7405860590603197
 20
49.5056637942993234
 30
0.0
 40
0.0333271255000004
 50
229.0203609371721996
 51
278.6860799701551059
  0
ARC
  5
146F9
  8
0
 10
414.7405860590603197
 20
49.5056637942993234
 30
0.0
 40
0.0333271255000004
 50
171.3139200298384139
 51
220.9796390628335132
  0
ARC
  5
146FA
  8
0
 10
415.0315318594603013
 20
49.3376861580993165
 30
0.0
 40
0.0333271254999981
 50
201.3139199604389091
 51
250.9796381904156135
  0
ARC
  5
146FB
  8
0
 10
415.0315318594603013
 20
49.3376861580993165
 30
0.0
 40
0.0333271254999981
 50
259.0203618205308089
 51
308.6860800505003226
  0
ARC
  5
146FC
  8
0
 10
415.2559548486602807
 20
49.3194138928993411
 30
0.0
 40
0.0343579363999978
 50
222.8970343023941041
 51
327.1029657019353181
  0
ARC
  5
146FD
  8
0
 10
415.6070811661602988
 20
49.4612781336993379
 30
0.0
 40
0.0343579364000014
 50
256.8970341731712779
 51
1.102965827737912
  0
ARC
  5
146FE
  8
0
 10
415.8188485993603081
 20
49.77523626459935
 30
0.0
 40
0.0343579363999998
 50
290.897034182130426
 51
35.1029658278159431
  0
ARC
  5
146FF
  8
0
 10
415.5833677633602861
 20
49.9645872307993315
 30
0.0
 40
0.2969642899000004
 50
338.7033730538797158
 51
21.2966269461203588
  0
ARC
  5
14700
  8
0
 10
415.8188485993603081
 20
50.1539381969993414
 30
0.0
 40
0.0343579364000006
 50
324.8970341721833961
 51
69.1029658178770347
  0
ARC
  5
14701
  8
0
 10
415.6070811661602988
 20
50.4678963278993393
 30
0.0
 40
0.0343579363999976
 50
358.8970341722621242
 51
103.1029658268220004
  0
ARC
  5
14702
  8
0
 10
415.2559548486602807
 20
50.6097605686993219
 30
0.0
 40
0.0343579363999972
 50
32.897034298066778
 51
137.1029656976058959
  0
LINE
  5
14703
  8
0
 10
415.1498669494920932
 20
50.6188946186416828
 30
0.0
 11
415.1332034666710911
 21
50.6174163304341889
 31
0.0
  0
LINE
  5
14704
  8
0
 10
415.1503925685631771
 20
49.3102402606486621
 30
0.0
 11
415.1332035169415917
 21
49.3117582143840067
 31
0.0
  0
LINE
  5
14705
  8
0
 10
422.745521361089402
 20
52.7167703821214033
 30
0.0
 11
407.6448499316123275
 21
52.7167703821214033
 31
0.0
  0
LINE
  5
14706
  8
0
 10
407.9749524406390719
 20
44.4787542612993292
 30
0.0
 11
407.9749524406390719
 21
40.2310443528858315
 31
0.0
  0
LINE
  5
14707
  8
0
 10
407.3298888777388811
 20
52.4026073912992985
 30
0.0
 11
407.3298888777388811
 21
49.8574977774985513
 31
0.0
  0
ARC
  5
14708
  8
0
 10
422.7445022305354883
 20
52.3995924538812616
 30
0.0
 40
0.3171795655299738
 50
62.5033634484381224
 51
89.8159024535692367
  0
ARC
  5
14709
  8
0
 10
422.7456752155688946
 20
52.4028644927816103
 30
0.0
 40
0.3137359321153797
 50
9.9241839732758912
 51
62.4174922630271709
  0
ARC
  5
1470A
  8
0
 10
422.5397408976247107
 20
52.3748111579162625
 30
0.0
 40
0.5214828458049489
 50
3.0554446286577068
 51
9.0607679194319122
  0
ARC
  5
1470B
  8
0
 10
404.9143990135946751
 20
49.8986786770935211
 30
0.0
 40
18.1461301294755906
 50
356.2771643590518238
 51
359.8699726194085997
  0
ARC
  5
1470C
  8
0
 10
421.0776641948488077
 20
48.8350969630305016
 30
0.0
 40
1.9479500489401551
 50
275.8901591888010785
 51
356.6258937874143271
  0
LINE
  5
1470D
  8
0
 10
422.4188577080354889
 20
47.422401187800908
 30
0.0
 11
422.4154188520615776
 21
44.4787542612993292
 31
0.0
  0
ARC
  5
1470E
  8
0
 10
28.302596959046749
 20
40.8018731581146525
 30
0.0
 40
394.1132352839728128
 50
359.2870823259602275
 51
359.917013462450825
  0
LINE
  5
1470F
  8
0
 10
422.3746880285403904
 20
44.4327165701973783
 30
0.0
 11
422.3746880285403904
 21
44.4247377056841373
 31
0.0
  0
LINE
  5
14710
  8
0
 10
422.3693291638210212
 20
44.5054742071914475
 30
0.0
 11
422.3693291638210212
 21
44.4769360804753973
 31
0.0
  0
LINE
  5
14711
  8
0
 10
422.1787406210773952
 20
44.6277251834993223
 30
0.0
 11
419.529348417404492
 21
44.6277251834993223
 31
0.0
  0
ARC
  5
14712
  8
0
 10
422.1783208625088832
 20
44.431353736969001
 30
0.0
 40
0.1963718951623989
 50
0.3976394842280529
 51
89.8775261975159054
  0
LINE
  5
14713
  8
0
 10
422.1720727442403813
 20
44.7026831022993392
 30
0.0
 11
422.026409208841585
 21
44.7026831022993392
 31
0.0
  0
ARC
  5
14714
  8
0
 10
422.1720046278177279
 20
44.5053585441546176
 30
0.0
 40
0.1973245699016133
 50
0.0335842831900999
 51
89.980221501973034
  0
ARC
  5
14715
  8
0
 10
419.561466330791518
 20
44.64038715091759
 30
0.0
 40
0.0791170432638141
 50
90.7152953861728832
 51
174.7672439829188136
  0
ARC
  5
14716
  8
0
 10
419.6877207756692201
 20
44.627838990449348
 30
0.0
 40
0.205992065999601
 50
174.4943214753637903
 51
177.7765560108938132
  0
LINE
  5
14717
  8
0
 10
419.4576677083389882
 20
44.7198184658493503
 30
0.0
 11
419.4624117961404863
 21
44.6443297361993388
 31
0.0
  0
ARC
  5
14718
  8
0
 10
419.4764233176885
 20
44.6555261632196974
 30
0.0
 40
0.0179355154404663
 50
218.6279028081569891
 51
252.0262732291859038
  0
ARC
  5
14719
  8
0
 10
419.5812599261125797
 20
45.0747308395241291
 30
0.0
 40
0.4500098457306318
 50
255.8025706964955077
 51
263.3758188300701022
  0
LINE
  5
1471A
  8
0
 10
419.4576677083389882
 20
44.7198184658493503
 30
0.0
 11
418.9360140812597137
 21
44.7198184658493503
 31
0.0
  0
ARC
  5
1471B
  8
0
 10
419.9652441254172004
 20
2.2763969828772441
 30
0.0
 40
42.4450310577523098
 50
89.7514003843682389
 51
90.5463938891725064
  0
ARC
  5
1471C
  8
0
 10
426.8141602750985157
 20
630.5906552681343555
 30
0.0
 40
585.9075340775768836
 50
269.3482411172079196
 51
269.5318015788150774
  0
LINE
  5
1471D
  8
0
 10
418.9360140812597137
 20
44.7198184658493503
 30
0.0
 11
418.9312038788405061
 21
44.6423297185993277
 31
0.0
  0
ARC
  5
1471E
  8
0
 10
418.9252406935016779
 20
44.6439697752894489
 30
0.0
 40
0.0061846071282503
 50
300.7815249366727244
 51
344.6221344261044237
  0
ARC
  5
1471F
  8
0
 10
418.8587553109261989
 20
44.8414440618157286
 30
0.0
 40
0.2144155109391829
 50
274.0262928605919797
 51
288.9558022786760034
  0
ARC
  5
14720
  8
0
 10
419.2029066816716067
 20
38.3391979278594306
 30
0.0
 40
6.2969654250181444
 50
92.9957963593908374
 51
93.5496177427406366
  0
ARC
  5
14721
  8
0
 10
417.8638005162609943
 20
43.6465562622871488
 30
0.0
 40
1.0881016787769451
 50
80.1479495611549027
 51
89.388932305804957
  0
ARC
  5
14722
  8
0
 10
418.8916491999353866
 20
44.6792414809942997
 30
0.0
 40
0.0393700775050405
 50
359.9999992796725223
 51
90.0000017390511573
  0
LINE
  5
14723
  8
0
 10
418.9310192775404857
 20
44.6792414804993427
 30
0.0
 11
418.9310192775404857
 21
44.641765839755422
 31
0.0
  0
LINE
  5
14724
  8
0
 10
422.3746880285403904
 20
44.4247377056841373
 30
0.0
 11
422.3597213672031216
 21
35.7256181737818324
 31
0.0
  0
ARC
  5
14725
  8
0
 10
415.1908617971404851
 20
35.9288058701017903
 30
0.0
 40
7.1945274242640851
 50
345.9719938946307138
 51
359.7558064186334832
  0
LINE
  5
14726
  8
0
 10
422.4154188520615776
 20
44.4787542612993292
 30
0.0
 11
422.4154188520615776
 21
40.2310443528858315
 31
0.0
  0
LINE
  5
14727
  8
0
 10
423.0604824149618253
 20
52.4026073912992985
 30
0.0
 11
423.0604824149618253
 21
49.8574977774985513
 31
0.0
  0
LINE
  5
14728
  8
0
 10
407.3298888777388811
 20
51.2636896794993433
 30
0.0
 11
407.1800604262602974
 21
51.2636896794993433
 31
0.0
  0
LINE
  5
14729
  8
0
 10
407.3299175523046074
 20
49.8463668448993289
 30
0.0
 11
407.1800604262490992
 21
49.8463668448993289
 31
0.0
  0
ARC
  5
1472A
  8
0
 10
413.5383281335604124
 20
50.5550282621493281
 30
0.0
 40
6.3976377861000717
 50
173.640339750867696
 51
186.3596602491319061
  0
LINE
  5
1472B
  8
0
 10
407.1800604262602974
 20
51.2636896794993433
 30
0.0
 11
407.1800604262602974
 21
49.8463668448993289
 31
0.0
  0
LINE
  5
1472C
  8
0
 10
423.0604824149618253
 20
51.2636896794993433
 30
0.0
 11
423.210310866440409
 21
51.2636896794993433
 31
0.0
  0
LINE
  5
1472D
  8
0
 10
423.060453740396099
 20
49.8463668448993289
 30
0.0
 11
423.2103108664516071
 21
49.8463668448993289
 31
0.0
  0
ARC
  5
1472E
  8
0
 10
416.8520431591404076
 20
50.5550282621493281
 30
0.0
 40
6.3976377861000717
 50
353.6403397508681223
 51
6.3596602491322791
  0
LINE
  5
1472F
  8
0
 10
423.210310866440409
 20
51.2636896794993433
 30
0.0
 11
423.210310866440409
 21
49.8463668448993289
 31
0.0
  0
ENDSEC
  0
EOF
