  0
SECTION
  2
HEADER
  9
$ACADVER
  1
AC1009
  9
$INSBASE
 10
4795.4813546048580974
 20
518.0169532499608067
 30
0.0
  9
$EXTMIN
 10
4786.325980372432241
 20
518.0157501761567573
 30
-0.0015258207003583
  9
$EXTMAX
 10
4803.5500931634478547
 20
523.4065059386850862
 30
0.0000000349246037
  9
$LIMMIN
 10
0.0
 20
0.0
  9
$LIMMAX
 10
11.6929133858000007
 20
8.2677165353999982
  9
$ORTHOMODE
 70
     0
  9
$REGENMODE
 70
     1
  9
$FILLMODE
 70
     1
  9
$QTEXTMODE
 70
     0
  9
$MIRRTEXT
 70
     0
  9
$DRAGMODE
 70
     2
  9
$LTSCALE
 40
0.6431102362
  9
$OSMODE
 70
     7
  9
$ATTMODE
 70
     1
  9
$TEXTSIZE
 40
0.2
  9
$TRACEWID
 40
0.05
  9
$TEXTSTYLE
  7
STANDARD
  9
$CLAYER
  8
0
  9
$CELTYPE
  6
BYLAYER
  9
$CECOLOR
 62
   256
  9
$DIMSCALE
 40
1.0
  9
$DIMASZ
 40
0.1875
  9
$DIMEXO
 40
0.0625
  9
$DIMDLI
 40
0.4443307087
  9
$DIMRND
 40
0.0
  9
$DIMDLE
 40
0.0
  9
$DIMEXE
 40
0.125
  9
$DIMTP
 40
0.01
  9
$DIMTM
 40
0.01
  9
$DIMTXT
 40
2.0
  9
$DIMCEN
 40
0.1052362205
  9
$DIMTSZ
 40
0.0
  9
$DIMTOL
 70
     1
  9
$DIMLIM
 70
     0
  9
$DIMTIH
 70
     1
  9
$DIMTOH
 70
     1
  9
$DIMSE1
 70
     0
  9
$DIMSE2
 70
     0
  9
$DIMTAD
 70
     0
  9
$DIMZIN
 70
     0
  9
$DIMBLK
  1

  9
$DIMASO
 70
     1
  9
$DIMSHO
 70
     1
  9
$DIMPOST
  1
\X
  9
$DIMAPOST
  1

  9
$DIMALT
 70
     1
  9
$DIMALTD
 70
     2
  9
$DIMALTF
 40
25.3999999999999986
  9
$DIMLFAC
 40
1.0
  9
$DIMTOFL
 70
     0
  9
$DIMTVP
 40
0.0
  9
$DIMTIX
 70
     0
  9
$DIMSOXD
 70
     0
  9
$DIMSAH
 70
     0
  9
$DIMBLK1
  1

  9
$DIMBLK2
  1

  9
$DIMSTYLE
  2
STANDARD
  9
$DIMCLRD
 70
     0
  9
$DIMCLRE
 70
     0
  9
$DIMCLRT
 70
     0
  9
$DIMTFAC
 40
1.0
  9
$DIMGAP
 40
0.09
  9
$LUNITS
 70
     2
  9
$LUPREC
 70
     4
  9
$SKETCHINC
 40
0.1
  9
$FILLETRAD
 40
0.0
  9
$AUNITS
 70
     0
  9
$AUPREC
 70
     0
  9
$MENU
  1
.
  9
$ELEVATION
 40
0.0
  9
$PELEVATION
 40
0.0
  9
$THICKNESS
 40
0.0
  9
$LIMCHECK
 70
     0
  9
$BLIPMODE
 70
     0
  9
$CHAMFERA
 40
0.0
  9
$CHAMFERB
 40
0.0
  9
$SKPOLY
 70
     0
  9
$TDCREATE
 40
2458060.468368056230247
  9
$TDUPDATE
 40
2459382.9956249999813735
  9
$TDINDWG
 40
1.5477515508999999
  9
$TDUSRTIMER
 40
1.5477515508999999
  9
$USRTIMER
 70
     1
  9
$ANGBASE
 50
0.0
  9
$ANGDIR
 70
     0
  9
$PDMODE
 70
     0
  9
$PDSIZE
 40
0.3125
  9
$PLINEWID
 40
0.0
  9
$COORDS
 70
     1
  9
$SPLFRAME
 70
     0
  9
$SPLINETYPE
 70
     6
  9
$SPLINESEGS
 70
     8
  9
$ATTDIA
 70
     1
  9
$ATTREQ
 70
     1
  9
$HANDLING
 70
     1
  9
$HANDSEED
  5
1D182
  9
$SURFTAB1
 70
     6
  9
$SURFTAB2
 70
     6
  9
$SURFTYPE
 70
     6
  9
$SURFU
 70
     6
  9
$SURFV
 70
     6
  9
$UCSNAME
  2

  9
$UCSORG
 10
0.0
 20
0.0
 30
0.0
  9
$UCSXDIR
 10
1.0
 20
0.0
 30
0.0
  9
$UCSYDIR
 10
0.0
 20
1.0
 30
0.0
  9
$PUCSNAME
  2

  9
$PUCSORG
 10
0.0
 20
0.0
 30
0.0
  9
$PUCSXDIR
 10
1.0
 20
0.0
 30
0.0
  9
$PUCSYDIR
 10
0.0
 20
1.0
 30
0.0
  9
$USERI1
 70
     0
  9
$USERI2
 70
     0
  9
$USERI3
 70
     0
  9
$USERI4
 70
     0
  9
$USERI5
 70
     0
  9
$USERR1
 40
0.0
  9
$USERR2
 40
0.0
  9
$USERR3
 40
0.0
  9
$USERR4
 40
0.0
  9
$USERR5
 40
0.0
  9
$WORLDVIEW
 70
     1
  9
$SHADEDGE
 70
     3
  9
$SHADEDIF
 70
    70
  9
$TILEMODE
 70
     1
  9
$MAXACTVP
 70
    64
  9
$PLIMCHECK
 70
     0
  9
$PEXTMIN
 10
1.0000000000000000E+20
 20
1.0000000000000000E+20
 30
1.0000000000000000E+20
  9
$PEXTMAX
 10
-1.0000000000000000E+20
 20
-1.0000000000000000E+20
 30
-1.0000000000000000E+20
  9
$PLIMMIN
 10
0.0
 20
0.0
  9
$PLIMMAX
 10
12.0
 20
9.0
  9
$UNITMODE
 70
     0
  9
$VISRETAIN
 70
     1
  9
$PLINEGEN
 70
     0
  9
$PSLTSCALE
 70
     1
  0
ENDSEC
  0
SECTION
  2
TABLES
  0
TABLE
  2
VPORT
 70
     1
  0
VPORT
  2
*ACTIVE
 70
     0
 10
0.0
 20
0.0
 11
1.0
 21
1.0
 12
883.5726803226269794
 22
388.1315229548819161
 13
0.0
 23
0.0
 14
1.0
 24
1.0
 15
0.0
 25
0.0
 16
0.0
 26
0.0
 36
60.4960186965801583
 17
3911.3653564453120453
 27
132.5796051025390057
 37
0.0
 40
7.365464550569822
 41
2.3461538461538458
 42
50.0
 43
0.0
 44
0.0
 50
0.0
 51
0.0
 71
     0
 72
   100
 73
     1
 74
     1
 75
     0
 76
     0
 77
     0
 78
     0
  0
ENDTAB
  0
TABLE
  2
LTYPE
 70
     2
  0
LTYPE
  2
CONTINUOUS
 70
     0
  3
Solid line
 72
    65
 73
     0
 40
0.0
  0
LTYPE
  2
PHANTOM2
 70
     0
  3
___ _ _ ___ _ _ ___ _ _ ___ _ _
 72
    65
 73
     6
 40
1.25
 49
0.625
 49
-0.125
 49
0.125
 49
-0.125
 49
0.125
 49
-0.125
  0
ENDTAB
  0
TABLE
  2
LAYER
 70
     2
  0
LAYER
  2
0
 70
     0
 62
   255
  6
CONTINUOUS
  0
LAYER
  2
DEFPOINTS
 70
     0
 62
     7
  6
CONTINUOUS
  0
ENDTAB
  0
TABLE
  2
STYLE
 70
     1
  0
STYLE
  2
STANDARD
 70
     0
 40
0.0
 41
0.8
 50
0.0
 71
     0
 42
0.2
  3
txt
  4

  0
ENDTAB
  0
TABLE
  2
VIEW
 70
     0
  0
ENDTAB
  0
TABLE
  2
UCS
 70
     0
  0
ENDTAB
  0
TABLE
  2
APPID
 70
    11
  0
APPID
  2
ACAD
 70
     0
  0
APPID
  2
ACAD_MLEADERVER
 70
     0
  0
APPID
  2
ACAD_EXEMPT_FROM_CAD_STANDARDS
 70
     0
  0
APPID
  2
ACAD_NAV_VCDISPLAY
 70
     0
  0
APPID
  2
ACAECLAYERSTANDARD
 70
     0
  0
APPID
  2
ACCMTRANSPARENCY
 70
     0
  0
APPID
  2
ACAD_DSTYLE_DIMJAG
 70
     0
  0
APPID
  2
ACAD_DSTYLE_DIMTALN
 70
     0
  0
APPID
  2
ACDBATTR
 70
     0
  0
APPID
  2
ACADANNOTATIVE
 70
     0
  0
APPID
  2
DCO15
 70
     0
  0
ENDTAB
  0
TABLE
  2
DIMSTYLE
 70
     1
  0
DIMSTYLE
  2
STANDARD
 70
     0
  3

  4

  5

  6

  7

 40
1.0
 41
0.1875
 42
0.0625
 43
0.38
 44
0.125
 45
0.0
 46
0.0
 47
0.01
 48
0.01
140
0.15625
141
0.09
142
0.0
143
25.3999999999999986
144
1.0
145
0.0
146
1.0
147
0.09
 71
     1
 72
     0
 73
     1
 74
     1
 75
     0
 76
     0
 77
     0
 78
     4
170
     0
171
     2
172
     0
173
     0
174
     0
175
     0
176
     0
177
     0
178
     0
  0
ENDTAB
  0
ENDSEC
  0
SECTION
  2
BLOCKS
  0
BLOCK
  8
0
  2
$MODEL_SPACE
 70
     0
 10
0.0
 20
0.0
 30
0.0
  3
$MODEL_SPACE
  1

  0
ENDBLK
  5
21
  8
0
  0
BLOCK
 67
     1
  8
0
  2
$PAPER_SPACE
 70
     0
 10
0.0
 20
0.0
 30
0.0
  3
$PAPER_SPACE
  1

  0
ENDBLK
  5
1D
 67
     1
  8
0
  0
ENDSEC
  0
SECTION
  2
ENTITIES
  0
ATTDEF
  5
159BF
  8
DEFPOINTS
 10
4795.48135542187174
 20
518.0202877519986941
 30
0.0
 40
0.001
  1
K-26134T
  3

  2
MODELNUMBER
 70
     0
1001
ACDBATTR
1070
     0
1070
     1
  0
ATTDEF
  5
159C0
  8
DEFPOINTS
 10
4795.48135542187174
 20
518.0186209116194505
 30
0.0
 40
0.001
  1
C3-430
  3

  2
TRADENAME
 70
     0
1001
ACDBATTR
1070
     0
1070
     1
  0
ATTDEF
  5
159C1
  8
DEFPOINTS
 10
4795.48135542187174
 20
518.0169544186654775
 30
0.0
 40
0.001
  1
TOILET SEAT
  3

  2
PRODUCT
 70
     0
1001
ACDBATTR
1070
     0
1070
     1
  0
LINE
  5
1CFBC
  8
0
 10
4794.7648374716582111
 20
518.6421386614425728
 30
0.0
 11
4792.6790395495017947
 21
518.6421386614425728
 31
0.0
  0
LINE
  5
1CFBD
  8
0
 10
4791.4306819568337232
 20
518.6421386614425728
 30
0.0
 11
4790.962266617961177
 21
518.6421386614425728
 31
0.0
  0
LINE
  5
1CFBE
  8
0
 10
4789.1758112043808069
 20
518.6421386614425728
 30
0.0
 11
4786.720713070992133
 21
518.6421386614425728
 31
0.0
  0
LINE
  5
1CFBF
  8
0
 10
4800.9380707344880648
 20
520.0039278399425484
 30
0.0
 11
4790.0246384752281301
 21
520.0039278399425484
 31
0.0
  0
LINE
  5
1CFC0
  8
0
 10
4789.584750141360928
 20
519.057061905959813
 30
0.0
 11
4801.3776200632928521
 21
519.0570560503072102
 31
0.0
  0
LINE
  5
1CFC1
  8
0
 10
4791.5487329819980005
 20
518.5277680022926461
 30
0.0
 11
4792.5609885332951308
 21
518.5277680022926461
 31
0.0
  0
LINE
  5
1CFC2
  8
0
 10
4801.079395041958378
 20
519.4427036642425719
 30
0.0
 11
4789.8833141677578169
 21
519.4427036642425719
 31
0.0
  0
LINE
  5
1CFC3
  8
0
 10
4801.1498239460061086
 20
518.9188802624927348
 30
0.0
 11
4789.8128852637091768
 21
518.9188802624927348
 31
0.0
  0
LINE
  5
1CFC4
  8
0
 10
4792.6797489872042206
 20
518.6820987108926602
 30
0.0
 11
4791.429972519003968
 21
518.6820987108926602
 31
0.0
  0
LINE
  5
1CFC5
  8
0
 10
4789.2494907491936829
 20
518.6261103775925676
 30
0.0
 11
4790.8886748127479223
 21
518.6261103775925676
 31
0.0
  0
LINE
  5
1CFC6
  8
0
 10
4790.6141770847580119
 20
522.8008547169426947
 30
0.0
 11
4790.6138615411582578
 21
523.2850476226660703
 31
0.0
  0
LINE
  5
1CFC7
  8
0
 10
4790.6814534078803263
 20
522.7877178706582981
 30
0.0
 11
4790.6855008774582529
 21
523.251511940642672
 31
0.0
  0
ARC
  5
1CFC8
  8
0
 10
4790.7445492071001354
 20
523.2509983799927795
 30
0.0
 40
0.0590505628934222
 50
96.086063491320715
 51
179.501694356973104
  0
LINE
  5
1CFC9
  8
0
 10
4790.6141368498456359
 20
522.8625940734425512
 30
0.0
 11
4790.638853219656994
 21
522.8625940734425512
 31
0.0
  0
LINE
  5
1CFCA
  8
0
 10
4790.6585382590583322
 20
522.8429089919427497
 30
0.0
 11
4790.6585382590583322
 21
522.7895066535738806
 31
0.0
  0
ARC
  5
1CFCB
  8
0
 10
4790.638853219656994
 20
522.8429090340425773
 30
0.0
 40
0.0196850394000787
 50
359.999877462888378
 51
89.9999999998957776
  0
ARC
  5
1CFCC
  8
0
 10
4790.5943771717757045
 20
523.2852417012467185
 30
0.0
 40
0.0194853359398173
 50
359.429310972046494
 51
93.4411108549703329
  0
ARC
  5
1CFCD
  8
0
 10
4791.2571176106594066
 20
510.4064201167690271
 30
0.0
 40
12.9153471352032891
 50
92.9465730414741955
 51
98.1789238744716641
  0
ARC
  5
1CFCE
  8
0
 10
4789.9318530053569702
 20
519.473736042167161
 30
0.0
 40
3.751783163668541
 50
97.8456247671343249
 51
109.5098031360964939
  0
ARC
  5
1CFCF
  8
0
 10
4788.9725942289942395
 20
522.1666278512750523
 30
0.0
 40
0.8931567100039594
 50
109.1991717407705949
 51
165.3440574527818114
  0
LINE
  5
1CFD0
  8
0
 10
4788.1084985220586532
 20
522.3926090847426167
 30
0.0
 11
4787.7860926215580548
 21
521.1952798820426551
 31
0.0
  0
LINE
  5
1CFD1
  8
0
 10
4787.7487326301416033
 20
520.9486043794205443
 30
0.0
 11
4786.7921671429576236
 21
520.0796097965427407
 31
0.0
  0
ARC
  5
1CFD2
  8
0
 10
4787.2978912759754166
 20
519.4988965039940467
 30
0.0
 40
0.7700550804054782
 50
131.051536426833195
 51
149.7462745332595944
  0
ARC
  5
1CFD3
  8
0
 10
4789.330002948211586
 20
518.5877663968889237
 30
0.0
 40
2.9938333809245692
 50
154.2829221097034065
 51
175.2878037115609118
  0
ARC
  5
1CFD4
  8
0
 10
4786.2447041759978674
 20
518.8362753912356311
 30
0.0
 40
0.1016171234076326
 50
350.5493372456004977
 51
358.5543772938842721
  0
ARC
  5
1CFD5
  8
0
 10
4786.3822976330757228
 20
518.8200559486197108
 30
0.0
 40
0.0373584519145634
 50
180.7145766711105068
 51
226.783034014721494
  0
ARC
  5
1CFD6
  8
0
 10
4786.837577095375309
 20
519.3503387439000107
 30
0.0
 40
0.7362357051541033
 50
229.221630042813814
 51
240.4357468541064122
  0
ARC
  5
1CFD7
  8
0
 10
4786.7307424637729127
 20
519.1600677397067329
 30
0.0
 40
0.5180261758164263
 50
240.3301749052041032
 51
268.8906394886938074
  0
ARC
  5
1CFD8
  8
0
 10
4789.8123363245249493
 20
518.5869708987855802
 30
0.0
 40
3.4161200433300651
 50
168.3894569240644046
 51
175.024236914344101
  0
ARC
  5
1CFD9
  8
0
 10
4789.1618845530529143
 20
518.7288409052027873
 30
0.0
 40
2.750436971785045
 50
160.2931916334339917
 51
168.5573250761345889
  0
ARC
  5
1CFDA
  8
0
 10
4788.7745114846647994
 20
518.8855417888147485
 30
0.0
 40
2.3329727003947371
 50
152.983990633288812
 51
160.7081961238706924
  0
ARC
  5
1CFDB
  8
0
 10
4787.3918063427609013
 20
519.5294856982711735
 30
0.0
 40
0.8104720660529366
 50
133.0486367331197926
 51
149.1351343474761961
  0
ARC
  5
1CFDC
  8
0
 10
4789.0336621108863255
 20
517.9430520858833233
 30
0.0
 40
3.0878621624743952
 50
127.4752287097336989
 51
131.4871146191889864
  0
ARC
  5
1CFDD
  8
0
 10
4789.8984710849999828
 20
516.790092197824265
 30
0.0
 40
4.5290611315622753
 50
124.4424045081912027
 51
127.2835026848179041
  0
ARC
  5
1CFDE
  8
0
 10
4792.2347556861941484
 20
513.3965520445027551
 30
0.0
 40
8.6490504200909122
 50
123.6457817573872973
 51
124.4915091189369036
  0
ARC
  5
1CFDF
  8
0
 10
4787.6022923181653823
 20
520.3681160130366834
 30
0.0
 40
0.2787922225605952
 50
112.0719202323528947
 51
124.9233020334348936
  0
ARC
  5
1CFE0
  8
0
 10
4787.5004056819079779
 20
520.6161399850701628
 30
0.0
 40
0.0107288033785043
 50
330.1255702135641172
 51
105.5443870824504984
  0
ARC
  5
1CFE1
  8
0
 10
4791.3241638323761435
 20
519.0113858056881782
 30
0.0
 40
4.1362035474050298
 50
157.2515786483334068
 51
160.2209203550177108
  0
ARC
  5
1CFE2
  8
0
 10
4789.9041445997299888
 20
519.5134066044435031
 30
0.0
 40
2.6300907553787809
 50
160.043968996793609
 51
167.2496879932903937
  0
ARC
  5
1CFE3
  8
0
 10
4789.7539371387611027
 20
519.4980532875416657
 30
0.0
 40
2.4874413647059832
 50
166.1410853048217007
 51
176.9204394821562119
  0
ARC
  5
1CFE4
  8
0
 10
4787.2597761205706774
 20
519.6331895300280621
 30
0.0
 40
0.0104209379889587
 50
332.6714808108106922
 51
351.6993906554066029
  0
ARC
  5
1CFE5
  8
0
 10
4787.122884043452359
 20
519.7189808888622338
 30
0.0
 40
0.1719410527887524
 50
315.8523426782443835
 51
328.2116865479944749
  0
ARC
  5
1CFE6
  8
0
 10
4786.4638005540891754
 20
520.3366491615755649
 30
0.0
 40
1.0751934837646899
 50
311.1572222906747243
 51
316.6971083960297051
  0
LINE
  5
1CFE7
  8
0
 10
4786.4921440811185676
 20
518.9279565602646471
 30
0.0
 11
4787.1714149693580111
 21
519.5271290155426414
 31
0.0
  0
ARC
  5
1CFE8
  8
0
 10
4786.4130398804900324
 20
518.8827014330928478
 30
0.0
 40
0.003989985632607
 50
171.8687071576003973
 51
217.3031616875341001
  0
ARC
  5
1CFE9
  8
0
 10
4786.412595536592562
 20
518.8837541453032145
 30
0.0
 40
0.0044154456690707
 50
231.8181320199236097
 51
277.7947300125915717
  0
ARC
  5
1CFEA
  8
0
 10
4786.3825027085222246
 20
518.9921208381108499
 30
0.0
 40
0.1168442922978197
 50
285.2286412358208167
 51
302.5208575499988228
  0
ARC
  5
1CFEB
  8
0
 10
4786.2565573294968999
 20
519.1999380646080908
 30
0.0
 40
0.3598264251626624
 50
301.6407018625081946
 51
310.8986739237159895
  0
ARC
  5
1CFEC
  8
0
 10
4791.3817502954861993
 20
518.3790566878792561
 30
0.0
 40
5.006864087071027
 50
173.0600430250783006
 51
174.3091607170219959
  0
ARC
  5
1CFED
  8
0
 10
4789.5120812375089372
 20
518.6066345817419005
 30
0.0
 40
3.123395456025666
 50
163.3401110305767929
 51
173.0600430250783006
  0
ARC
  5
1CFEE
  8
0
 10
4789.7315096948059363
 20
518.5165739000160556
 30
0.0
 40
3.359513850573812
 50
156.8311704440100129
 51
162.9414979808825876
  0
ARC
  5
1CFEF
  8
0
 10
4787.6085094608979489
 20
519.4248652606606811
 30
0.0
 40
1.050374832454231
 50
150.3007891262874978
 51
156.8180874109073955
  0
ARC
  5
1CFF0
  8
0
 10
4790.6536589216921129
 20
520.6348085860824995
 30
0.0
 40
2.921825552502562
 50
168.9408493552456036
 51
175.6386153738068003
  0
ARC
  5
1CFF1
  8
0
 10
4801.6085448409166929
 20
519.5382459767029104
 30
0.0
 40
13.9308110959149207
 50
174.5679672113708989
 51
176.6283303981186066
  0
ARC
  5
1CFF2
  8
0
 10
4789.7346718343187604
 20
520.2595846873799701
 30
0.0
 40
2.0351837425282091
 50
177.2407924069088097
 51
190.0383818347887086
  0
ARC
  5
1CFF3
  8
0
 10
4788.5791851809890431
 20
520.0377903177984535
 30
0.0
 40
0.8588937252584949
 50
188.9050206018098095
 51
212.6518303055688079
  0
ARC
  5
1CFF4
  8
0
 10
4789.1727722710011221
 20
522.1188125868417274
 30
0.0
 40
1.0844012185284311
 50
146.9879539443633973
 51
172.9915039532531864
  0
ARC
  5
1CFF5
  8
0
 10
4794.0526607467636495
 20
521.5159991526679732
 30
0.0
 40
6.0013813965690419
 50
172.9639869179931964
 51
180.5027004088591127
  0
ARC
  5
1CFF6
  8
0
 10
4791.8807944573827626
 20
521.4782273150184437
 30
0.0
 40
3.8293130373888369
 50
180.2226753028552082
 51
187.7458338982663975
  0
ARC
  5
1CFF7
  8
0
 10
4789.4724504994846939
 20
521.1237492572225847
 30
0.0
 40
1.3954218780362999
 50
186.6515317181714124
 51
202.9266783479478136
  0
ARC
  5
1CFF8
  8
0
 10
4788.8135277048686476
 20
520.8420167793527753
 30
0.0
 40
0.6788073240538887
 50
202.6910542709761103
 51
244.221383654026198
  0
ARC
  5
1CFF9
  8
0
 10
4789.5333648830455786
 20
522.7076370287368263
 30
0.0
 40
2.6767933676236182
 50
247.7156985399631139
 51
264.9875851522813264
  0
ARC
  5
1CFFA
  8
0
 10
4786.4026952915901347
 20
518.8748117689838182
 30
0.0
 40
0.0032161112447212
 50
166.9017899671104033
 51
257.8438170011745001
  0
ARC
  5
1CFFB
  8
0
 10
4786.4029916156187028
 20
518.8879111417393233
 30
0.0
 40
0.0162725194895573
 50
266.5700188882976249
 51
289.3954486399567827
  0
ARC
  5
1CFFC
  8
0
 10
4786.3307317126873386
 20
519.0656745343466127
 30
0.0
 40
0.2081443587261191
 50
291.9084494740282025
 51
310.192457355669319
  0
LINE
  5
1CFFD
  8
0
 10
4786.409866086159127
 20
518.8802833729425856
 30
0.0
 11
4786.4145079121390154
 21
518.8751341909155599
 31
0.0
  0
ARC
  5
1CFFE
  8
0
 10
4788.0448024003326282
 20
519.8914237448333324
 30
0.0
 40
0.8162306095334608
 50
199.7308848309801022
 51
236.7688396173701904
  0
ARC
  5
1CFFF
  8
0
 10
4788.1693858164444464
 20
520.0387763206203999
 30
0.0
 40
1.008033051303121
 50
235.4353887029508883
 51
271.4130378087874078
  0
ARC
  5
1D000
  8
0
 10
4788.1867473436450382
 20
524.4276910537242884
 30
0.0
 40
5.3966464522123099
 50
270.0795868943803839
 51
273.3230324681982211
  0
ARC
  5
1D001
  8
0
 10
4788.396366938828578
 20
520.8174800112457206
 30
0.0
 40
1.780354961483319
 50
273.3230324681982211
 51
282.1336724462283883
  0
ARC
  5
1D002
  8
0
 10
4788.2103496709069077
 20
520.4274499822055304
 30
0.0
 40
0.7030279513420746
 50
140.2786787165831015
 51
157.8272160647186979
  0
ARC
  5
1D003
  8
0
 10
4791.4906733067446112
 20
518.9548562543599246
 30
0.0
 40
4.2983680865764713
 50
156.1514641870070079
 51
158.1081010500423929
  0
ARC
  5
1D004
  8
0
 10
4790.6472191688562816
 20
519.2937841236940812
 30
0.0
 40
3.389364795418623
 50
158.1081010500423929
 51
166.1120204826285942
  0
ARC
  5
1D005
  8
0
 10
4788.3537198276417257
 20
519.9266491932537519
 30
0.0
 40
0.6097420071327644
 50
215.2903313637525002
 51
248.9233499636231102
  0
ARC
  5
1D006
  8
0
 10
4788.6743594727386153
 20
520.9557957281690506
 30
0.0
 40
1.686837198495013
 50
251.3325911134724038
 51
264.9106304374793126
  0
LINE
  5
1D007
  8
0
 10
4789.2543875463197764
 20
519.235376318942599
 30
0.0
 11
4801.7083216633964184
 21
519.235376318942599
 31
0.0
  0
ARC
  5
1D008
  8
0
 10
4789.05344789854189
 20
523.6563903897944101
 30
0.0
 40
4.4125728703050831
 50
263.1181231957673958
 51
267.4553783558565101
  0
ARC
  5
1D009
  8
0
 10
4789.580704976798188
 20
535.5205277041013687
 30
0.0
 40
16.2884203869796202
 50
267.4553783558565101
 51
268.8520763846296973
  0
LINE
  5
1D00A
  8
0
 10
4795.0089319598582733
 20
518.1240246450427094
 30
0.0
 11
4795.0089319598582733
 21
518.0169532499608067
 31
0.0
  0
LINE
  5
1D00B
  8
0
 10
4794.9105067629579935
 20
518.1397876893425973
 30
0.0
 11
4794.9105067629579935
 21
518.056323791242562
 31
0.0
  0
ARC
  5
1D00C
  8
0
 10
4794.9498791108189835
 20
518.0563255978642019
 30
0.0
 40
0.0393723479034479
 50
180.0026290479711122
 51
270.0000001624275114
  0
LINE
  5
1D00D
  8
0
 10
4794.9419873527358504
 20
518.1240250235425719
 30
0.0
 11
4796.0207218569812539
 21
518.1240250235425719
 31
0.0
  0
ARC
  5
1D00E
  8
0
 10
4794.9419873526167066
 20
518.1633999324875504
 30
0.0
 40
0.0393749089449701
 50
180.5780656127070074
 51
270.0000001734227908
  0
LINE
  5
1D00F
  8
0
 10
4794.9026144476583795
 20
518.79568578929252
 30
0.0
 11
4794.9026144476583795
 21
518.1630026799341522
 31
0.0
  0
LINE
  5
1D010
  8
0
 10
4794.7648374716582111
 20
518.7934307654736585
 30
0.0
 11
4794.7648374716582111
 21
518.5240287949426374
 31
0.0
  0
LINE
  5
1D011
  8
0
 10
4794.7648374716582111
 20
518.5240287949426374
 30
0.0
 11
4794.9026149292585615
 21
518.5240288006426681
 31
0.0
  0
ARC
  5
1D012
  8
0
 10
4789.1825814793719474
 20
520.0309966495575509
 30
0.0
 40
1.0390366300791729
 50
226.0956675183273887
 51
248.3905092272634079
  0
ARC
  5
1D013
  8
0
 10
4789.4905202906984414
 20
520.8083850587343022
 30
0.0
 40
1.8751939419784189
 50
248.3905092272634079
 51
265.9120730327692854
  0
ARC
  5
1D014
  8
0
 10
4789.8198580391326686
 20
524.5446595976901563
 30
0.0
 40
5.6257836563392347
 50
265.2790829211850223
 51
269.9289857680226987
  0
LINE
  5
1D015
  8
0
 10
4789.0657899868638196
 20
518.9819249608847258
 30
0.0
 11
4789.0722381320583736
 21
518.7972750492425575
 31
0.0
  0
ARC
  5
1D016
  8
0
 10
4789.2494907491300182
 20
518.8034712619817128
 30
0.0
 40
0.177360884389016
 50
182.002071065606799
 51
270.0000000203230002
  0
ARC
  5
1D017
  8
0
 10
4790.8885581982558506
 20
518.803603597484539
 30
0.0
 40
0.1774932582001751
 50
270.0376437890720922
 51
320.861686229122995
  0
ARC
  5
1D018
  8
0
 10
4790.888567959035754
 20
518.8035956542701115
 30
0.0
 40
0.1774806737859639
 50
320.861686229122995
 51
351.4638850174865752
  0
ARC
  5
1D019
  8
0
 10
4791.141717313054869
 20
518.7655990839614333
 30
0.0
 40
0.0785043546747701
 50
72.3976027891260259
 51
171.4638850174866036
  0
ARC
  5
1D01A
  8
0
 10
4791.5081299553512508
 20
519.3578398751155873
 30
0.0
 40
0.6294074939874342
 50
234.7165745830058086
 51
244.9785691421641047
  0
ARC
  5
1D01B
  8
0
 10
4791.5709951686512795
 20
519.5447256514744367
 30
0.0
 40
0.8256385494571807
 50
246.5109675464219947
 51
260.6649238247138101
  0
ARC
  5
1D01C
  8
0
 10
4791.3052564593690477
 20
518.775144242402348
 30
0.0
 40
0.1441871081247581
 50
57.7139499873585606
 51
85.4666593251429134
  0
ARC
  5
1D01D
  8
0
 10
4791.3165803795945976
 20
518.7989473004032561
 30
0.0
 40
0.1180573589423166
 50
2.471277644558775
 51
56.189292384071031
  0
LINE
  5
1D01E
  8
0
 10
4791.4345279407580165
 20
518.8040377636426683
 30
0.0
 11
4791.4387903654496768
 21
518.6820987108926602
 31
0.0
  0
LINE
  5
1D01F
  8
0
 10
4791.429972519003968
 20
518.6820987108926602
 30
0.0
 11
4791.4306407298581689
 21
518.6438169332426469
 31
0.0
  0
ARC
  5
1D020
  8
0
 10
4791.5487329819889055
 20
518.6458782432215457
 30
0.0
 40
0.1181102409288028
 50
181.0000009944749877
 51
270.0000000040124064
  0
ARC
  5
1D021
  8
0
 10
4792.7396567126379523
 20
518.7451341107636154
 30
0.0
 40
0.0634227731352259
 50
70.4550806207163305
 51
178.1454073652309091
  0
ARC
  5
1D022
  8
0
 10
4792.2836268308883518
 20
516.5815077782972367
 30
0.0
 40
2.3374946132549179
 50
84.3710653078126143
 51
89.4143020308809753
  0
ARC
  5
1D023
  8
0
 10
4792.4116423246678096
 20
517.9674537061051751
 30
0.0
 40
0.9457138513424416
 50
73.8411608991895463
 51
83.8534848942689024
  0
ARC
  5
1D024
  8
0
 10
4792.6097283865910867
 20
518.6143267781992563
 30
0.0
 40
0.2694630980912545
 50
56.1429178123404284
 51
76.0179288441744632
  0
ARC
  5
1D025
  8
0
 10
4792.7494014442672778
 20
518.8211622012906901
 30
0.0
 40
0.019900047201753
 50
305.2072555563623837
 51
58.3196857573535681
  0
LINE
  5
1D026
  8
0
 10
4792.6762671617580054
 20
518.7471866680425592
 30
0.0
 11
4792.6735575183683977
 21
518.6820987108926602
 31
0.0
  0
LINE
  5
1D027
  8
0
 10
4792.6797489872042206
 20
518.6820987108926602
 30
0.0
 11
4792.6790807762590703
 21
518.6438169280427246
 31
0.0
  0
ARC
  5
1D028
  8
0
 10
4792.5609885333024067
 20
518.6458782339768732
 30
0.0
 40
0.1181102316842919
 50
269.9999999960396053
 51
359.0000008895568726
  0
LINE
  5
1D029
  8
0
 10
4794.9498791109317608
 20
518.0169532499608067
 30
0.0
 11
4795.0089319598582733
 21
518.0169532499608067
 31
0.0
  0
ARC
  5
1D02A
  8
0
 10
4795.4813546048580974
 20
479.225878086577211
 30
0.0
 40
39.5740397457654183
 50
87.5986264820764831
 51
92.4013735179235027
  0
ARC
  5
1D02B
  8
0
 10
4782.2724618410202311
 20
766.0514158004948513
 30
0.0
 40
247.5558721438366945
 50
272.4083040036420016
 51
272.6743455585648235
  0
ARC
  5
1D02C
  8
0
 10
4789.2514595612192352
 20
520.406902531928381
 30
0.0
 40
1.3139112126337451
 50
240.1358158691054996
 51
259.0190792463696994
  0
ARC
  5
1D02D
  8
0
 10
4789.6445106294813741
 20
522.5069982617045525
 30
0.0
 40
3.450453908492336
 50
259.2544780322158999
 51
269.0076102889123035
  0
ARC
  5
1D02E
  8
0
 10
4790.5431070874228681
 20
568.2909101835429055
 30
0.0
 40
48.8526622288800993
 50
267.8130067656315987
 51
269.2261527360628861
  0
ARC
  5
1D02F
  8
0
 10
4788.8339458626469423
 20
522.2611573655311759
 30
0.0
 40
2.791637489673124
 50
259.8766701929822034
 51
266.8150042145230145
  0
ARC
  5
1D030
  8
0
 10
4788.4423725582319094
 20
520.1926657777247556
 30
0.0
 40
0.6868722455177135
 50
214.5430299687845093
 51
261.7040629009596842
  0
ARC
  5
1D031
  8
0
 10
4788.8258385846820602
 20
520.3280018617622318
 30
0.0
 40
1.0846602225297091
 50
187.3788230809794015
 51
208.9369724452336925
  0
ARC
  5
1D032
  8
0
 10
4790.4204376584775673
 20
520.5510406826329017
 30
0.0
 40
2.6947485046935902
 50
176.1093154983500142
 51
187.7274990866320081
  0
ARC
  5
1D033
  8
0
 10
4792.0445376349616708
 20
520.501679209538338
 30
0.0
 40
4.3188849178434312
 50
175.2807978425088891
 51
176.9179583717553896
  0
ARC
  5
1D034
  8
0
 10
4790.0669064414933018
 20
527.9243088305158835
 30
0.0
 40
7.9204937735476806
 50
264.4398847073118191
 51
269.6942378038710899
  0
ARC
  5
1D035
  8
0
 10
4790.6906718226719022
 20
518.0533920943344128
 30
0.0
 40
0.9191554711613905
 50
58.8991599664172227
 51
70.3241212948582444
  0
ARC
  5
1D036
  8
0
 10
4790.2104477291522926
 20
519.3879332003383524
 30
0.0
 40
2.9427941689327102
 50
165.8503643260220031
 51
175.5578083317020912
  0
LINE
  5
1D037
  8
0
 10
4796.1978717380579837
 20
518.6421386614425728
 30
0.0
 11
4798.2836696602144002
 21
518.6421386614425728
 31
0.0
  0
LINE
  5
1D038
  8
0
 10
4799.5320272528833812
 20
518.6421386614425728
 30
0.0
 11
4800.0004425917550179
 21
518.6421386614425728
 31
0.0
  0
LINE
  5
1D039
  8
0
 10
4799.4139762277191039
 20
518.5277680022926461
 30
0.0
 11
4798.4017206764219736
 21
518.5277680022926461
 31
0.0
  0
LINE
  5
1D03A
  8
0
 10
4798.2829602225119743
 20
518.6820987108926602
 30
0.0
 11
4799.5327366907131363
 21
518.6820987108926602
 31
0.0
  0
LINE
  5
1D03B
  8
0
 10
4801.7132184605234215
 20
518.6261103775925676
 30
0.0
 11
4800.0740343969673631
 21
518.6261103775925676
 31
0.0
  0
LINE
  5
1D03C
  8
0
 10
4800.348532124958183
 20
522.8008547169426947
 30
0.0
 11
4800.3488476685579371
 21
523.2850476226660703
 31
0.0
  0
LINE
  5
1D03D
  8
0
 10
4800.2812555500586313
 20
522.7877467215427032
 30
0.0
 11
4800.2772083322579419
 21
523.251511940642672
 31
0.0
  0
ARC
  5
1D03E
  8
0
 10
4800.2181600026160595
 20
523.2509983799927795
 30
0.0
 40
0.0590505628934222
 50
0.498305643026866
 51
83.9139365086792992
  0
LINE
  5
1D03F
  8
0
 10
4800.3485643136582439
 20
522.8625940734425512
 30
0.0
 11
4800.3238559900582914
 21
522.8625940734425512
 31
0.0
  0
LINE
  5
1D040
  8
0
 10
4800.3041709506578627
 20
522.8429089919427497
 30
0.0
 11
4800.3041709506578627
 21
522.7894604713426361
 31
0.0
  0
ARC
  5
1D041
  8
0
 10
4800.3238559900582914
 20
522.8429090340425773
 30
0.0
 40
0.0196850394000787
 50
90.0000000001042082
 51
180.0001225371082114
  0
ARC
  5
1D042
  8
0
 10
4800.3683320379395809
 20
523.2852417012467185
 30
0.0
 40
0.0194853359398173
 50
86.5588891450296529
 51
180.570689027950209
  0
ARC
  5
1D043
  8
0
 10
4799.7055915990567883
 20
510.4064201167674923
 30
0.0
 40
12.9153471352048097
 50
81.8210761255283501
 51
87.0534269585258187
  0
ARC
  5
1D044
  8
0
 10
4801.0308562043601341
 20
519.473736042167161
 30
0.0
 40
3.751783163668541
 50
70.4901968639035061
 51
82.1543752328656751
  0
ARC
  5
1D045
  8
0
 10
4801.9901149807210459
 20
522.1666278512750523
 30
0.0
 40
0.8931567100039594
 50
14.6559425472182294
 51
70.8008282592293625
  0
LINE
  5
1D046
  8
0
 10
4802.8542106876593607
 20
522.3926090847426167
 30
0.0
 11
4803.1766165881581401
 21
521.1952798820426551
 31
0.0
  0
ARC
  5
1D047
  8
0
 10
4800.309050288024082
 20
520.6348085860824995
 30
0.0
 40
2.921825552502562
 50
4.3613846261932414
 51
11.0591506447544106
  0
ARC
  5
1D048
  8
0
 10
4789.3541643687985925
 20
519.5382459767029104
 30
0.0
 40
13.9308110959149207
 50
3.371669601881373
 51
5.4320327886290762
  0
ARC
  5
1D049
  8
0
 10
4801.228037375398344
 20
520.2595846873799701
 30
0.0
 40
2.0351837425282091
 50
349.9616181652111777
 51
2.759207593091185
  0
ARC
  5
1D04A
  8
0
 10
4802.3835240287262422
 20
520.0377903177984535
 30
0.0
 40
0.8588937252584949
 50
327.3481696944311921
 51
351.0949793981902189
  0
ARC
  5
1D04B
  8
0
 10
4801.7899369387159823
 20
522.1188125868417274
 30
0.0
 40
1.0844012185284311
 50
7.008496046750003
 51
33.0120460556365387
  0
ARC
  5
1D04C
  8
0
 10
4796.9100484629525454
 20
521.5159991526679732
 30
0.0
 40
6.0013813965690419
 50
359.4972995911409157
 51
7.036013082006769
  0
ARC
  5
1D04D
  8
0
 10
4799.0819147523334323
 20
521.4782273150184437
 30
0.0
 40
3.8293130373888369
 50
352.2541661017335173
 51
359.7773246971448202
  0
ARC
  5
1D04E
  8
0
 10
4801.4902587102305915
 20
521.1237492572225847
 30
0.0
 40
1.3954218780362999
 50
337.0733216520521864
 51
353.348468281828616
  0
ARC
  5
1D04F
  8
0
 10
4802.1491815048475473
 20
520.8420167793527753
 30
0.0
 40
0.6788073240538887
 50
295.7786163459737168
 51
337.3089457290238897
  0
ARC
  5
1D050
  8
0
 10
4801.4293443266697068
 20
522.7076370287368263
 30
0.0
 40
2.6767933676236182
 50
275.0124148477186736
 51
292.2843014600368861
  0
ARC
  5
1D051
  8
0
 10
4802.7503432142666497
 20
523.8437738568485429
 30
0.0
 40
4.81223317072123
 50
266.578486060087414
 51
269.8467869535367072
  0
ARC
  5
1D052
  8
0
 10
4802.5663422708867074
 20
520.8174800112457206
 30
0.0
 40
1.780354961483319
 50
257.8544004774673226
 51
266.6769675318017789
  0
ARC
  5
1D053
  8
0
 10
4802.6089893820735597
 20
519.9266491932537519
 30
0.0
 40
0.6097420071327644
 50
291.0766500363768046
 51
324.7096686362474998
  0
ARC
  5
1D054
  8
0
 10
4802.2883497369766701
 20
520.9557957281690506
 30
0.0
 40
1.686837198495013
 50
275.0893695625206874
 51
288.6674088865275962
  0
ARC
  5
1D055
  8
0
 10
4801.9092613111752144
 20
523.6563903897944101
 30
0.0
 40
4.4125728703050831
 50
272.5446216441433762
 51
276.8818768042326042
  0
ARC
  5
1D056
  8
0
 10
4801.3820042329180069
 20
535.5205277041013687
 30
0.0
 40
16.2884203869796202
 50
271.1479236153703027
 51
272.5446216441433762
  0
LINE
  5
1D057
  8
0
 10
4795.9537772498579216
 20
518.1240246450427094
 30
0.0
 11
4795.9537772498579216
 21
518.0169532499608067
 31
0.0
  0
LINE
  5
1D058
  8
0
 10
4796.0522024467582014
 20
518.1397876893425973
 30
0.0
 11
4796.0522024467582014
 21
518.056323791242562
 31
0.0
  0
ARC
  5
1D059
  8
0
 10
4796.0128300987844341
 20
518.0563255979103587
 30
0.0
 40
0.0393723480150807
 50
270.0033021670764128
 51
359.9973708847448961
  0
ARC
  5
1D05A
  8
0
 10
4796.0207218569812539
 20
518.1633999325380273
 30
0.0
 40
0.0393749090646414
 50
270.0033981418857252
 51
359.4219343156800051
  0
LINE
  5
1D05B
  8
0
 10
4796.0600947620569059
 20
518.79568578929252
 30
0.0
 11
4796.0600947620569059
 21
518.1630026799341522
 31
0.0
  0
LINE
  5
1D05C
  8
0
 10
4796.1978717380579837
 20
518.7934307654736585
 30
0.0
 11
4796.1978717380579837
 21
518.5240287949426374
 31
0.0
  0
LINE
  5
1D05D
  8
0
 10
4796.1978717380579837
 20
518.5240287949426374
 30
0.0
 11
4796.0600942804576334
 21
518.5240288006426681
 31
0.0
  0
ARC
  5
1D05E
  8
0
 10
4801.780127730343338
 20
520.0309966495575509
 30
0.0
 40
1.0390366300791729
 50
291.6094907727365921
 51
313.9043324816724976
  0
ARC
  5
1D05F
  8
0
 10
4801.4721889190177535
 20
520.8083850587343022
 30
0.0
 40
1.8751939419784189
 50
274.0879269672307146
 51
291.6094907727365921
  0
ARC
  5
1D060
  8
0
 10
4801.1428511705826168
 20
524.5446595976901563
 30
0.0
 40
5.6257836563392347
 50
270.0710142319771876
 51
274.7209170788149777
  0
LINE
  5
1D061
  8
0
 10
4801.8969192228532847
 20
518.9819249608847258
 30
0.0
 11
4801.8904710776578213
 21
518.7972750492425575
 31
0.0
  0
ARC
  5
1D062
  8
0
 10
4801.7132184605861767
 20
518.8034712619817128
 30
0.0
 40
0.17736088438902
 50
269.9999999796769998
 51
357.997928934389904
  0
ARC
  5
1D063
  8
0
 10
4800.0741510114612538
 20
518.803603597484539
 30
0.0
 40
0.1774932582001721
 50
219.1383137708768913
 51
269.9623562109279078
  0
ARC
  5
1D064
  8
0
 10
4800.0741412506804409
 20
518.8035956542701115
 30
0.0
 40
0.1774806737859639
 50
188.5361149825133111
 51
219.1383137708768913
  0
ARC
  5
1D065
  8
0
 10
4799.8209918966613259
 20
518.7655990839614333
 30
0.0
 40
0.0785043546747701
 50
8.5361149825133786
 51
107.6023972108739031
  0
ARC
  5
1D066
  8
0
 10
4799.4545792543649441
 20
519.3578398751155873
 30
0.0
 40
0.6294074939874342
 50
295.0214308578359237
 51
305.2834254169941914
  0
ARC
  5
1D067
  8
0
 10
4799.3917140410658249
 20
519.5447256514744367
 30
0.0
 40
0.8256385494571807
 50
279.3318811666975989
 51
293.4890324535778063
  0
ARC
  5
1D068
  8
0
 10
4799.6574527503462377
 20
518.7751442424024617
 30
0.0
 40
0.1441871081247455
 50
94.533340674857115
 51
122.2860500126413967
  0
ARC
  5
1D069
  8
0
 10
4799.6461288301206878
 20
518.7989473004032561
 30
0.0
 40
0.1180573589423166
 50
123.8107076159290045
 51
177.5287223554412037
  0
LINE
  5
1D06A
  8
0
 10
4799.5281812689581784
 20
518.8040377636426683
 30
0.0
 11
4799.5239188442656086
 21
518.6820987108926602
 31
0.0
  0
LINE
  5
1D06B
  8
0
 10
4799.5327366907131363
 20
518.6820987108926602
 30
0.0
 11
4799.532068479858026
 21
518.6438169332426469
 31
0.0
  0
ARC
  5
1D06C
  8
0
 10
4799.4139762277272894
 20
518.6458782432215457
 30
0.0
 40
0.1181102409288028
 50
269.9999999959874799
 51
358.9999990055250123
  0
ARC
  5
1D06D
  8
0
 10
4798.2230524970773331
 20
518.7451341107636154
 30
0.0
 40
0.0634227731352259
 50
1.8545926347690589
 51
109.5449193792836979
  0
ARC
  5
1D06E
  8
0
 10
4798.6790823788278431
 20
516.5815077782972367
 30
0.0
 40
2.3374946132549179
 50
90.5856979691190247
 51
95.6289346921873715
  0
ARC
  5
1D06F
  8
0
 10
4798.5510668850492948
 20
517.9674537061051751
 30
0.0
 40
0.9457138513424416
 50
96.1465151057311118
 51
106.1588391008103969
  0
ARC
  5
1D070
  8
0
 10
4798.3529808231251081
 20
518.6143267781992563
 30
0.0
 40
0.2694630980912545
 50
103.9820711558254942
 51
123.8570821876596
  0
ARC
  5
1D071
  8
0
 10
4798.2133077654498265
 20
518.8211622012906901
 30
0.0
 40
0.019900047201753
 50
121.6803142426464035
 51
234.7927444436375879
  0
LINE
  5
1D072
  8
0
 10
4798.286442047959099
 20
518.7471866680425592
 30
0.0
 11
4798.2891516913468877
 21
518.6820987108926602
 31
0.0
  0
LINE
  5
1D073
  8
0
 10
4798.2829602225119743
 20
518.6820987108926602
 30
0.0
 11
4798.2836284334580341
 21
518.6438169280427246
 31
0.0
  0
ARC
  5
1D074
  8
0
 10
4798.4017206764219736
 20
518.6458782339805111
 30
0.0
 40
0.1181102316924743
 50
180.9999991120679965
 51
269.9994892026103912
  0
LINE
  5
1D075
  8
0
 10
4796.0128300987844341
 20
518.0169532499608067
 30
0.0
 11
4795.9537772498579216
 21
518.0169532499608067
 31
0.0
  0
ARC
  5
1D076
  8
0
 10
4808.6902473686968733
 20
766.0514158004948513
 30
0.0
 40
247.5558721438366945
 50
267.3256544414351765
 51
267.5916959963579984
  0
ARC
  5
1D077
  8
0
 10
4801.7112496484969597
 20
520.406902531928381
 30
0.0
 40
1.3139112126337451
 50
280.9809207536303006
 51
299.8641841308946141
  0
ARC
  5
1D078
  8
0
 10
4801.3181985802348208
 20
522.5069982617046662
 30
0.0
 40
3.4504539084925159
 50
270.986759594777709
 51
280.7455219677839864
  0
ARC
  5
1D079
  8
0
 10
4800.4196021222933268
 20
568.2909101835429055
 30
0.0
 40
48.8526622288800993
 50
270.7738472639371139
 51
272.1869932343682876
  0
ARC
  5
1D07A
  8
0
 10
4802.1287633470701621
 20
522.2611573655311759
 30
0.0
 40
2.791637489673124
 50
273.1849957854769855
 51
280.1233298070179103
  0
ARC
  5
1D07B
  8
0
 10
4802.5203366514842855
 20
520.1926657777247556
 30
0.0
 40
0.6868722455177135
 50
278.2959370990403158
 51
325.4569700312154055
  0
ARC
  5
1D07C
  8
0
 10
4802.1368706250341347
 20
520.3280018617622318
 30
0.0
 40
1.0846602225297091
 50
331.0630275547662222
 51
352.6211769190206269
  0
ARC
  5
1D07D
  8
0
 10
4800.5422715512386276
 20
520.5510406826329017
 30
0.0
 40
2.6947485046935902
 50
352.2725009133678782
 51
3.8906845016499489
  0
ARC
  5
1D07E
  8
0
 10
4798.9181715747527051
 20
520.501679209538338
 30
0.0
 40
4.3188849178434312
 50
3.0820416282446188
 51
4.7192021574910967
  0
ARC
  5
1D07F
  8
0
 10
4800.8958027682238026
 20
527.9243088305158835
 30
0.0
 40
7.9204937735476806
 50
270.3057621961287964
 51
275.5601152926881809
  0
ARC
  5
1D080
  8
0
 10
4800.2720373870452022
 20
518.0533920943344128
 30
0.0
 40
0.9191554711613905
 50
109.6758787051416988
 51
121.1008400335826991
  0
ARC
  5
1D081
  8
0
 10
4795.4813546048580974
 20
269.8730924680245948
 30
0.0
 40
253.5057558473116046
 50
89.2947639837587559
 51
90.7052360162412441
  0
ARC
  5
1D082
  8
0
 10
4792.1104654132541327
 20
497.7575248782994208
 30
0.0
 40
25.5890083166206388
 50
91.791754277439054
 51
93.0738850944657088
  0
ARC
  5
1D083
  8
0
 10
4793.4995485920780993
 20
455.1185191453110974
 30
0.0
 40
68.2506212606214007
 50
90.9557536414979353
 51
91.838105816634112
  0
ARC
  5
1D084
  8
0
 10
4798.8522437964611527
 20
497.7575248783005009
 30
0.0
 40
25.5890083166194309
 50
86.9261149055343054
 51
88.2082457225609318
  0
ARC
  5
1D085
  8
0
 10
4797.4631606176380956
 20
455.1185191453110974
 30
0.0
 40
68.2506212606214007
 50
88.161894183365888
 51
89.0442463585020647
  0
ARC
  5
1D086
  8
0
 10
4795.4818157385034283
 20
372.8726132842351717
 30
0.0
 40
150.0484670153570903
 50
88.1919222471396438
 51
91.8084158093143685
  0
ARC
  5
1D087
  8
0
 10
4790.7503389753019292
 20
522.7646430965234003
 30
0.0
 40
0.0817866455818033
 50
92.584661632243737
 51
147.1386660038027969
  0
ARC
  5
1D088
  8
0
 10
4790.6590655044101368
 20
522.8930736580504117
 30
0.0
 40
0.102563654955566
 50
244.0450700197604874
 51
261.094121382670096
  0
ARC
  5
1D089
  8
0
 10
4790.6923463242828802
 20
523.0749325409817629
 30
0.0
 40
0.287421158714606
 50
260.1520386678698173
 51
272.232205041325301
  0
ARC
  5
1D08A
  8
0
 10
4784.5664491255383837
 20
651.017356960769348
 30
0.0
 40
128.3764046178299054
 50
272.7400950218199114
 51
272.7947959444827006
  0
ARC
  5
1D08B
  8
0
 10
4794.0146989986760673
 20
451.2578257102637735
 30
0.0
 40
71.6068557466755635
 50
91.798715885901828
 51
92.5522931236499034
  0
ARC
  5
1D08C
  8
0
 10
4800.3036437053069676
 20
522.8930736580504117
 30
0.0
 40
0.102563654955566
 50
278.905878617329904
 51
295.9549299802395126
  0
ARC
  5
1D08D
  8
0
 10
4800.2703628854333147
 20
523.0749325409817629
 30
0.0
 40
0.287421158714606
 50
267.767794958674699
 51
279.8479613321302963
  0
ARC
  5
1D08E
  8
0
 10
4806.3962600841769017
 20
651.017356960769348
 30
0.0
 40
128.3764046178299054
 50
267.2052040555172994
 51
267.2599049781800886
  0
ARC
  5
1D08F
  8
0
 10
4796.9480102110410371
 20
451.2578257102637735
 30
0.0
 40
71.6068557466755635
 50
87.4477068763501109
 51
88.2012841140981863
  0
ARC
  5
1D090
  8
0
 10
4800.2122756911257966
 20
522.764543469259138
 30
0.0
 40
0.0819201255660009
 50
32.8839848282029124
 51
87.3271783362074956
  0
ARC
  5
1D091
  8
0
 10
4795.4813546048580974
 20
384.2119029081193275
 30
0.0
 40
138.6672486676247047
 50
88.4651179893074442
 51
91.5348820106925558
  0
ARC
  5
1D092
  8
0
 10
4787.1731102539406493
 20
520.2566322884745205
 30
0.0
 40
0.0057769187574229
 50
341.8335916550486786
 51
94.4678438165796166
  0
ARC
  5
1D093
  8
0
 10
4786.2878728413816134
 20
520.9398329796141525
 30
0.0
 40
1.1300950101473051
 50
303.8799921386726055
 51
320.5385804015452891
  0
ARC
  5
1D094
  8
0
 10
4787.7658764161078579
 20
519.3040893422954696
 30
0.0
 40
1.1342994617609381
 50
123.9483405523448027
 51
140.5163488688527877
  0
ARC
  5
1D095
  8
0
 10
4786.8773104626443455
 20
519.9898690926769405
 30
0.0
 40
0.0052809061355446
 50
173.2976299377756106
 51
270.9472628657567839
  0
ARC
  5
1D096
  8
0
 10
4786.9740920364965859
 20
519.9590303706230543
 30
0.0
 40
0.1067651877361732
 50
141.6031364354140862
 51
162.8653001327712104
  0
ARC
  5
1D097
  8
0
 10
4786.8523641191613933
 20
520.100605132121359
 30
0.0
 40
0.118686341804706
 50
282.176432416932812
 51
303.4876796784175212
  0
ARC
  5
1D098
  8
0
 10
4787.201367072557332
 20
520.1405438751021393
 30
0.0
 40
0.1251837185430539
 50
103.2569032391448047
 51
123.4128913744752936
  0
ARC
  5
1D099
  8
0
 10
4787.0702011413022774
 20
520.2926716181485745
 30
0.0
 40
0.1148130796059483
 50
321.7499721541091731
 51
340.7565295152064095
  0
ARC
  5
1D09A
  8
0
 10
4787.1084541827340217
 20
520.0087948368790194
 30
0.0
 40
0.0057769187574229
 50
341.8335916550486786
 51
94.4678438165796166
  0
ARC
  5
1D09B
  8
0
 10
4786.2232167701758954
 20
520.6919955280186514
 30
0.0
 40
1.1300950101473051
 50
303.8799921386726055
 51
320.5385804015452891
  0
ARC
  5
1D09C
  8
0
 10
4787.7012203449012304
 20
519.0562518906999685
 30
0.0
 40
1.1342994617609381
 50
123.9483405523448027
 51
140.5163488688527877
  0
ARC
  5
1D09D
  8
0
 10
4786.812654391437718
 20
519.7420316410814394
 30
0.0
 40
0.0052809061355446
 50
173.2976299377756106
 51
270.9472628657567839
  0
ARC
  5
1D09E
  8
0
 10
4786.9094359652899584
 20
519.7111929190276669
 30
0.0
 40
0.1067651877361732
 50
141.6031364354140862
 51
162.8653001327712104
  0
ARC
  5
1D09F
  8
0
 10
4786.7877080479529468
 20
519.8527676805259716
 30
0.0
 40
0.118686341804706
 50
282.176432416932812
 51
303.4876796784175212
  0
ARC
  5
1D0A0
  8
0
 10
4787.1367110013507045
 20
519.8927064235066382
 30
0.0
 40
0.1251837185430539
 50
103.2569032391448047
 51
123.4128913744752936
  0
ARC
  5
1D0A1
  8
0
 10
4787.0055450700956499
 20
520.0448341665530734
 30
0.0
 40
0.1148130796059483
 50
321.7499721541091731
 51
340.7565295152064095
  0
ARC
  5
1D0A2
  8
0
 10
4787.0439658045597753
 20
519.7608043904192527
 30
0.0
 40
0.0057769187574229
 50
341.8335916550486786
 51
94.4678438165796166
  0
ARC
  5
1D0A3
  8
0
 10
4786.1587283920016489
 20
520.4440050815588847
 30
0.0
 40
1.1300950101473051
 50
303.8799921386726055
 51
320.5385804015452891
  0
ARC
  5
1D0A4
  8
0
 10
4787.636731966726984
 20
518.8082614442404292
 30
0.0
 40
1.1342994617609381
 50
123.9483405523448027
 51
140.5163488688527877
  0
ARC
  5
1D0A5
  8
0
 10
4786.748166013262562
 20
519.4940411946219001
 30
0.0
 40
0.0052809061355446
 50
173.2976299377756106
 51
270.9472628657567839
  0
ARC
  5
1D0A6
  8
0
 10
4786.8449475871157119
 20
519.4632024725681276
 30
0.0
 40
0.1067651877361732
 50
141.6031364354140862
 51
162.8653001327712104
  0
ARC
  5
1D0A7
  8
0
 10
4786.7232196697796098
 20
519.6047772340664324
 30
0.0
 40
0.118686341804706
 50
282.176432416932812
 51
303.4876796784175212
  0
ARC
  5
1D0A8
  8
0
 10
4787.0722226231755485
 20
519.6447159770469852
 30
0.0
 40
0.1251837185430539
 50
103.2569032391448047
 51
123.4128913744752936
  0
ARC
  5
1D0A9
  8
0
 10
4786.9410566919214034
 20
519.7968437200935341
 30
0.0
 40
0.1148130796059483
 50
321.7499721541091731
 51
340.7565295152064095
  0
ARC
  5
1D0AA
  8
0
 10
4786.9792900971679046
 20
519.513047453626541
 30
0.0
 40
0.0057769187574229
 50
341.8335916550486786
 51
94.4678438165796166
  0
ARC
  5
1D0AB
  8
0
 10
4786.0940526846088687
 20
520.196248144766173
 30
0.0
 40
1.1300950101473051
 50
303.8799921386726055
 51
320.5385804015452891
  0
ARC
  5
1D0AC
  8
0
 10
4787.5720562593342038
 20
518.5605045074476038
 30
0.0
 40
1.1342994617609381
 50
123.9483405523448027
 51
140.5163488688527877
  0
ARC
  5
1D0AD
  8
0
 10
4786.6834903058706914
 20
519.2462842578288473
 30
0.0
 40
0.0052809061355446
 50
173.2976299377756106
 51
270.9472628657567839
  0
ARC
  5
1D0AE
  8
0
 10
4786.7802718797229318
 20
519.2154455357750749
 30
0.0
 40
0.1067651877361732
 50
141.6031364354140862
 51
162.8653001327712104
  0
ARC
  5
1D0AF
  8
0
 10
4786.6585439623868297
 20
519.3570202972733796
 30
0.0
 40
0.118686341804706
 50
282.176432416932812
 51
303.4876796784175212
  0
ARC
  5
1D0B0
  8
0
 10
4787.0075469157827683
 20
519.3969590402541598
 30
0.0
 40
0.1251837185430539
 50
103.2569032391448047
 51
123.4128913744752936
  0
ARC
  5
1D0B1
  8
0
 10
4786.8763809845286232
 20
519.5490867833004813
 30
0.0
 40
0.1148130796059483
 50
321.7499721541091731
 51
340.7565295152064095
  0
LINE
  5
1D0B2
  8
0
 10
4801.7868988512118449
 20
518.6421390477515843
 30
0.0
 11
4802.8463075340578143
 21
518.6421386262427404
 31
0.0
  0
LINE
  5
1D0B3
  8
0
 10
4802.9127757905880571
 20
519.3979724174594139
 30
0.0
 11
4802.9055483592592282
 21
518.7006152634427281
 31
0.0
  0
ARC
  5
1D0B4
  8
0
 10
4802.8464806283518556
 20
518.7012090884117015
 30
0.0
 40
0.0590707157777713
 50
269.832106542898714
 51
359.4240083747718018
  0
ARC
  5
1D0B5
  8
0
 10
4797.4973992029481451
 20
520.1549361419787374
 30
0.0
 40
5.4646356431424516
 50
346.4328912354488921
 51
352.0153176067275922
  0
ARC
  5
1D0B6
  8
0
 10
4469.9004996831654353
 20
538.2611333890413334
 30
0.0
 40
333.4731381707924811
 50
356.6547229433870143
 51
356.6669462757085967
  0
ARC
  5
1D0B7
  8
0
 10
4802.9676688395265955
 20
530.3763259379531974
 30
0.0
 40
11.5754653498451994
 50
268.9760808444048052
 51
269.196806166181716
  0
ARC
  5
1D0B8
  8
0
 10
4794.4633251539171397
 20
519.2814535237363316
 30
0.0
 40
8.3112920353078241
 50
355.5883799836449271
 51
356.6978376269299815
  0
LINE
  5
1D0B9
  8
0
 10
4802.7608174806919124
 20
518.8027089328500097
 30
0.0
 11
4802.7580192052582788
 21
518.8181427598426581
 31
0.0
  0
LINE
  5
1D0BA
  8
0
 10
4802.7580192052582788
 20
518.8181427598426581
 30
0.0
 11
4802.7591944831583533
 21
518.8368703829427204
 31
0.0
  0
LINE
  5
1D0BB
  8
0
 10
4802.7591944831583533
 20
518.8368703829427204
 30
0.0
 11
4802.7374749710579636
 21
519.0315578914427306
 31
0.0
  0
ENDSEC
  0
EOF
