  0
SECTION
  2
HEADER
  9
$ACADVER
  1
AC1009
  9
$INSBASE
 10
4824.0034129595132981
 20
526.3193985292116395
 30
0.0
  9
$EXTMIN
 10
4814.8195157495429157
 20
505.6354758689033133
 30
-0.0000000349181948
  9
$EXTMAX
 10
4832.1461656157916877
 20
526.3562656970921125
 30
0.0000000814935746
  9
$LIMMIN
 10
0.0
 20
0.0
  9
$LIMMAX
 10
11.6929133858000007
 20
8.2677165353999982
  9
$ORTHOMODE
 70
     0
  9
$REGENMODE
 70
     1
  9
$FILLMODE
 70
     1
  9
$QTEXTMODE
 70
     0
  9
$MIRRTEXT
 70
     0
  9
$DRAGMODE
 70
     2
  9
$LTSCALE
 40
0.6431102362
  9
$OSMODE
 70
     7
  9
$ATTMODE
 70
     1
  9
$TEXTSIZE
 40
0.2
  9
$TRACEWID
 40
0.05
  9
$TEXTSTYLE
  7
STANDARD
  9
$CLAYER
  8
0
  9
$CELTYPE
  6
BYLAYER
  9
$CECOLOR
 62
   256
  9
$DIMSCALE
 40
1.0
  9
$DIMASZ
 40
0.1875
  9
$DIMEXO
 40
0.0625
  9
$DIMDLI
 40
0.4443307087
  9
$DIMRND
 40
0.0
  9
$DIMDLE
 40
0.0
  9
$DIMEXE
 40
0.125
  9
$DIMTP
 40
0.01
  9
$DIMTM
 40
0.01
  9
$DIMTXT
 40
2.0
  9
$DIMCEN
 40
0.1052362205
  9
$DIMTSZ
 40
0.0
  9
$DIMTOL
 70
     1
  9
$DIMLIM
 70
     0
  9
$DIMTIH
 70
     1
  9
$DIMTOH
 70
     1
  9
$DIMSE1
 70
     0
  9
$DIMSE2
 70
     0
  9
$DIMTAD
 70
     0
  9
$DIMZIN
 70
     0
  9
$DIMBLK
  1

  9
$DIMASO
 70
     1
  9
$DIMSHO
 70
     1
  9
$DIMPOST
  1
\X
  9
$DIMAPOST
  1

  9
$DIMALT
 70
     1
  9
$DIMALTD
 70
     2
  9
$DIMALTF
 40
25.3999999999999986
  9
$DIMLFAC
 40
1.0
  9
$DIMTOFL
 70
     0
  9
$DIMTVP
 40
0.0
  9
$DIMTIX
 70
     0
  9
$DIMSOXD
 70
     0
  9
$DIMSAH
 70
     0
  9
$DIMBLK1
  1

  9
$DIMBLK2
  1

  9
$DIMSTYLE
  2
STANDARD
  9
$DIMCLRD
 70
     0
  9
$DIMCLRE
 70
     0
  9
$DIMCLRT
 70
     0
  9
$DIMTFAC
 40
1.0
  9
$DIMGAP
 40
0.09
  9
$LUNITS
 70
     2
  9
$LUPREC
 70
     4
  9
$SKETCHINC
 40
0.1
  9
$FILLETRAD
 40
0.0
  9
$AUNITS
 70
     0
  9
$AUPREC
 70
     0
  9
$MENU
  1
.
  9
$ELEVATION
 40
0.0
  9
$PELEVATION
 40
0.0
  9
$THICKNESS
 40
0.0
  9
$LIMCHECK
 70
     0
  9
$BLIPMODE
 70
     0
  9
$CHAMFERA
 40
0.0
  9
$CHAMFERB
 40
0.0
  9
$SKPOLY
 70
     0
  9
$TDCREATE
 40
2458060.468368056230247
  9
$TDUPDATE
 40
2459382.9952546302229166
  9
$TDINDWG
 40
1.5487584954
  9
$TDUSRTIMER
 40
1.5487584954
  9
$USRTIMER
 70
     1
  9
$ANGBASE
 50
0.0
  9
$ANGDIR
 70
     0
  9
$PDMODE
 70
     0
  9
$PDSIZE
 40
0.3125
  9
$PLINEWID
 40
0.0
  9
$COORDS
 70
     1
  9
$SPLFRAME
 70
     0
  9
$SPLINETYPE
 70
     6
  9
$SPLINESEGS
 70
     8
  9
$ATTDIA
 70
     1
  9
$ATTREQ
 70
     1
  9
$HANDLING
 70
     1
  9
$HANDSEED
  5
1D251
  9
$SURFTAB1
 70
     6
  9
$SURFTAB2
 70
     6
  9
$SURFTYPE
 70
     6
  9
$SURFU
 70
     6
  9
$SURFV
 70
     6
  9
$UCSNAME
  2

  9
$UCSORG
 10
0.0
 20
0.0
 30
0.0
  9
$UCSXDIR
 10
1.0
 20
0.0
 30
0.0
  9
$UCSYDIR
 10
0.0
 20
1.0
 30
0.0
  9
$PUCSNAME
  2

  9
$PUCSORG
 10
0.0
 20
0.0
 30
0.0
  9
$PUCSXDIR
 10
1.0
 20
0.0
 30
0.0
  9
$PUCSYDIR
 10
0.0
 20
1.0
 30
0.0
  9
$USERI1
 70
     0
  9
$USERI2
 70
     0
  9
$USERI3
 70
     0
  9
$USERI4
 70
     0
  9
$USERI5
 70
     0
  9
$USERR1
 40
0.0
  9
$USERR2
 40
0.0
  9
$USERR3
 40
0.0
  9
$USERR4
 40
0.0
  9
$USERR5
 40
0.0
  9
$WORLDVIEW
 70
     1
  9
$SHADEDGE
 70
     3
  9
$SHADEDIF
 70
    70
  9
$TILEMODE
 70
     1
  9
$MAXACTVP
 70
    64
  9
$PLIMCHECK
 70
     0
  9
$PEXTMIN
 10
1.0000000000000000E+20
 20
1.0000000000000000E+20
 30
1.0000000000000000E+20
  9
$PEXTMAX
 10
-1.0000000000000000E+20
 20
-1.0000000000000000E+20
 30
-1.0000000000000000E+20
  9
$PLIMMIN
 10
0.0
 20
0.0
  9
$PLIMMAX
 10
12.0
 20
9.0
  9
$UNITMODE
 70
     0
  9
$VISRETAIN
 70
     1
  9
$PLINEGEN
 70
     0
  9
$PSLTSCALE
 70
     1
  0
ENDSEC
  0
SECTION
  2
TABLES
  0
TABLE
  2
VPORT
 70
     1
  0
VPORT
  2
*ACTIVE
 70
     0
 10
0.0
 20
0.0
 11
1.0
 21
1.0
 12
912.1174842373548017
 22
383.4162656804587073
 13
0.0
 23
0.0
 14
1.0
 24
1.0
 15
0.0
 25
0.0
 16
0.0
 26
0.0
 36
60.4960186965801583
 17
3911.3653564453120453
 27
132.5796051025390057
 37
0.0
 40
20.8799764337830993
 41
2.3461538461538458
 42
50.0
 43
0.0
 44
0.0
 50
0.0
 51
0.0
 71
     0
 72
   100
 73
     1
 74
     1
 75
     0
 76
     0
 77
     0
 78
     0
  0
ENDTAB
  0
TABLE
  2
LTYPE
 70
     2
  0
LTYPE
  2
CONTINUOUS
 70
     0
  3
Solid line
 72
    65
 73
     0
 40
0.0
  0
LTYPE
  2
PHANTOM2
 70
     0
  3
___ _ _ ___ _ _ ___ _ _ ___ _ _
 72
    65
 73
     6
 40
1.25
 49
0.625
 49
-0.125
 49
0.125
 49
-0.125
 49
0.125
 49
-0.125
  0
ENDTAB
  0
TABLE
  2
LAYER
 70
     2
  0
LAYER
  2
0
 70
     0
 62
   255
  6
CONTINUOUS
  0
LAYER
  2
DEFPOINTS
 70
     0
 62
     7
  6
CONTINUOUS
  0
ENDTAB
  0
TABLE
  2
STYLE
 70
     1
  0
STYLE
  2
STANDARD
 70
     0
 40
0.0
 41
0.8
 50
0.0
 71
     0
 42
0.2
  3
txt
  4

  0
ENDTAB
  0
TABLE
  2
VIEW
 70
     0
  0
ENDTAB
  0
TABLE
  2
UCS
 70
     0
  0
ENDTAB
  0
TABLE
  2
APPID
 70
    11
  0
APPID
  2
ACAD
 70
     0
  0
APPID
  2
ACAD_MLEADERVER
 70
     0
  0
APPID
  2
ACAD_EXEMPT_FROM_CAD_STANDARDS
 70
     0
  0
APPID
  2
ACAD_NAV_VCDISPLAY
 70
     0
  0
APPID
  2
ACAECLAYERSTANDARD
 70
     0
  0
APPID
  2
ACCMTRANSPARENCY
 70
     0
  0
APPID
  2
ACAD_DSTYLE_DIMJAG
 70
     0
  0
APPID
  2
ACAD_DSTYLE_DIMTALN
 70
     0
  0
APPID
  2
ACDBATTR
 70
     0
  0
APPID
  2
ACADANNOTATIVE
 70
     0
  0
APPID
  2
DCO15
 70
     0
  0
ENDTAB
  0
TABLE
  2
DIMSTYLE
 70
     1
  0
DIMSTYLE
  2
STANDARD
 70
     0
  3

  4

  5

  6

  7

 40
1.0
 41
0.1875
 42
0.0625
 43
0.38
 44
0.125
 45
0.0
 46
0.0
 47
0.01
 48
0.01
140
0.15625
141
0.09
142
0.0
143
25.3999999999999986
144
1.0
145
0.0
146
1.0
147
0.09
 71
     1
 72
     0
 73
     1
 74
     1
 75
     0
 76
     0
 77
     0
 78
     4
170
     0
171
     2
172
     0
173
     0
174
     0
175
     0
176
     0
177
     0
178
     0
  0
ENDTAB
  0
ENDSEC
  0
SECTION
  2
BLOCKS
  0
BLOCK
  8
0
  2
$MODEL_SPACE
 70
     0
 10
0.0
 20
0.0
 30
0.0
  3
$MODEL_SPACE
  1

  0
ENDBLK
  5
21
  8
0
  0
BLOCK
 67
     1
  8
0
  2
$PAPER_SPACE
 70
     0
 10
0.0
 20
0.0
 30
0.0
  3
$PAPER_SPACE
  1

  0
ENDBLK
  5
1D
 67
     1
  8
0
  0
ENDSEC
  0
SECTION
  2
ENTITIES
  0
ATTDEF
  5
159BF
  8
DEFPOINTS
 10
4824.0034168401762145
 20
526.3227351572529642
 30
0.0
 40
0.001
  1
K-26134T
  3

  2
MODELNUMBER
 70
     0
1001
ACDBATTR
1070
     0
1070
     1
  0
ATTDEF
  5
159C0
  8
DEFPOINTS
 10
4824.0034168401762145
 20
526.3210683168738342
 30
0.0
 40
0.001
  1
C3-430
  3

  2
TRADENAME
 70
     0
1001
ACDBATTR
1070
     0
1070
     1
  0
ATTDEF
  5
159C1
  8
DEFPOINTS
 10
4824.0034168401762145
 20
526.3194018239197476
 30
0.0
 40
0.001
  1
TOILET SEAT
  3

  2
PRODUCT
 70
     0
1001
ACDBATTR
1070
     0
1070
     1
  0
ARC
  5
1D0EF
  8
0
 10
4824.0034129595132981
 20
502.6843629297799794
 30
0.0
 40
23.6350355994316708
 50
84.9494302902950551
 51
95.0505697097049591
  0
LINE
  5
1D0F0
  8
0
 10
4819.1985553229133075
 20
525.489914135005165
 30
0.0
 11
4819.2075592321116346
 21
524.9542916448053802
 31
0.0
  0
LINE
  5
1D0F1
  8
0
 10
4819.2075592321116346
 20
524.9542916448053802
 30
0.0
 11
4819.2036980537122872
 21
522.4198280457053443
 31
0.0
  0
LINE
  5
1D0F2
  8
0
 10
4819.2038571290459004
 20
522.441371669614341
 30
0.0
 11
4819.2016779215628048
 21
522.1462408966934845
 31
0.0
  0
LINE
  5
1D0F3
  8
0
 10
4819.136129162711768
 20
525.4564398274053474
 30
0.0
 11
4819.1362525927133902
 21
522.2226898889052791
 31
0.0
  0
ARC
  5
1D0F4
  8
0
 10
4819.2148033147595925
 20
522.2236937711860492
 30
0.0
 40
0.0785571366186604
 50
180.7322031567630063
 51
280.0348212018041067
  0
ARC
  5
1D0F5
  8
0
 10
4824.0034129595132981
 20
487.8356366228834986
 30
0.0
 40
34.862256158422241
 50
82.1944382221573164
 51
97.8055617778424846
  0
ARC
  5
1D0F6
  8
0
 10
4819.2589061491580651
 20
522.4301927955141309
 30
0.0
 40
0.0561726075721017
 50
190.6329205957719921
 51
280.0504393294340275
  0
ARC
  5
1D0F7
  8
0
 10
4824.0034312591324124
 20
482.9447628226899951
 30
0.0
 40
39.5335434050533792
 50
85.4950375619714436
 51
94.5049624380285849
  0
ARC
  5
1D0F8
  8
0
 10
4823.1966921424600514
 20
497.317327818679189
 30
0.0
 40
25.1441122663863794
 50
95.2447677110654638
 51
99.0802839171944214
  0
ARC
  5
1D0F9
  8
0
 10
4824.0034129595132981
 20
501.7791508552808182
 30
0.0
 40
23.9681186584819983
 50
84.7119222046194551
 51
95.2880777953805449
  0
ARC
  5
1D0FA
  8
0
 10
4822.6533290786510406
 20
517.1170602862590613
 30
0.0
 40
9.1398219447178501
 50
94.5850422308324283
 51
108.7798478387879015
  0
ARC
  5
1D0FB
  8
0
 10
4821.271892814252169
 20
521.3351101941261732
 30
0.0
 40
4.7018669728046678
 50
109.3895874483149981
 51
132.5030143859098928
  0
ARC
  5
1D0FC
  8
0
 10
4821.5522739389543858
 20
520.8385813537978493
 30
0.0
 40
5.2589389352409777
 50
131.1000362831047141
 51
150.1432732281240874
  0
ARC
  5
1D0FD
  8
0
 10
4822.5383795558764177
 20
520.5508683343269922
 30
0.0
 40
6.2620489914274469
 50
152.3524636858942074
 51
172.0708601421686126
  0
ARC
  5
1D0FE
  8
0
 10
4841.5070982237430144
 20
519.0095095007718555
 30
0.0
 40
25.2855517772981102
 50
174.5416912757958983
 51
185.4583087242041017
  0
ARC
  5
1D0FF
  8
0
 10
4836.6541234253545554
 20
518.5332310203277757
 30
0.0
 40
20.4092814714214192
 50
185.4232254262302888
 51
205.2089249498172023
  0
ARC
  5
1D100
  8
0
 10
4824.0034129595132981
 20
511.5970486044367931
 30
0.0
 40
5.9248597236989538
 50
246.6451407796469084
 51
293.3548592203530916
  0
ARC
  5
1D101
  8
0
 10
4827.0455959077553416
 20
514.2231511091280254
 30
0.0
 40
9.8819954185184926
 50
206.3272861708493906
 51
222.6494456112150999
  0
ARC
  5
1D102
  8
0
 10
4824.1458307885868635
 20
511.5417196777319191
 30
0.0
 40
5.9324871011425513
 50
222.5760048746163875
 51
245.1703711822196965
  0
ARC
  5
1D103
  8
0
 10
4822.3668316212751961
 20
517.9942421244237494
 30
0.0
 40
7.672398520422651
 50
94.2785457407339322
 51
114.0396738466650959
  0
ARC
  5
1D104
  8
0
 10
4819.2565240279518548
 20
524.9546144331413871
 30
0.0
 40
0.0489658597800076
 50
108.073046926652296
 51
180.3777028192457124
  0
ARC
  5
1D105
  8
0
 10
4819.0921460213930914
 20
525.4514075796746511
 30
0.0
 40
0.0442700828725545
 50
6.5270064488883266
 51
112.2433453902496012
  0
ARC
  5
1D106
  8
0
 10
4819.3104352430782455
 20
525.4847776746609043
 30
0.0
 40
0.1119977667689088
 50
116.3114921900992016
 51
177.3713693272540866
  0
LINE
  5
1D107
  8
0
 10
4819.1805966137117139
 20
525.0530135178053115
 30
0.0
 11
4819.1805966137117139
 21
524.4759492068053532
 31
0.0
  0
LINE
  5
1D108
  8
0
 10
4819.1361673701685504
 20
524.4554403940126122
 30
0.0
 11
4819.1609115743121947
 21
524.4551670018053073
 31
0.0
  0
ARC
  5
1D109
  8
0
 10
4819.1603607920860668
 20
524.4754027073156522
 30
0.0
 40
0.0202431998104084
 50
271.5591108212611857
 51
1.5469846314627209
  0
LINE
  5
1D10A
  8
0
 10
4819.1361437784444206
 20
525.0735214020022568
 30
0.0
 11
4819.1609115743121947
 21
525.073795722705313
 31
0.0
  0
ARC
  5
1D10B
  8
0
 10
4819.1603607921178991
 20
525.0535600172264594
 30
0.0
 40
0.0202431997780013
 50
358.4530155597407202
 51
88.4408892628236458
  0
ARC
  5
1D10C
  8
0
 10
4819.0099966972693437
 20
525.5412979495041554
 30
0.0
 40
0.1954345195527715
 50
310.1962428653056918
 51
344.7565534749422227
  0
LINE
  5
1D10D
  8
0
 10
4819.1805966137117139
 20
524.9219417553051699
 30
0.0
 11
4819.1833601035123138
 21
524.9219418091053058
 31
0.0
  0
LINE
  5
1D10E
  8
0
 10
4819.1833601035123138
 20
524.9219418091053058
 30
0.0
 11
4819.2021991170249748
 21
524.954573389268262
 31
0.0
  0
ARC
  5
1D10F
  8
0
 10
4820.390620392206074
 20
524.9484919676914387
 30
0.0
 40
1.1905267219178479
 50
177.2984957277811873
 51
179.882627031857993
  0
ARC
  5
1D110
  8
0
 10
4805.4456908516121985
 20
524.7644843142745685
 30
0.0
 40
13.75782153950178
 50
358.9999201722164912
 51
1.0000552748329179
  0
ARC
  5
1D111
  8
0
 10
4820.3898786725922037
 20
524.580444579075106
 30
0.0
 40
1.1897846951749991
 50
180.1174948735886119
 51
182.7019278773153133
  0
LINE
  5
1D112
  8
0
 10
4819.1805966137117139
 20
524.6069811253053103
 30
0.0
 11
4819.1833661698128708
 21
524.6069811787052686
 31
0.0
  0
LINE
  5
1D113
  8
0
 10
4819.1833661698128708
 20
524.6069811787052686
 30
0.0
 11
4819.2021986820300299
 21
524.5743637618370485
 31
0.0
  0
ARC
  5
1D114
  8
0
 10
4819.116776539392049
 20
524.901137634098518
 30
0.0
 40
0.0194531504507451
 50
5.1784171236851453
 51
118.0506879221234016
  0
ARC
  5
1D115
  8
0
 10
4821.3604280459740039
 20
520.7162573756147594
 30
0.0
 40
4.7678417465068641
 50
118.1966202580894958
 51
149.3239209864231043
  0
ARC
  5
1D116
  8
0
 10
4822.5103126661988426
 20
520.4232018110928948
 30
0.0
 40
5.9158003443688392
 50
152.5663781916271091
 51
177.6389175013563886
  0
ARC
  5
1D117
  8
0
 10
4868.8230959869242724
 20
519.0125648390170454
 30
0.0
 40
52.2497582820747226
 50
178.1855776482736076
 51
181.8144223517263924
  0
ARC
  5
1D118
  8
0
 10
4836.082250994876631
 20
518.3783063749457369
 30
0.0
 40
19.5094035283293898
 50
182.9972016397331913
 51
201.6065188841240001
  0
ARC
  5
1D119
  8
0
 10
4824.0034129595132981
 20
511.773872574328891
 30
0.0
 40
5.6447519857057902
 50
241.1888647261546055
 51
298.8111352738453093
  0
ARC
  5
1D11A
  8
0
 10
4829.80887685336711
 20
515.8159833282883255
 30
0.0
 40
12.7335103593332803
 50
201.2814938995223883
 51
208.4799134304377901
  0
ARC
  5
1D11B
  8
0
 10
4827.0240253115616724
 20
514.3842195092147449
 30
0.0
 40
9.6031831836361956
 50
208.8943400183435131
 51
219.731966081336509
  0
ARC
  5
1D11C
  8
0
 10
4824.0295524757766543
 20
511.6749790390218209
 30
0.0
 40
5.5711443261331492
 50
217.9888584871611101
 51
240.4631489465749041
  0
ARC
  5
1D11D
  8
0
 10
4817.5871801318080543
 20
520.3164762798396623
 30
0.0
 40
2.5000732081072088
 50
112.5058243334076025
 51
166.6440684915305894
  0
ARC
  5
1D11E
  8
0
 10
4833.346154562475931
 20
517.9846673638271568
 30
0.0
 40
18.4226031287387393
 50
170.9137274692403139
 51
176.4439135331838884
  0
ARC
  5
1D11F
  8
0
 10
4865.6957922416941074
 20
515.9399364174248603
 30
0.0
 40
50.8367907099350731
 50
176.4052680276232081
 51
178.973266782914493
  0
ARC
  5
1D120
  8
0
 10
4815.3875719107281839
 20
516.837839458652752
 30
0.0
 40
0.520571469513196
 50
178.564939389651812
 51
264.7810825500978922
  0
ARC
  5
1D121
  8
0
 10
4816.4814724416437457
 20
524.5601934500987227
 30
0.0
 40
8.3194173053176765
 50
262.115338691192278
 51
269.2592736287551247
  0
ARC
  5
1D122
  8
0
 10
4822.2204625275362559
 20
526.2495195367692986
 30
0.0
 40
8.3099778023623561
 50
216.0105219208257097
 51
221.0666150267772139
  0
ARC
  5
1D123
  8
0
 10
4815.7266966652578049
 20
520.5981448831232683
 30
0.0
 40
0.2986092118751121
 50
352.2789389214353832
 51
40.077280932591961
  0
ARC
  5
1D124
  8
0
 10
4839.2771510274260436
 20
517.5139224743278419
 30
0.0
 40
23.4529481342131696
 50
172.5421829113508068
 51
177.0102012096521094
  0
ARC
  5
1D125
  8
0
 10
4857.0178165422639722
 20
516.411967667723502
 30
0.0
 40
41.2273136311879824
 50
176.7668068090248141
 51
179.5583455490892959
  0
ARC
  5
1D126
  8
0
 10
4815.7117531851508829
 20
516.7320028905558047
 30
0.0
 40
0.0800060477613026
 50
279.8442505356251218
 51
358.3921440624829984
  0
ARC
  5
1D127
  8
0
 10
4815.4377555661358201
 20
521.3247100358445323
 30
0.0
 40
0.0721914354066735
 50
32.7866694258967328
 51
58.9098740704527088
  0
ARC
  5
1D128
  8
0
 10
4815.4472531964911468
 20
521.33908219650516
 30
0.0
 40
0.0549839142873592
 50
59.6515967367199806
 51
89.2489910859599576
  0
ARC
  5
1D129
  8
0
 10
4815.4515720380377388
 20
521.3139811852203138
 30
0.0
 40
0.0801609975376695
 50
92.5726782784044957
 51
134.9961424262189098
  0
ARC
  5
1D12A
  8
0
 10
4815.4868099494897251
 20
521.2727060600390132
 30
0.0
 40
0.1343319051444429
 50
133.1765786564633913
 51
146.9409680010188879
  0
ARC
  5
1D12B
  8
0
 10
4817.3980040757433017
 20
520.387509257768329
 30
0.0
 40
2.239275736605097
 50
154.6574515865858075
 51
166.7695104208540045
  0
ARC
  5
1D12C
  8
0
 10
4825.1621925247918625
 20
519.0743941425498633
 30
0.0
 40
10.1102205070104194
 50
169.5969613779016072
 51
174.2697647989778034
  0
ARC
  5
1D12D
  8
0
 10
4842.2631822463063145
 20
517.2526875837753551
 30
0.0
 40
27.3078473817914293
 50
174.0491274656855865
 51
177.7197140475109904
  0
ARC
  5
1D12E
  8
0
 10
4869.5726936202418074
 20
515.899920306664626
 30
0.0
 40
54.6502004685264708
 50
177.4417739307696138
 51
178.9802673854499915
  0
ARC
  5
1D12F
  8
0
 10
4815.0804353257008188
 20
516.8695390959431961
 30
0.0
 40
0.1493166485283805
 50
178.8574835892108865
 51
193.5138423289197931
  0
ARC
  5
1D130
  8
0
 10
4815.0569452877216463
 20
516.8608293472731248
 30
0.0
 40
0.1244773338133882
 50
192.1422988375034038
 51
241.2062446026706084
  0
ARC
  5
1D131
  8
0
 10
4815.0317068418971758
 20
516.8709433250329539
 30
0.0
 40
0.1241535898546035
 50
253.7618720632443114
 51
264.355102350864513
  0
LINE
  5
1D132
  8
0
 10
4815.0194947544123352
 20
516.7473918022053567
 30
0.0
 11
4815.6934733240123023
 21
516.6523142178052694
 31
0.0
  0
ARC
  5
1D133
  8
0
 10
4815.7069257344819562
 20
516.7465773997505494
 30
0.0
 40
0.095218248345064
 50
261.878093283841622
 51
281.207035738781201
  0
ARC
  5
1D134
  8
0
 10
4815.7316765390778528
 20
520.597196008965625
 30
0.0
 40
0.3018860604432858
 50
352.2111387619269749
 51
40.1158108474981034
  0
ARC
  5
1D135
  8
0
 10
4809.1555713133257086
 20
515.297660119027455
 30
0.0
 40
8.7475397730592661
 50
38.9077411254524321
 51
40.9446412690956407
  0
ARC
  5
1D136
  8
0
 10
4818.8128108706569037
 20
523.6022194586482783
 30
0.0
 40
3.989603908674034
 50
216.3368811379843066
 51
220.142070026144296
  0
ARC
  5
1D137
  8
0
 10
4826.1975079963804092
 20
529.1589492347037549
 30
0.0
 40
13.2312460522556297
 50
216.0762912630636094
 51
216.7722537495301935
  0
ARC
  5
1D138
  8
0
 10
4815.4531636104848076
 20
521.3327491613830489
 30
0.0
 40
0.0612651708822526
 50
34.6380567541855768
 51
92.3665013028259807
  0
ARC
  5
1D139
  8
0
 10
4840.7311246833687619
 20
517.3133066330135534
 30
0.0
 40
24.9123273094854802
 50
172.5202609471448056
 51
174.8931166689575036
  0
ARC
  5
1D13A
  8
0
 10
4839.2685205539910385
 20
517.4636435405594739
 30
0.0
 40
23.442155231781669
 50
174.9408944812900017
 51
176.8811124914761876
  0
ARC
  5
1D13B
  8
0
 10
4861.8768377914266239
 20
516.3318890723336381
 30
0.0
 40
46.0786697514253802
 50
177.0054493879086976
 51
179.5024735892775993
  0
ARC
  5
1D13C
  8
0
 10
4815.7202965290816792
 20
516.7335839590100477
 30
0.0
 40
0.0796243464031978
 50
279.8819503335682839
 51
358.8651649536698187
  0
ARC
  5
1D13D
  8
0
 10
4819.0148251353748492
 20
520.4327823769132237
 30
0.0
 40
2.8800307589449492
 50
157.4907016359381089
 51
174.0440330825665001
  0
ARC
  5
1D13E
  8
0
 10
4836.7694393180399857
 20
517.7190540168663802
 30
0.0
 40
20.8380135320951112
 50
171.6875631121260142
 51
177.2522742248634131
  0
ARC
  5
1D13F
  8
0
 10
4858.5575104913777977
 20
516.2644064802636876
 30
0.0
 40
42.6727235250480277
 50
176.7037974047653108
 51
179.5176454347929109
  0
ARC
  5
1D140
  8
0
 10
4816.3344281108320502
 20
516.6136200729361008
 30
0.0
 40
0.4482411888379094
 50
178.7178268358163109
 51
208.8036585754319958
  0
ARC
  5
1D141
  8
0
 10
4816.1394296761727674
 20
516.6238965059217207
 30
0.0
 40
0.3005075257366324
 50
228.8396747943091896
 51
272.702013657518421
  0
ARC
  5
1D142
  8
0
 10
4816.429201331807235
 20
522.0509338871586351
 30
0.0
 40
5.7338383221332956
 50
267.2449336060698784
 51
269.3632393803296736
  0
LINE
  5
1D143
  8
0
 10
4828.8082705961132888
 20
525.489914135005165
 30
0.0
 11
4828.7992666869122331
 21
524.9542916448053802
 31
0.0
  0
LINE
  5
1D144
  8
0
 10
4828.7992666869122331
 20
524.9542916448053802
 30
0.0
 11
4828.8031282347128581
 21
522.4198278762052041
 31
0.0
  0
LINE
  5
1D145
  8
0
 10
4828.8031282347128581
 20
522.4198278762052041
 30
0.0
 11
4828.8051479974619724
 21
522.1462408966934845
 31
0.0
  0
LINE
  5
1D146
  8
0
 10
4828.8706967563120998
 20
525.4564398274053474
 30
0.0
 11
4828.8705733263122966
 21
522.2226898889052791
 31
0.0
  0
ARC
  5
1D147
  8
0
 10
4828.7920226042651848
 20
522.2236937711860492
 30
0.0
 40
0.0785571366186604
 50
259.9651787981958933
 51
359.2677968432369084
  0
ARC
  5
1D148
  8
0
 10
4828.7479197698658027
 20
522.4301927955141309
 30
0.0
 40
0.0561726075721017
 50
259.9495606705659725
 51
349.3670794042279795
  0
ARC
  5
1D149
  8
0
 10
4824.8101337765647258
 20
497.317327818679189
 30
0.0
 40
25.1441122663863794
 50
80.9197160828057633
 51
84.755232288934522
  0
ARC
  5
1D14A
  8
0
 10
4825.3534968403746461
 20
517.1170602862590613
 30
0.0
 40
9.1398219447178501
 50
71.22015216121207
 51
85.4149577691675717
  0
ARC
  5
1D14B
  8
0
 10
4826.7349331047726082
 20
521.3351101941261732
 30
0.0
 40
4.7018669728046678
 50
47.4969856140901214
 51
70.6104125516849592
  0
ARC
  5
1D14C
  8
0
 10
4826.4545519800713009
 20
520.8385813537978493
 30
0.0
 40
5.2589389352409777
 50
29.8567267718759588
 51
48.8999637168951224
  0
ARC
  5
1D14D
  8
0
 10
4825.4684463631483595
 20
520.5508683343269922
 30
0.0
 40
6.2620489914274469
 50
7.9291398578313927
 51
27.6475363141058814
  0
ARC
  5
1D14E
  8
0
 10
4806.4997276952826724
 20
519.0095095007718555
 30
0.0
 40
25.2855517772980605
 50
354.5416912757959267
 51
5.4583087242041106
  0
ARC
  5
1D14F
  8
0
 10
4811.3527024936693124
 20
518.5332310203277757
 30
0.0
 40
20.4092814714214192
 50
334.7910750501828261
 51
354.5767745737696828
  0
ARC
  5
1D150
  8
0
 10
4820.9612300112703451
 20
514.2231511091280254
 30
0.0
 40
9.8819954185184926
 50
317.3505543887848717
 51
333.6727138291506094
  0
ARC
  5
1D151
  8
0
 10
4823.8609951304379138
 20
511.5417196777319191
 30
0.0
 40
5.9324871011425513
 50
294.8296288177801898
 51
317.4239951253836125
  0
ARC
  5
1D152
  8
0
 10
4825.6399942977486717
 20
517.9942421244237494
 30
0.0
 40
7.672398520422651
 50
65.9603261533349041
 51
85.7214542592660536
  0
ARC
  5
1D153
  8
0
 10
4828.7503018910720129
 20
524.9546144331413871
 30
0.0
 40
0.0489658597800076
 50
359.622297180754174
 51
71.9269530733476898
  0
ARC
  5
1D154
  8
0
 10
4828.9146798976316859
 20
525.4514075796746511
 30
0.0
 40
0.044270082872562
 50
67.7566546098642135
 51
173.4729935511116992
  0
ARC
  5
1D155
  8
0
 10
4828.6963906759474412
 20
525.4847776746609043
 30
0.0
 40
0.1119977667689059
 50
2.628630672745873
 51
63.6885078099007487
  0
LINE
  5
1D156
  8
0
 10
4828.8262293053121539
 20
525.0530135178053115
 30
0.0
 11
4828.8262293053121539
 21
524.4759492068053532
 31
0.0
  0
LINE
  5
1D157
  8
0
 10
4828.8708463253124137
 20
524.4554424687053142
 30
0.0
 11
4828.8459143447125825
 21
524.4551670018053073
 31
0.0
  0
ARC
  5
1D158
  8
0
 10
4828.8464651269387105
 20
524.4754027073156522
 30
0.0
 40
0.0202431998104084
 50
178.4530153685373079
 51
268.4408891787388143
  0
LINE
  5
1D159
  8
0
 10
4828.8706821405812661
 20
525.0735214020022568
 30
0.0
 11
4828.8459143447125825
 21
525.073795722705313
 31
0.0
  0
ARC
  5
1D15A
  8
0
 10
4828.8464651269077876
 20
525.0535600172264594
 30
0.0
 40
0.0202431997780013
 50
91.5591107371763542
 51
181.5469844402591946
  0
ARC
  5
1D15B
  8
0
 10
4828.996829221756343
 20
525.5412979495041554
 30
0.0
 40
0.1954345195527715
 50
195.2434472602533049
 51
229.8037571346943082
  0
LINE
  5
1D15C
  8
0
 10
4828.8262293053121539
 20
524.9219417553051699
 30
0.0
 11
4828.8234658155133729
 21
524.9219418091053058
 31
0.0
  0
LINE
  5
1D15D
  8
0
 10
4828.8234658155133729
 20
524.9219418091053058
 30
0.0
 11
4828.8046268019998024
 21
524.954573389268262
 31
0.0
  0
ARC
  5
1D15E
  8
0
 10
4827.6162055268187032
 20
524.9484919676914387
 30
0.0
 40
1.1905267219178479
 50
0.1173729681419656
 51
2.701504272218763
  0
ARC
  5
1D15F
  8
0
 10
4842.5611350674116693
 20
524.7644843142745685
 30
0.0
 40
13.75782153950178
 50
178.9999447251670972
 51
181.0000798277835088
  0
ARC
  5
1D160
  8
0
 10
4827.6169472464343926
 20
524.580444579075106
 30
0.0
 40
1.1897846951749991
 50
357.2980721226845731
 51
359.8818629424704909
  0
LINE
  5
1D161
  8
0
 10
4828.8262293053121539
 20
524.6069811253053103
 30
0.0
 11
4828.8234597492119065
 21
524.6069811787052686
 31
0.0
  0
LINE
  5
1D162
  8
0
 10
4828.8234597492119065
 20
524.6069811787052686
 30
0.0
 11
4828.8041390190128368
 21
524.573518181105328
 31
0.0
  0
ARC
  5
1D163
  8
0
 10
4828.8900490676924164
 20
524.901426101029756
 30
0.0
 40
0.0191991970474497
 50
61.5436626930363317
 51
175.6168451725249042
  0
ARC
  5
1D164
  8
0
 10
4826.6463978730507733
 20
520.7162573756147594
 30
0.0
 40
4.7678417465068641
 50
30.6760790135768389
 51
61.8033797419105397
  0
ARC
  5
1D165
  8
0
 10
4825.4965132528259346
 20
520.4232018110928948
 30
0.0
 40
5.9158003443688392
 50
2.3610824986435981
 51
27.4336218083729086
  0
ARC
  5
1D166
  8
0
 10
4779.1837299321023238
 20
519.0125648390170454
 30
0.0
 40
52.2497582820744029
 50
358.1855776482698843
 51
1.814422351726833
  0
ARC
  5
1D167
  8
0
 10
4811.9245749241472367
 20
518.3783063749457369
 30
0.0
 40
19.5094035283293898
 50
338.393481115875602
 51
357.002798360266695
  0
ARC
  5
1D168
  8
0
 10
4818.1979490656576672
 20
515.8159833282883255
 30
0.0
 40
12.7335103593332803
 50
331.5200865695622952
 51
338.7185061004776117
  0
ARC
  5
1D169
  8
0
 10
4820.9828006074640143
 20
514.3842195092147449
 30
0.0
 40
9.6031831836361956
 50
320.2680339186636047
 51
331.1056599816565154
  0
ARC
  5
1D16A
  8
0
 10
4823.9772734432490324
 20
511.6749790390218209
 30
0.0
 40
5.5711443261331492
 50
299.5368510534249822
 51
322.0111415128390036
  0
ARC
  5
1D16C
  8
0
 10
4815.543128067060934
 20
520.3653538939095142
 30
0.0
 40
0.1442352836459547
 50
107.6187246099905934
 51
171.7326461545648044
  0
ARC
  5
1D16D
  8
0
 10
4815.7816578091042174
 20
520.3306949589106125
 30
0.0
 40
0.3852698861703093
 50
171.7326461545648044
 51
189.6364606635792995
  0
ARC
  5
1D16E
  8
0
 10
4815.6103515371078174
 20
520.3016085289124248
 30
0.0
 40
0.2115118381978116
 50
189.6364606635792995
 51
239.3453407850643941
  0
ARC
  5
1D16F
  8
0
 10
4815.5650207357339241
 20
520.2251249501820212
 30
0.0
 40
0.1226039118438827
 50
239.3453407850643941
 51
312.6335088600824861
  0
ARC
  5
1D170
  8
0
 10
4815.5103603591687715
 20
520.2658690195262352
 30
0.0
 40
0.1900205557129325
 50
316.4407851715815241
 51
358.959926147417093
  0
ARC
  5
1D171
  8
0
 10
4815.4253807069935647
 20
520.2769735041907779
 30
0.0
 40
0.2753537836288074
 50
356.9702490109721111
 51
28.9721971716682383
  0
ARC
  5
1D172
  8
0
 10
4815.5249045031214337
 20
520.3498314776988991
 30
0.0
 40
0.1537800049121908
 50
23.1752437237297393
 51
63.9699014890601489
  0
ARC
  5
1D173
  8
0
 10
4815.5216684935539888
 20
520.3432055113636352
 30
0.0
 40
0.1611539582474308
 50
63.9699014890601489
 51
97.9172399386329033
  0
ARC
  5
1D174
  8
0
 10
4815.4778172203732538
 20
519.414485567382485
 30
0.0
 40
0.1442352836459547
 50
107.6187246099905934
 51
171.7326461545648044
  0
ARC
  5
1D175
  8
0
 10
4815.7163469624156278
 20
519.3798266323835833
 30
0.0
 40
0.3852698861703093
 50
171.7326461545648044
 51
189.6364606635792995
  0
ARC
  5
1D176
  8
0
 10
4815.5450406904201373
 20
519.3507402023855093
 30
0.0
 40
0.2115118381978116
 50
189.6364606635792995
 51
239.3453407850643941
  0
ARC
  5
1D177
  8
0
 10
4815.4997098890462439
 20
519.2742566236549919
 30
0.0
 40
0.1226039118438827
 50
239.3453407850643941
 51
312.6335088600824861
  0
ARC
  5
1D178
  8
0
 10
4815.4450495124820009
 20
519.3150006929993197
 30
0.0
 40
0.1900205557129325
 50
316.4407851715815241
 51
358.959926147417093
  0
ARC
  5
1D179
  8
0
 10
4815.3600698603058845
 20
519.3261051776637487
 30
0.0
 40
0.2753537836288074
 50
356.9702490109721111
 51
28.9721971716682383
  0
ARC
  5
1D17A
  8
0
 10
4815.4595936564319345
 20
519.3989631511718699
 30
0.0
 40
0.1537800049121908
 50
23.1752437237297393
 51
63.9699014890601489
  0
ARC
  5
1D17B
  8
0
 10
4815.4563576468663086
 20
519.3923371848367196
 30
0.0
 40
0.1611539582474308
 50
63.9699014890601489
 51
97.9172399386329033
  0
ARC
  5
1D17C
  8
0
 10
4815.4127689642946279
 20
518.4652049223027461
 30
0.0
 40
0.1442352836459547
 50
107.6187246099905934
 51
171.7326461545648044
  0
ARC
  5
1D17D
  8
0
 10
4815.6512987063370019
 20
518.4305459873038444
 30
0.0
 40
0.3852698861703093
 50
171.7326461545648044
 51
189.6364606635792995
  0
ARC
  5
1D17E
  8
0
 10
4815.4799924343406019
 20
518.4014595573056567
 30
0.0
 40
0.2115118381978116
 50
189.6364606635792995
 51
239.3453407850643941
  0
ARC
  5
1D17F
  8
0
 10
4815.4346616329667086
 20
518.3249759785752531
 30
0.0
 40
0.1226039118438827
 50
239.3453407850643941
 51
312.6335088600824861
  0
ARC
  5
1D180
  8
0
 10
4815.3800012564042845
 20
518.3657200479194671
 30
0.0
 40
0.1900205557129325
 50
316.4407851715815241
 51
358.959926147417093
  0
ARC
  5
1D181
  8
0
 10
4815.2950216042272586
 20
518.3768245325840098
 30
0.0
 40
0.2753537836288074
 50
356.9702490109721111
 51
28.9721971716682383
  0
ARC
  5
1D182
  8
0
 10
4815.3945454003542181
 20
518.449682506092131
 30
0.0
 40
0.1537800049121908
 50
23.1752437237297393
 51
63.9699014890601489
  0
ARC
  5
1D183
  8
0
 10
4815.3913093907867733
 20
518.4430565397567534
 30
0.0
 40
0.1611539582474308
 50
63.9699014890601489
 51
97.9172399386329033
  0
ARC
  5
1D184
  8
0
 10
4815.3499796859541675
 20
517.5134398092849324
 30
0.0
 40
0.1442352836459547
 50
107.6187246099905934
 51
171.7326461545648044
  0
ARC
  5
1D185
  8
0
 10
4815.588509427997451
 20
517.478780874285917
 30
0.0
 40
0.3852698861703093
 50
171.7326461545648044
 51
189.6364606635792995
  0
ARC
  5
1D186
  8
0
 10
4815.4172031560019605
 20
517.4496944442877293
 30
0.0
 40
0.2115118381978116
 50
189.6364606635792995
 51
239.3453407850643941
  0
ARC
  5
1D187
  8
0
 10
4815.3718723546289766
 20
517.3732108655573256
 30
0.0
 40
0.1226039118438827
 50
239.3453407850643941
 51
312.6335088600824861
  0
ARC
  5
1D188
  8
0
 10
4815.3172119780647336
 20
517.4139549349016534
 30
0.0
 40
0.1900205557129325
 50
316.4407851715815241
 51
358.959926147417093
  0
ARC
  5
1D189
  8
0
 10
4815.2322323258877077
 20
517.4250594195661961
 30
0.0
 40
0.2753537836288074
 50
356.9702490109721111
 51
28.9721971716682383
  0
ARC
  5
1D18A
  8
0
 10
4815.3317561220146672
 20
517.4979173930743173
 30
0.0
 40
0.1537800049121908
 50
23.1752437237297393
 51
63.9699014890601489
  0
ARC
  5
1D18B
  8
0
 10
4815.3285201124481318
 20
517.4912914267389397
 30
0.0
 40
0.1611539582474308
 50
63.9699014890601489
 51
97.9172399386329033
  0
ENDSEC
  0
EOF
