  0
SECTION
  2
HEADER
  9
$ACADVER
  1
AC1009
  9
$INSBASE
 10
4871.9275139541732642
 20
214.8929862140182081
 30
0.0
  9
$EXTMIN
 10
4866.8154083000226819
 20
209.0828406929745995
 30
-0.0000000000000053
  9
$EXTMAX
 10
4879.3991864557419831
 20
266.0485486853464749
 30
0.0000000000000099
  9
$LIMMIN
 10
0.0
 20
0.0
  9
$LIMMAX
 10
11.6929133858000007
 20
8.2677165353999982
  9
$ORTHOMODE
 70
     0
  9
$REGENMODE
 70
     1
  9
$FILLMODE
 70
     1
  9
$QTEXTMODE
 70
     0
  9
$MIRRTEXT
 70
     0
  9
$DRAGMODE
 70
     2
  9
$LTSCALE
 40
0.6431102362
  9
$OSMODE
 70
  4095
  9
$ATTMODE
 70
     1
  9
$TEXTSIZE
 40
0.2
  9
$TRACEWID
 40
0.05
  9
$TEXTSTYLE
  7
STANDARD
  9
$CLAYER
  8
0
  9
$CELTYPE
  6
BYLAYER
  9
$CECOLOR
 62
   256
  9
$DIMSCALE
 40
1.0
  9
$DIMASZ
 40
0.1875
  9
$DIMEXO
 40
0.0625
  9
$DIMDLI
 40
0.4443307087
  9
$DIMRND
 40
0.0
  9
$DIMDLE
 40
0.0
  9
$DIMEXE
 40
0.125
  9
$DIMTP
 40
0.01
  9
$DIMTM
 40
0.01
  9
$DIMTXT
 40
2.0
  9
$DIMCEN
 40
0.1052362205
  9
$DIMTSZ
 40
0.0
  9
$DIMTOL
 70
     1
  9
$DIMLIM
 70
     0
  9
$DIMTIH
 70
     1
  9
$DIMTOH
 70
     1
  9
$DIMSE1
 70
     0
  9
$DIMSE2
 70
     0
  9
$DIMTAD
 70
     0
  9
$DIMZIN
 70
     0
  9
$DIMBLK
  1

  9
$DIMASO
 70
     1
  9
$DIMSHO
 70
     1
  9
$DIMPOST
  1
\X
  9
$DIMAPOST
  1

  9
$DIMALT
 70
     1
  9
$DIMALTD
 70
     2
  9
$DIMALTF
 40
25.3999999999999986
  9
$DIMLFAC
 40
1.0
  9
$DIMTOFL
 70
     0
  9
$DIMTVP
 40
0.0
  9
$DIMTIX
 70
     0
  9
$DIMSOXD
 70
     0
  9
$DIMSAH
 70
     0
  9
$DIMBLK1
  1

  9
$DIMBLK2
  1

  9
$DIMSTYLE
  2
STANDARD
  9
$DIMCLRD
 70
     0
  9
$DIMCLRE
 70
     0
  9
$DIMCLRT
 70
     0
  9
$DIMTFAC
 40
1.0
  9
$DIMGAP
 40
0.09
  9
$LUNITS
 70
     2
  9
$LUPREC
 70
     4
  9
$SKETCHINC
 40
0.1
  9
$FILLETRAD
 40
0.0
  9
$AUNITS
 70
     0
  9
$AUPREC
 70
     0
  9
$MENU
  1
.
  9
$ELEVATION
 40
0.0
  9
$PELEVATION
 40
0.0
  9
$THICKNESS
 40
0.0
  9
$LIMCHECK
 70
     0
  9
$BLIPMODE
 70
     0
  9
$CHAMFERA
 40
0.0
  9
$CHAMFERB
 40
0.0
  9
$SKPOLY
 70
     0
  9
$TDCREATE
 40
2458060.468368056230247
  9
$TDUPDATE
 40
2459682.5155671299435198
  9
$TDINDWG
 40
0.4315811343
  9
$TDUSRTIMER
 40
0.4315811343
  9
$USRTIMER
 70
     1
  9
$ANGBASE
 50
0.0
  9
$ANGDIR
 70
     0
  9
$PDMODE
 70
     0
  9
$PDSIZE
 40
0.3125
  9
$PLINEWID
 40
0.0
  9
$COORDS
 70
     1
  9
$SPLFRAME
 70
     0
  9
$SPLINETYPE
 70
     6
  9
$SPLINESEGS
 70
     8
  9
$ATTDIA
 70
     1
  9
$ATTREQ
 70
     1
  9
$HANDLING
 70
     1
  9
$HANDSEED
  5
E5F1
  9
$SURFTAB1
 70
     6
  9
$SURFTAB2
 70
     6
  9
$SURFTYPE
 70
     6
  9
$SURFU
 70
     6
  9
$SURFV
 70
     6
  9
$UCSNAME
  2

  9
$UCSORG
 10
0.0
 20
0.0
 30
0.0
  9
$UCSXDIR
 10
1.0
 20
0.0
 30
0.0
  9
$UCSYDIR
 10
0.0
 20
1.0
 30
0.0
  9
$PUCSNAME
  2

  9
$PUCSORG
 10
0.0
 20
0.0
 30
0.0
  9
$PUCSXDIR
 10
1.0
 20
0.0
 30
0.0
  9
$PUCSYDIR
 10
0.0
 20
1.0
 30
0.0
  9
$USERI1
 70
     0
  9
$USERI2
 70
     0
  9
$USERI3
 70
     0
  9
$USERI4
 70
     0
  9
$USERI5
 70
     0
  9
$USERR1
 40
0.0
  9
$USERR2
 40
0.0
  9
$USERR3
 40
0.0
  9
$USERR4
 40
0.0
  9
$USERR5
 40
0.0
  9
$WORLDVIEW
 70
     1
  9
$SHADEDGE
 70
     3
  9
$SHADEDIF
 70
    70
  9
$TILEMODE
 70
     1
  9
$MAXACTVP
 70
    64
  9
$PLIMCHECK
 70
     0
  9
$PEXTMIN
 10
1.0000000000000000E+20
 20
1.0000000000000000E+20
 30
1.0000000000000000E+20
  9
$PEXTMAX
 10
-1.0000000000000000E+20
 20
-1.0000000000000000E+20
 30
-1.0000000000000000E+20
  9
$PLIMMIN
 10
0.0
 20
0.0
  9
$PLIMMAX
 10
12.0
 20
9.0
  9
$UNITMODE
 70
     0
  9
$VISRETAIN
 70
     1
  9
$PLINEGEN
 70
     0
  9
$PSLTSCALE
 70
     1
  0
ENDSEC
  0
SECTION
  2
TABLES
  0
TABLE
  2
VPORT
 70
     1
  0
VPORT
  2
*ACTIVE
 70
     0
 10
0.0
 20
0.0
 11
1.0
 21
1.0
 12
1069.5632299950700599
 22
111.5704324924106032
 13
0.0
 23
0.0
 14
1.0
 24
1.0
 15
0.0
 25
0.0
 16
0.0
 26
0.0
 36
17.1152628219792007
 17
3803.5440673828129547
 27
125.9952621967499056
 37
0.0
 40
57.3735770233435289
 41
2.2927120669056151
 42
50.0
 43
0.0
 44
0.0
 50
0.0
 51
0.0
 71
     0
 72
   100
 73
     1
 74
     1
 75
     0
 76
     0
 77
     0
 78
     0
  0
ENDTAB
  0
TABLE
  2
LTYPE
 70
     2
  0
LTYPE
  2
CONTINUOUS
 70
     0
  3
Solid line
 72
    65
 73
     0
 40
0.0
  0
LTYPE
  2
PHANTOM2
 70
     0
  3
___ _ _ ___ _ _ ___ _ _ ___ _ _
 72
    65
 73
     6
 40
1.25
 49
0.625
 49
-0.125
 49
0.125
 49
-0.125
 49
0.125
 49
-0.125
  0
ENDTAB
  0
TABLE
  2
LAYER
 70
     2
  0
LAYER
  2
0
 70
     0
 62
   255
  6
CONTINUOUS
  0
LAYER
  2
DEFPOINTS
 70
     0
 62
     7
  6
CONTINUOUS
  0
ENDTAB
  0
TABLE
  2
STYLE
 70
     1
  0
STYLE
  2
STANDARD
 70
     0
 40
0.0
 41
0.8
 50
0.0
 71
     0
 42
0.2
  3
txt
  4

  0
ENDTAB
  0
TABLE
  2
VIEW
 70
     0
  0
ENDTAB
  0
TABLE
  2
UCS
 70
     0
  0
ENDTAB
  0
TABLE
  2
APPID
 70
     9
  0
APPID
  2
ACAD
 70
     0
  0
APPID
  2
ACAD_MLEADERVER
 70
     0
  0
APPID
  2
ACAD_EXEMPT_FROM_CAD_STANDARDS
 70
     0
  0
APPID
  2
ACAD_NAV_VCDISPLAY
 70
     0
  0
APPID
  2
ACAECLAYERSTANDARD
 70
     0
  0
APPID
  2
ACCMTRANSPARENCY
 70
     0
  0
APPID
  2
ACAD_DSTYLE_DIMJAG
 70
     0
  0
APPID
  2
ACAD_DSTYLE_DIMTALN
 70
     0
  0
APPID
  2
ACDBATTR
 70
     0
  0
ENDTAB
  0
TABLE
  2
DIMSTYLE
 70
     1
  0
DIMSTYLE
  2
STANDARD
 70
     0
  3

  4

  5

  6

  7

 40
1.0
 41
0.1875
 42
0.0625
 43
0.38
 44
0.125
 45
0.0
 46
0.0
 47
0.01
 48
0.01
140
0.15625
141
0.09
142
0.0
143
25.3999999999999986
144
1.0
145
0.0
146
1.0
147
0.09
 71
     1
 72
     0
 73
     1
 74
     1
 75
     0
 76
     0
 77
     0
 78
     4
170
     0
171
     2
172
     0
173
     0
174
     0
175
     0
176
     0
177
     0
178
     0
  0
ENDTAB
  0
ENDSEC
  0
SECTION
  2
BLOCKS
  0
BLOCK
  8
0
  2
$MODEL_SPACE
 70
     0
 10
0.0
 20
0.0
 30
0.0
  3
$MODEL_SPACE
  1

  0
ENDBLK
  5
21
  8
0
  0
BLOCK
 67
     1
  8
0
  2
$PAPER_SPACE
 70
     0
 10
0.0
 20
0.0
 30
0.0
  3
$PAPER_SPACE
  1

  0
ENDBLK
  5
1D
 67
     1
  8
0
  0
ENDSEC
  0
SECTION
  2
ENTITIES
  0
ATTDEF
  5
3930
  8
DEFPOINTS
 10
4871.9243243428791175
 20
214.8978288290450962
 30
0.0
 40
0.001
  1
K-26241T-4
  3

  2
MODELNUMBER
 70
     0
1001
ACDBATTR
1070
     0
1070
     1
  0
ATTDEF
  5
3931
  8
DEFPOINTS
 10
4871.9243243428791175
 20
214.8961621623784879
 30
0.0
 40
0.001
  1
ALEO
  3

  2
TRADENAME
 70
     0
1001
ACDBATTR
1070
     0
1070
     1
  0
ATTDEF
  5
3932
  8
DEFPOINTS
 10
4871.9243243428791175
 20
214.8944954957117943
 30
0.0
 40
0.001
  1
SHOWER COLUMN KIT
  3

  2
PRODUCT
 70
     0
1001
ACDBATTR
1070
     0
1070
     1
  0
LINE
  5
DC2E
  8
0
 10
4871.2976005322552737
 20
247.8652801460833075
 30
0.0
 11
4871.7438669688381196
 21
247.8652801460833075
 31
0.0
  0
ARC
  5
DC2F
  8
0
 10
4871.2976005322552737
 20
247.8849801460833078
 30
0.0
 40
0.0197
 50
180.0
 51
270.0
  0
LINE
  5
DC30
  8
0
 10
4871.277900532255444
 20
249.0857951935165886
 30
0.0
 11
4871.277900532255444
 21
247.8849801460833078
 31
0.0
  0
ARC
  5
DC31
  8
0
 10
4871.2976005322552737
 20
249.0857951935165886
 30
0.0
 40
0.0197
 50
90.0
 51
180.0
  0
LINE
  5
DC32
  8
0
 10
4871.3369706110552215
 20
249.6566187287832861
 30
0.0
 11
4872.5180430519549191
 21
249.6566187287832861
 31
0.0
  0
LINE
  5
DC33
  8
0
 10
4871.3369706110552215
 20
249.1841777838486109
 30
0.0
 11
4872.5180430519549191
 21
249.1841777838486109
 31
0.0
  0
LINE
  5
DC34
  8
0
 10
4871.2976005322552737
 20
249.1054951935165889
 30
0.0
 11
4872.5574131306557319
 21
249.1054951935165889
 31
0.0
  0
LINE
  5
DC35
  8
0
 10
4871.3763257291548143
 20
249.1841777839833867
 30
0.0
 11
4871.3763257291548143
 21
249.1054951935165889
 31
0.0
  0
LINE
  5
DC36
  8
0
 10
4872.4786879338553263
 20
249.1054951935165889
 30
0.0
 11
4872.4786879338553263
 21
249.1841777839833867
 31
0.0
  0
LINE
  5
DC37
  8
0
 10
4871.3172706110553918
 20
249.2038777838484975
 30
0.0
 11
4871.3172706110553918
 21
249.6369187287486113
 31
0.0
  0
LINE
  5
DC38
  8
0
 10
4872.5377430519547488
 20
249.6369187287486113
 30
0.0
 11
4872.5377430519547488
 21
249.2038777838484975
 31
0.0
  0
ARC
  5
DC39
  8
0
 10
4871.3369706110552215
 20
249.2038777838484975
 30
0.0
 40
0.0197
 50
180.0000000000098055
 51
269.9999999999478746
  0
ARC
  5
DC3A
  8
0
 10
4871.3369706111143387
 20
249.6369187287239129
 30
0.0
 40
0.0197000000594514
 50
90.0000001729537473
 51
179.9999999283973011
  0
ARC
  5
DC3B
  8
0
 10
4872.5180430518958019
 20
249.6369187287239129
 30
0.0
 40
0.0197000000594514
 50
0.0000000716385083
 51
89.9999998270983355
  0
ARC
  5
DC3C
  8
0
 10
4872.5180430519549191
 20
249.2038777838484975
 30
0.0
 40
0.0197
 50
269.9999999999478746
 51
359.9999999999902229
  0
LINE
  5
DC3D
  8
0
 10
4872.5771131306755706
 20
248.6233946228873037
 30
0.0
 11
4872.5771131306555617
 21
249.0857951935174128
 31
0.0
  0
ARC
  5
DC3E
  8
0
 10
4872.5574131306557319
 20
249.0857951935165886
 30
0.0
 40
0.0197
 50
0.0000000023775282
 51
90.0
  0
LINE
  5
DC3F
  8
0
 10
4871.5338060440553818
 20
260.4991384138181729
 30
0.0
 11
4871.5338060440553818
 21
249.6566187287832861
 31
0.0
  0
LINE
  5
DC40
  8
0
 10
4872.3212076188556239
 20
260.4991384138181729
 30
0.0
 11
4872.3212076188556239
 21
249.6566187287832861
 31
0.0
  0
LINE
  5
DC41
  8
0
 10
4871.4353808471551019
 20
218.562130539818213
 30
0.0
 11
4871.4353808471551019
 21
239.1230112257862004
 31
0.0
  0
LINE
  5
DC42
  8
0
 10
4871.4353808471551019
 20
240.7933259812637061
 30
0.0
 11
4871.4353808471551019
 21
247.8652801460833075
 31
0.0
  0
LINE
  5
DC43
  8
0
 10
4872.4196328156549498
 20
218.562130539818213
 30
0.0
 11
4872.4196328156549498
 21
239.1229185953133083
 31
0.0
  0
LINE
  5
DC44
  8
0
 10
4872.4196328156549498
 20
240.7933222601625971
 30
0.0
 11
4872.4196328156549498
 21
244.9911558888576053
 31
0.0
  0
LINE
  5
DC45
  8
0
 10
4870.0771131306555617
 20
240.7138821823810133
 30
0.0
 11
4870.0771131306555617
 21
239.1903227796360056
 31
0.0
  0
ARC
  5
DC46
  8
0
 10
4870.0968131306553914
 20
240.7138821823810133
 30
0.0
 40
0.0197
 50
90.0
 51
180.0
  0
LINE
  5
DC47
  8
0
 10
4870.6597827980549482
 20
240.9116219053358918
 30
0.0
 11
4870.6130026242417443
 21
240.7239968764997116
 31
0.0
  0
LINE
  5
DC48
  8
0
 10
4871.2042316484021285
 20
240.7267914467134062
 30
0.0
 11
4871.2484061532832129
 21
240.9067892189468125
 31
0.0
  0
LINE
  5
DC49
  8
0
 10
4871.3448296660553751
 20
240.7848104024359088
 30
0.0
 11
4871.3448296660553751
 21
240.7335821823810136
 31
0.0
  0
LINE
  5
DC4A
  8
0
 10
4871.3448296660553751
 20
239.1706371741358907
 30
0.0
 11
4871.344829580158148
 21
239.1312670952715962
 31
0.0
  0
LINE
  5
DC4B
  8
0
 10
4872.5101841017603874
 20
239.1312670952634107
 30
0.0
 11
4872.5101839967546766
 21
239.1706371741358907
 31
0.0
  0
LINE
  5
DC4C
  8
0
 10
4872.5101839967546766
 20
240.7335821823810136
 30
0.0
 11
4872.5101839967546766
 21
240.7848104024359088
 31
0.0
  0
LINE
  5
DC4D
  8
0
 10
4872.7542784849538293
 20
239.1706371741358907
 30
0.0
 11
4872.7542784849538293
 21
240.7335821823810136
 31
0.0
  0
LINE
  5
DC4E
  8
0
 10
4872.7975068314563032
 20
240.7335821823810136
 30
0.0
 11
4872.7975068314563032
 21
239.1706371741358907
 31
0.0
  0
LINE
  5
DC4F
  8
0
 10
4872.4904986653564265
 20
239.1115820560358998
 30
0.0
 11
4872.4432531104539521
 21
239.1115820560358998
 31
0.0
  0
LINE
  5
DC50
  8
0
 10
4871.4117605532555899
 20
239.1115820560358998
 30
0.0
 11
4871.3645149975545792
 21
239.1115820560358998
 31
0.0
  0
LINE
  5
DC51
  8
0
 10
4873.6641921020545851
 20
239.1706371741358907
 30
0.0
 11
4872.7975068314563032
 21
239.1706371741358907
 31
0.0
  0
LINE
  5
DC52
  8
0
 10
4872.7542784849538293
 20
239.1706371741358907
 30
0.0
 11
4872.5101839967546766
 21
239.1706371741358907
 31
0.0
  0
LINE
  5
DC53
  8
0
 10
4871.3448296660553751
 20
239.1706371741358907
 30
0.0
 11
4870.0967981700550808
 21
239.1706371741358907
 31
0.0
  0
LINE
  5
DC54
  8
0
 10
4872.7542784849538293
 20
239.2296922922359101
 30
0.0
 11
4872.7975068314563032
 21
239.2296922922359101
 31
0.0
  0
LINE
  5
DC55
  8
0
 10
4871.4237034125553691
 20
240.8005613708359078
 30
0.0
 11
4871.422166593854854
 21
240.8015184440359064
 31
0.0
  0
LINE
  5
DC56
  8
0
 10
4872.7542784849538293
 20
240.6863852056359008
 30
0.0
 11
4872.7975068314563032
 21
240.6863852056359008
 31
0.0
  0
LINE
  5
DC57
  8
0
 10
4873.4178143022363656
 20
240.7335821823810136
 30
0.0
 11
4872.7975068314563032
 21
240.7335821823810136
 31
0.0
  0
LINE
  5
DC58
  8
0
 10
4872.7542784849538293
 20
240.7335821823810136
 30
0.0
 11
4872.5101839967546766
 21
240.7335821823810136
 31
0.0
  0
LINE
  5
DC59
  8
0
 10
4871.3448296660553751
 20
240.7335821823810136
 30
0.0
 11
4871.2227824219562535
 21
240.7335821823810136
 31
0.0
  0
LINE
  5
DC5A
  8
0
 10
4870.5849573308551044
 20
240.7335821823810988
 30
0.0
 11
4870.0968131306553914
 21
240.7335821823810136
 31
0.0
  0
LINE
  5
DC5B
  8
0
 10
4872.4904986652545631
 20
240.8044954418359112
 30
0.0
 11
4872.4432531095553713
 21
240.8044954418359112
 31
0.0
  0
LINE
  5
DC5C
  8
0
 10
4871.4117605523551902
 20
240.8044954418359112
 30
0.0
 11
4871.3645149975545792
 21
240.8044954418359112
 31
0.0
  0
LINE
  5
DC5D
  8
0
 10
4871.2287921574561551
 20
240.9265426859359138
 30
0.0
 11
4870.6788833060545585
 21
240.9265426859359138
 31
0.0
  0
ARC
  5
DC5E
  8
0
 10
4852.1079481305123409
 20
239.972444990490402
 30
0.0
 40
22.2981755595419884
 50
359.6799439669918002
 51
1.9307787239689429
  0
ARC
  5
DC5F
  8
0
 10
4872.4906691896567281
 20
240.7849806372655905
 30
0.0
 40
0.0195155495948701
 50
359.5002005493961974
 51
90.5006496380373164
  0
ARC
  5
DC60
  8
0
 10
4871.3645224840320225
 20
239.1312749600591019
 30
0.0
 40
0.019692905446315
 50
180.0228823088854142
 51
269.9782183683182097
  0
ARC
  5
DC61
  8
0
 10
4871.3645223507573974
 20
240.7848027570227885
 30
0.0
 40
0.019692686185875
 50
90.0213941071104244
 51
179.9777557055039097
  0
ARC
  5
DC62
  8
0
 10
4872.4904923146459623
 20
239.1312738432825995
 30
0.0
 40
0.0196917882708542
 50
270.0184782015119254
 51
359.9803657734727267
  0
ARC
  5
DC63
  8
0
 10
4870.0967981700596283
 20
239.1903222134498037
 30
0.0
 40
0.0196850394138788
 50
179.9983520442083034
 51
269.9999999832725734
  0
ARC
  5
DC64
  8
0
 10
4873.987088965213843
 20
250.9887804207523914
 30
0.0
 40
11.81683398161152
 50
270.7341849046795801
 51
271.8726830465921012
  0
ARC
  5
DC65
  8
0
 10
4873.6481327975352542
 20
240.7816930213257933
 30
0.0
 40
1.6111358862699141
 50
270.5711160778004114
 51
274.0858309261728891
  0
ARC
  5
DC66
  8
0
 10
4873.9324761553452845
 20
236.8183992858483009
 30
0.0
 40
2.3623448819629438
 50
86.9605913047396939
 51
94.1157338421761125
  0
ARC
  5
DC67
  8
0
 10
4873.0779505424743547
 20
221.0691246485629051
 30
0.0
 40
18.1347835717810213
 50
86.7075860680755426
 51
86.9029229214659722
  0
ARC
  5
DC68
  8
0
 10
4874.4540048569433566
 20
245.0176960969818083
 30
0.0
 40
5.8532886330390124
 50
266.7235179045010796
 51
266.910186374127079
  0
ARC
  5
DC69
  8
0
 10
4870.9038698764052242
 20
241.6208556533761964
 30
0.0
 40
0.9428464477533351
 50
250.2300495840974008
 51
289.7699504159015191
  0
ARC
  5
DC6A
  8
0
 10
4870.6789807615987229
 20
240.9067319931776012
 30
0.0
 40
0.0198109324654052
 50
90.2818551770188833
 51
165.7100537213250959
  0
ARC
  5
DC6B
  8
0
 10
4871.2278657022243351
 20
240.9060082838259973
 30
0.0
 40
0.0205552910294577
 50
2.1773010810035549
 51
87.4167253080906477
  0
ARC
  5
DC6C
  8
0
 10
4872.4435168622139827
 20
239.1321795587429904
 30
0.0
 40
0.0205991913133042
 50
238.8037209814038135
 51
269.2663655898824118
  0
ARC
  5
DC6D
  8
0
 10
4871.4114967967097982
 20
239.1321795716040128
 30
0.0
 40
0.0205992042343559
 50
270.7336472616526066
 51
301.1962650128916152
  0
ARC
  5
DC6E
  8
0
 10
4872.1435559986939552
 20
238.0012837110436124
 30
0.0
 40
1.326568755318531
 50
108.2166994898054071
 51
122.9427657170039936
  0
ARC
  5
DC6F
  8
0
 10
4871.6416259110792453
 20
237.8784688247465908
 30
0.0
 40
1.4676341420909
 50
57.3766989269742922
 51
67.17053876840302
  0
ARC
  5
DC70
  8
0
 10
4871.9304961248271866
 20
238.6169057447031889
 30
0.0
 40
0.6752690961265977
 50
65.4508533771644352
 51
107.3740509861255958
  0
ARC
  5
DC71
  8
0
 10
4872.406063822237229
 20
237.6616828142533109
 30
0.0
 40
1.8447658915039069
 50
115.5191617868933065
 51
125.1183786874257038
  0
ARC
  5
DC72
  8
0
 10
4871.4155464540299363
 20
237.6108173032311015
 30
0.0
 40
1.905588984963335
 50
54.9399058828577083
 51
63.2204543824470804
  0
ARC
  5
DC73
  8
0
 10
4871.9288081455615611
 20
238.7034349021803905
 30
0.0
 40
0.6997338106028512
 50
60.4291431544599433
 51
90.1059713646673117
  0
ARC
  5
DC74
  8
0
 10
4871.9298973677268805
 20
238.703153167291191
 30
0.0
 40
0.7000184061758531
 50
90.1950803009262074
 51
117.0717516822190021
  0
ARC
  5
DC75
  8
0
 10
4866.5540270038463859
 20
231.7619751072708993
 30
0.0
 40
10.1706206132367694
 50
60.4309235609342679
 51
61.8979594926920029
  0
ARC
  5
DC76
  8
0
 10
4889.5280490309223751
 20
209.4565131838753018
 30
0.0
 40
35.6070607528678593
 50
118.5506284017870939
 51
118.9819264853324938
  0
ARC
  5
DC77
  8
0
 10
4871.996943214510793
 20
241.4269947866143013
 30
0.0
 40
0.9222489051167313
 50
242.6296832467697868
 51
257.4595015863170033
  0
ARC
  5
DC78
  8
0
 10
4871.8318915864401788
 20
241.4877489816828984
 30
0.0
 40
0.9881851047418559
 50
286.4115463618032891
 51
296.6562693098417185
  0
ARC
  5
DC79
  8
0
 10
4871.9281812038498174
 20
241.1514026757965894
 30
0.0
 40
0.6383429267478848
 50
258.1131558279645901
 51
286.6505730029542178
  0
ARC
  5
DC7A
  8
0
 10
4871.4114968004851107
 20
240.7838979389728991
 30
0.0
 40
0.0205991914705302
 50
58.8037205589327812
 51
89.2663652856901848
  0
ARC
  5
DC7B
  8
0
 10
4872.443515396867042
 20
240.7839030628950923
 30
0.0
 40
0.0205940492637517
 50
90.7297429506284061
 51
121.2001706330115951
  0
ARC
  5
DC7C
  8
0
 10
4872.3632598111826155
 20
242.3039015322906948
 30
0.0
 40
1.7727938027998831
 50
237.9954719487099055
 51
243.6489972728996918
  0
ARC
  5
DC7D
  8
0
 10
4871.4591126242821701
 20
242.3566662111967958
 30
0.0
 40
1.834841504673234
 50
298.2235835426910739
 51
302.052175936340177
  0
ARC
  5
DC7E
  8
0
 10
4872.0005478464127009
 20
241.5628790552501073
 30
0.0
 40
0.947781122984039
 50
243.4136087229674104
 51
256.4232709796190761
  0
ARC
  5
DC7F
  8
0
 10
4871.8081561756553128
 20
241.6853550693136867
 30
0.0
 40
1.078321594820411
 50
285.7932177040573265
 51
298.7510394338135029
  0
ARC
  5
DC80
  8
0
 10
4871.9279616184003316
 20
241.2693387940960008
 30
0.0
 40
0.6454061127108643
 50
256.5697599588546041
 51
285.6105913023308744
  0
ARC
  5
DC81
  8
0
 10
4874.3712677834628266
 20
239.196318496676497
 30
0.0
 40
0.0181689623922502
 50
276.2549306105876212
 51
311.0706378388459257
  0
ARC
  5
DC82
  8
0
 10
4874.3617318189590151
 20
239.2051771229278927
 30
0.0
 40
0.0311426168343931
 50
313.5903859127660098
 51
358.2807221471842922
  0
ARC
  5
DC83
  8
0
 10
4860.4643464290893462
 20
239.8197795404566932
 30
0.0
 40
13.9421084276290195
 50
357.4695988938307778
 51
0.5654961634050735
  0
ARC
  5
DC84
  8
0
 10
4872.3379163357230937
 20
242.2542180153743061
 30
0.0
 40
1.7735218821582019
 50
235.9475394648744953
 51
246.1611218083438928
  0
ARC
  5
DC85
  8
0
 10
4871.9654287287976331
 20
241.4171567494774138
 30
0.0
 40
0.8573304767496781
 50
246.3213356492668993
 51
259.209189915524405
  0
ARC
  5
DC86
  8
0
 10
4871.5171609567869382
 20
242.2542180153743061
 30
0.0
 40
1.7735218821582019
 50
293.8388781916560788
 51
304.0499794945449139
  0
ARC
  5
DC87
  8
0
 10
4871.8896485637133082
 20
241.4171567494774138
 30
0.0
 40
0.8573304767496781
 50
280.790810084475595
 51
293.6786643507330723
  0
ARC
  5
DC88
  8
0
 10
4871.9275386462550159
 20
241.224156123228596
 30
0.0
 40
0.6606495925927091
 50
259.3033558307816975
 51
280.6966441692184162
  0
ARC
  5
DC89
  8
0
 10
4872.3379163357230937
 20
237.6618594824975901
 30
0.0
 40
1.7735218821582019
 50
113.838878191656093
 51
124.0524638835942
  0
ARC
  5
DC8A
  8
0
 10
4871.9654287287976331
 20
238.4989207483943972
 30
0.0
 40
0.8573304767496781
 50
100.7908100844754955
 51
113.6786643507330012
  0
ARC
  5
DC8B
  8
0
 10
4871.5171609567869382
 20
237.6618594824975901
 30
0.0
 40
1.7735218821582019
 50
55.9500164156248516
 51
66.161121808343907
  0
ARC
  5
DC8C
  8
0
 10
4871.8896485637133082
 20
238.4989207483943972
 30
0.0
 40
0.8573304767496781
 50
66.3213356492669561
 51
79.2091899155244334
  0
ARC
  5
DC8D
  8
0
 10
4871.9275386462550159
 20
238.6919213746431865
 30
0.0
 40
0.6606495925927091
 50
79.3033558307816833
 51
100.6966441692183025
  0
LINE
  5
DC8E
  8
0
 10
4874.2304629181562632
 20
240.4749249918710916
 30
0.0
 11
4874.3732473362733799
 21
240.433142596035907
 31
0.0
  0
LINE
  5
DC8F
  8
0
 10
4874.3732473362733799
 20
240.433142596035907
 30
0.0
 11
4874.3732473358550124
 21
239.1782576947358905
 31
0.0
  0
ARC
  5
DC90
  8
0
 10
4873.9388882185339753
 20
240.7648153341899047
 30
0.0
 40
0.4111595992180106
 50
269.4401071700903003
 51
315.1659709316086264
  0
ARC
  5
DC91
  8
0
 10
4873.9753987632311691
 20
240.9259401716010132
 30
0.0
 40
0.5736981372141772
 50
199.9375596215635085
 51
265.9490237068288252
  0
LINE
  5
DC92
  8
0
 10
4873.6498727537573359
 20
238.8792410998873947
 30
0.0
 11
4873.6498727537573359
 21
239.1706371741358907
 31
0.0
  0
LINE
  5
DC93
  8
0
 10
4874.2207351778552038
 20
238.8861086538749134
 30
0.0
 11
4874.2207351778552038
 21
239.174256528682605
 31
0.0
  0
ARC
  5
DC94
  8
0
 10
4873.8042112806169825
 20
246.5449284172364059
 30
0.0
 40
2.4136676734021609
 50
91.4300920918444291
 51
120.5760353934707041
  0
ARC
  5
DC95
  8
0
 10
4873.4477035678892207
 20
246.8293852259145069
 30
0.0
 40
1.9940254366228201
 50
115.9091407634203961
 51
182.728086956312211
  0
ARC
  5
DC96
  8
0
 10
4873.4616100772200298
 20
246.7051752425747964
 30
0.0
 40
2.0058860781546288
 50
179.1629893662473023
 51
238.7039743833711896
  0
ARC
  5
DC97
  8
0
 10
4849.4729610685708394
 20
216.2631007947964861
 30
0.0
 40
36.7675249881712176
 50
50.3542005758090525
 51
51.3837212340070693
  0
ARC
  5
DC98
  8
0
 10
4872.2491124063963071
 20
243.7182623192545918
 30
0.0
 40
1.0950535540491551
 50
21.87565628518038
 51
51.412881761884961
  0
ARC
  5
DC99
  8
0
 10
4872.3977453802153832
 20
243.7922202595914882
 30
0.0
 40
0.9296611689740297
 50
1.58721292751163
 51
21.0588422784723797
  0
ARC
  5
DC9A
  8
0
 10
2616.5273613489880518
 20
187.9456096945388026
 30
0.0
 40
2257.4912081247080096
 50
1.3404901848811741
 51
1.4182014826299949
  0
ARC
  5
DC9B
  8
0
 10
4873.9883283686458526
 20
244.3039344824557872
 30
0.0
 40
3.6160411725339991
 50
260.9922359328701873
 51
269.1597722204696765
  0
ARC
  5
DC9C
  8
0
 10
4873.426147770697753
 20
240.7575762087917042
 30
0.0
 40
0.0254
 50
181.3404901848697932
 51
260.9922359328700168
  0
ARC
  5
DC9D
  8
0
 10
4874.0106014020257135
 20
244.3559429140559018
 30
0.0
 40
0.7118909310061742
 50
201.1797399489196891
 51
240.3703018833616909
  0
ARC
  5
DC9E
  8
0
 10
4873.9361410009250903
 20
244.224939478620314
 30
0.0
 40
0.5612050024803898
 50
240.3658867938590049
 51
269.8439350144718105
  0
ARC
  5
DC9F
  8
0
 10
4872.2607280490155972
 20
243.680582980138098
 30
0.0
 40
1.1637880270483849
 50
21.0576534690239683
 51
52.8424354234149689
  0
ARC
  5
DCA0
  8
0
 10
4880.3060618164399784
 20
254.296235736850889
 30
0.0
 40
12.1561023208619297
 50
228.6384019369160967
 51
232.8424354234149973
  0
ARC
  5
DCA1
  8
0
 10
4873.3963132691542341
 20
246.6582911918476952
 30
0.0
 40
1.862575417757544
 50
185.5695806724712895
 51
232.9157172566499128
  0
ARC
  5
DCA2
  8
0
 10
4873.2410968646199763
 20
246.5858060245454908
 30
0.0
 40
1.702014125489006
 50
141.8533822216953126
 51
183.647756701480688
  0
ARC
  5
DCA3
  8
0
 10
4873.7047888068209431
 20
246.2236421914442985
 30
0.0
 40
2.290377084417611
 50
112.0578880916292945
 51
141.8932543066256073
  0
ARC
  5
DCA4
  8
0
 10
4873.9270852819781794
 20
245.7344022395330114
 30
0.0
 40
2.827376895197236
 50
89.8474661641559749
 51
112.5096876902975964
  0
ARC
  5
DCA5
  8
0
 10
4873.9186141572699853
 20
245.807879035169492
 30
0.0
 40
2.8519181337222692
 50
89.6785901306135713
 51
124.0436060122109012
  0
ARC
  5
DCA6
  8
0
 10
4873.4384823650489125
 20
246.5185364203017002
 30
0.0
 40
1.9942699209074479
 50
124.0436060122109012
 51
173.7837848625061952
  0
ARC
  5
DCA7
  8
0
 10
4873.7120930505789147
 20
248.1091196984556859
 30
0.0
 40
0.0220238406618899
 50
82.725038174921977
 51
281.2287278120618907
  0
ARC
  5
DCA8
  8
0
 10
4873.7157639662946167
 20
248.1092464067752985
 30
0.0
 40
0.0217377389120819
 50
271.6283436917358927
 51
92.3254222952475061
  0
LINE
  5
DCA9
  8
0
 10
4873.6498033161788044
 20
248.144516808093698
 30
0.0
 11
4873.6498366860778333
 21
248.1183715661937015
 31
0.0
  0
ARC
  5
DCAA
  8
0
 10
4873.7108467008665684
 20
248.1211125041735102
 30
0.0
 40
0.0610715534888087
 50
182.5723424233121079
 51
246.3308897016648871
  0
ARC
  5
DCAB
  8
0
 10
4873.7132255262013132
 20
248.1265395673636078
 30
0.0
 40
0.0669970766585589
 50
246.3308897016648871
 51
332.4315603757933104
  0
ARC
  5
DCAC
  8
0
 10
4873.7336702929051171
 20
248.1158656370211872
 30
0.0
 40
0.0439336581229258
 50
332.4315603757933104
 51
358.8488007310261878
  0
LINE
  5
DCAD
  8
0
 10
4873.7775950833793104
 20
248.1149829717936939
 30
0.0
 11
4873.7777561265957047
 21
248.1426245575808025
 31
0.0
  0
ARC
  5
DCAE
  8
0
 10
4873.7110509441672548
 20
248.1438676870814959
 30
0.0
 40
0.0612510676823524
 50
87.0072128386655663
 51
179.3927846156587123
  0
ARC
  5
DCAF
  8
0
 10
4873.7107415245181983
 20
248.1379493531815967
 30
0.0
 40
0.067177484531506
 50
3.9907148924118698
 51
87.0072128386655663
  0
ARC
  5
DCB0
  8
0
 10
4873.9346116036786043
 20
242.7545012129943132
 30
0.0
 40
4.2580726628993988
 50
90.1383396389592804
 51
94.6318899422177253
  0
ARC
  5
DCB1
  8
0
 10
4873.6365284429957683
 20
246.43370890083321
 30
0.0
 40
0.5668096296089759
 50
94.6318899422177253
 51
132.5221610261540093
  0
ARC
  5
DCB2
  8
0
 10
4873.5073092814782285
 20
246.5746174131309942
 30
0.0
 40
0.3756217624696922
 50
132.5221610261540093
 51
173.4024723549823079
  0
ARC
  5
DCB3
  8
0
 10
4874.6929835285300214
 20
246.4374820694823995
 30
0.0
 40
1.5692002151068629
 50
173.4024723549823079
 51
186.6096591042320938
  0
ARC
  5
DCB4
  8
0
 10
4873.6227085802938745
 20
246.3628319166406868
 30
0.0
 40
0.4998577894107502
 50
192.2398390942925062
 51
266.3230359061441845
  0
ARC
  5
DCB5
  8
0
 10
4873.9346290712928749
 20
248.7905874622477995
 30
0.0
 40
2.94672974474451
 50
263.2964802588920747
 51
269.7997571086470998
  0
ARC
  5
DCB6
  8
0
 10
4873.914049542479006
 20
242.7545012129943132
 30
0.0
 40
4.2580726628993988
 50
85.3681100577822605
 51
89.8616603610407338
  0
ARC
  5
DCB7
  8
0
 10
4874.2121327031627516
 20
246.43370890083321
 30
0.0
 40
0.5668096296089759
 50
47.4778389738459197
 51
85.3681100577822605
  0
ARC
  5
DCB8
  8
0
 10
4874.3413518646802913
 20
246.5746174131309942
 30
0.0
 40
0.3756217624696922
 50
6.5975276450176548
 51
47.4778389738459197
  0
ARC
  5
DCB9
  8
0
 10
4873.1556776176275889
 20
246.4374820694823995
 30
0.0
 40
1.5692002151068629
 50
353.3903408957662009
 51
6.5975276450176548
  0
ARC
  5
DCBA
  8
0
 10
4874.2259525658637358
 20
246.3628319166406868
 30
0.0
 40
0.4998577894107502
 50
273.6769640938558155
 51
347.7601609057074938
  0
ARC
  5
DCBB
  8
0
 10
4873.914032074865645
 20
248.7905874622477995
 30
0.0
 40
2.94672974474451
 50
270.2002428913527865
 51
276.7035197411079253
  0
ARC
  5
DCBC
  8
0
 10
4873.4588100425144148
 20
246.2466749918455093
 30
0.0
 40
0.053340073914535
 50
86.5436946793946191
 51
198.4023246923673014
  0
ARC
  5
DCBD
  8
0
 10
4873.457151201941997
 20
246.2461230942797954
 30
0.0
 40
0.051591833952649
 50
198.4023246923673014
 51
275.4215915704174904
  0
ARC
  5
DCBE
  8
0
 10
4873.4634761533852725
 20
246.2511199622190929
 30
0.0
 40
0.0563765618802766
 50
268.525813511788499
 51
343.7903755362668221
  0
ARC
  5
DCBF
  8
0
 10
4873.4645638589572627
 20
246.2458977514000082
 30
0.0
 40
0.0540798839809999
 50
348.7878264914724014
 51
92.6900029226423641
  0
ARC
  5
DCC0
  8
0
 10
4873.4605555348225607
 20
246.2574549690478989
 30
0.0
 40
0.087455636302521
 50
211.7766659779072995
 51
270.9632640099114838
  0
ARC
  5
DCC1
  8
0
 10
4873.4522208724729353
 20
246.2522919574925027
 30
0.0
 40
0.0776513879982672
 50
169.6510366562768866
 51
211.7766659779072995
  0
ARC
  5
DCC2
  8
0
 10
4873.4602353167001638
 20
246.2422871769132939
 30
0.0
 40
0.0877360013887729
 50
95.5539989263951952
 51
164.1555240633765038
  0
ARC
  5
DCC3
  8
0
 10
4873.4633576010137404
 20
246.2574110082420873
 30
0.0
 40
0.087409462993095
 50
269.1269752902226173
 51
331.0644360775818882
  0
ARC
  5
DCC4
  8
0
 10
4873.4867133993411699
 20
246.2475102999084129
 30
0.0
 40
0.0622349069558286
 50
328.6374736489722181
 51
6.9540997524239421
  0
ARC
  5
DCC5
  8
0
 10
4873.4688599995915865
 20
246.2484295042901863
 30
0.0
 40
0.0799048281514303
 50
4.7493232466011301
 51
64.1234310398423446
  0
ARC
  5
DCC6
  8
0
 10
4873.4620460254500358
 20
246.2371335920971092
 30
0.0
 40
0.0930497691628509
 50
63.3839751870489394
 51
96.3566142337626559
  0
ARC
  5
DCC7
  8
0
 10
4873.9320973739086185
 20
244.0773940821366921
 30
0.0
 40
0.3587648811798778
 50
89.5983453021568437
 51
117.4424421806073013
  0
ARC
  5
DCC8
  8
0
 10
4873.9302573987497453
 20
244.2643033244098945
 30
0.0
 40
0.2854016372740877
 50
195.3807565159767989
 51
270.8743149379636179
  0
ARC
  5
DCC9
  8
0
 10
4873.8483927768211288
 20
244.2156163151720136
 30
0.0
 40
0.1978037493041516
 50
114.3749440754664022
 51
170.3638048051952865
  0
ARC
  5
DCCA
  8
0
 10
4873.8322132355169742
 20
244.2236919323241864
 30
0.0
 40
0.1805771345647331
 50
172.0308904085057122
 51
191.2039001636088074
  0
ARC
  5
DCCB
  8
0
 10
4873.4567144116508643
 20
244.6696350484295976
 30
0.0
 40
0.2337983887487051
 50
106.6063643087047978
 51
154.8221185996816018
  0
ARC
  5
DCCC
  8
0
 10
4873.4970777992002695
 20
244.5342936691914133
 30
0.0
 40
0.3750304388951984
 50
50.5215427569570181
 51
106.6063643087047978
  0
ARC
  5
DCCD
  8
0
 10
4873.6182948718424086
 20
244.6814544357227987
 30
0.0
 40
0.1843740204199287
 50
355.3221099329480239
 51
50.5215427569570181
  0
ARC
  5
DCCE
  8
0
 10
4873.6377733969929977
 20
244.6735162116638946
 30
0.0
 40
0.1644346093184204
 50
308.6347114371550902
 51
357.5259271491480035
  0
ARC
  5
DCCF
  8
0
 10
4873.5516011338113458
 20
244.7646770228739967
 30
0.0
 40
0.289632733632529
 50
259.1760117033163056
 51
310.6917689289904274
  0
ARC
  5
DCD0
  8
0
 10
4873.5510778975949506
 20
244.82683402965651
 30
0.0
 40
0.3507973690653712
 50
218.5834390877473083
 51
261.166843125077321
  0
ARC
  5
DCD1
  8
0
 10
4873.4114553016406717
 20
244.7182246129412135
 30
0.0
 40
0.1739332294707225
 50
162.9923804943315986
 51
219.3002861020165142
  0
ARC
  5
DCD2
  8
0
 10
4874.4125103199057776
 20
244.6696350484295976
 30
0.0
 40
0.2337983887487051
 50
25.1778814003184195
 51
73.3936356912952022
  0
ARC
  5
DCD3
  8
0
 10
4874.3721469323572819
 20
244.5342936691914133
 30
0.0
 40
0.3750304388951984
 50
73.3936356912952022
 51
129.4784572430430103
  0
ARC
  5
DCD4
  8
0
 10
4874.2509298597160523
 20
244.6814544357227987
 30
0.0
 40
0.1843740204199287
 50
129.4784572430430103
 51
184.6778900670502992
  0
ARC
  5
DCD5
  8
0
 10
4874.2314513345645537
 20
244.6735162116638946
 30
0.0
 40
0.1644346093184204
 50
182.4740728508502912
 51
231.3652885628449098
  0
ARC
  5
DCD6
  8
0
 10
4874.3176235977471151
 20
244.7646770228739967
 30
0.0
 40
0.289632733632529
 50
229.308231071009601
 51
280.8239882966836944
  0
ARC
  5
DCD7
  8
0
 10
4874.3181468339626008
 20
244.82683402965651
 30
0.0
 40
0.3507973690653712
 50
278.8331568749227927
 51
321.4165609122526917
  0
ARC
  5
DCD8
  8
0
 10
4874.4577694299159702
 20
244.7182246129412135
 30
0.0
 40
0.1739332294707225
 50
320.6997138979834858
 51
17.0076195056684085
  0
ARC
  5
DCD9
  8
0
 10
4873.9371273576498425
 20
244.0773940821366921
 30
0.0
 40
0.3587648811798865
 50
62.5575578193926987
 51
90.4016546978431563
  0
ARC
  5
DCDA
  8
0
 10
4873.9389673328087156
 20
244.2643033244098945
 30
0.0
 40
0.2854016372740877
 50
269.1256850620363252
 51
344.6192434840231726
  0
ARC
  5
DCDB
  8
0
 10
4874.0208319547373321
 20
244.2156163151720136
 30
0.0
 40
0.1978037493041516
 50
9.6361951948047189
 51
65.625055924533541
  0
ARC
  5
DCDC
  8
0
 10
4874.0370114960396677
 20
244.2236919323241864
 30
0.0
 40
0.1805771345647331
 50
348.796099836391079
 51
7.9691095914942718
  0
ARC
  5
DCDD
  8
0
 10
4873.6631968557549044
 20
247.705788390961402
 30
0.0
 40
0.0220238406618899
 50
82.725038174921977
 51
281.2287278120618907
  0
ARC
  5
DCDE
  8
0
 10
4873.6668677714724254
 20
247.7059150992810999
 30
0.0
 40
0.0217377389120819
 50
271.6283436917358927
 51
92.3254222952475061
  0
LINE
  5
DCDF
  8
0
 10
4873.6009071213557036
 20
247.7411855005994141
 30
0.0
 11
4873.600940491255642
 21
247.7150402586993891
 31
0.0
  0
ARC
  5
DCE0
  8
0
 10
4873.6619505060443771
 20
247.7177811966791978
 30
0.0
 40
0.0610715534888087
 50
182.5723424233121079
 51
246.3308897016648871
  0
ARC
  5
DCE1
  8
0
 10
4873.6643293313773029
 20
247.7232082598692955
 30
0.0
 40
0.0669970766585589
 50
246.3308897016648871
 51
332.4315603757933104
  0
ARC
  5
DCE2
  8
0
 10
4873.6847740980820163
 20
247.7125343295269033
 30
0.0
 40
0.0439336581229258
 50
332.4315603757933104
 51
358.8488007310261878
  0
LINE
  5
DCE3
  8
0
 10
4873.7286988885553001
 20
247.71165166429941
 30
0.0
 11
4873.7288599317726039
 21
247.7392932500866038
 31
0.0
  0
ARC
  5
DCE4
  8
0
 10
4873.6621547493432445
 20
247.7405363795872972
 30
0.0
 40
0.0612510676823524
 50
87.0072128386655663
 51
179.3927846156587123
  0
ARC
  5
DCE5
  8
0
 10
4873.661845329694188
 20
247.7346180456873981
 30
0.0
 40
0.067177484531506
 50
3.9907148924118698
 51
87.0072128386655663
  0
ARC
  5
DCE6
  8
0
 10
4873.7787515273976169
 20
247.3204620613441875
 30
0.0
 40
0.0220238406618899
 50
82.725038174921977
 51
281.2287278120618907
  0
ARC
  5
DCE7
  8
0
 10
4873.7824224431142284
 20
247.3205887696639138
 30
0.0
 40
0.0217377389120819
 50
271.6283436917358927
 51
92.3254222952475061
  0
LINE
  5
DCE8
  8
0
 10
4873.7164617929984161
 20
247.3558591709821997
 30
0.0
 11
4873.716495162899264
 21
247.3297139290822031
 31
0.0
  0
ARC
  5
DCE9
  8
0
 10
4873.7775051776870896
 20
247.3324548670620118
 30
0.0
 40
0.0610715534888087
 50
182.5723424233121079
 51
246.3308897016648871
  0
ARC
  5
DCEA
  8
0
 10
4873.7798840030200154
 20
247.3378819302521094
 30
0.0
 40
0.0669970766585589
 50
246.3308897016648871
 51
332.4315603757933104
  0
ARC
  5
DCEB
  8
0
 10
4873.8003287697238193
 20
247.3272079999096889
 30
0.0
 40
0.0439336581229258
 50
332.4315603757933104
 51
358.8488007310261878
  0
LINE
  5
DCEC
  8
0
 10
4873.8442535601980126
 20
247.3263253346821955
 30
0.0
 11
4873.8444146034153164
 21
247.3539669204693894
 31
0.0
  0
ARC
  5
DCED
  8
0
 10
4873.777709420985957
 20
247.3552100499701112
 30
0.0
 40
0.0612510676823524
 50
87.0072128386655663
 51
179.3927846156587123
  0
ARC
  5
DCEE
  8
0
 10
4873.777400001335991
 20
247.349291716070212
 30
0.0
 40
0.067177484531506
 50
3.9907148924118698
 51
87.0072128386655663
  0
ARC
  5
DCEF
  8
0
 10
4873.1606366458718185
 20
247.5525031576692925
 30
0.0
 40
0.0220238406618899
 50
82.725038174921977
 51
281.2287278120618907
  0
ARC
  5
DCF0
  8
0
 10
4873.16430756158843
 20
247.5526298659889903
 30
0.0
 40
0.0217377389120819
 50
271.6283436917358927
 51
92.3254222952475061
  0
LINE
  5
DCF1
  8
0
 10
4873.0983469114717082
 20
247.5879002673073046
 30
0.0
 11
4873.0983802813725561
 21
247.5617550254073933
 31
0.0
  0
ARC
  5
DCF2
  8
0
 10
4873.1593902961612912
 20
247.5644959633870883
 30
0.0
 40
0.0610715534888087
 50
182.5723424233121079
 51
246.3308897016648871
  0
ARC
  5
DCF3
  8
0
 10
4873.1617691214951265
 20
247.569923026577186
 30
0.0
 40
0.0669970766585589
 50
246.3308897016648871
 51
332.4315603757933104
  0
ARC
  5
DCF4
  8
0
 10
4873.1822138881989304
 20
247.5592490962347938
 30
0.0
 40
0.0439336581229258
 50
332.4315603757933104
 51
358.8488007310261878
  0
LINE
  5
DCF5
  8
0
 10
4873.2261386786722142
 20
247.5583664310073004
 30
0.0
 11
4873.2262997218886085
 21
247.5860080167944943
 31
0.0
  0
ARC
  5
DCF6
  8
0
 10
4873.1595945394601586
 20
247.5872511462951877
 30
0.0
 40
0.0612510676823524
 50
87.0072128386655663
 51
179.3927846156587123
  0
ARC
  5
DCF7
  8
0
 10
4873.159285119811102
 20
247.5813328123952886
 30
0.0
 40
0.067177484531506
 50
3.9907148924118698
 51
87.0072128386655663
  0
ARC
  5
DCF8
  8
0
 10
4873.0616936177948446
 20
246.9784014703043908
 30
0.0
 40
0.0220238406618899
 50
82.725038174921977
 51
281.2287278120618907
  0
ARC
  5
DCF9
  8
0
 10
4873.0653645335123656
 20
246.9785281786240034
 30
0.0
 40
0.0217377389120819
 50
271.6283436917358927
 51
92.3254222952475061
  0
LINE
  5
DCFA
  8
0
 10
4872.9994038833956438
 20
247.013798579942403
 30
0.0
 11
4872.9994372532946727
 21
246.9876533380424064
 31
0.0
  0
ARC
  5
DCFB
  8
0
 10
4873.0604472680843173
 20
246.9903942760221014
 30
0.0
 40
0.0610715534888087
 50
182.5723424233121079
 51
246.3308897016648871
  0
ARC
  5
DCFC
  8
0
 10
4873.0628260934172431
 20
246.9958213392123128
 30
0.0
 40
0.0669970766585589
 50
246.3308897016648871
 51
332.4315603757933104
  0
ARC
  5
DCFD
  8
0
 10
4873.0832708601219565
 20
246.9851474088698069
 30
0.0
 40
0.0439336581229258
 50
332.4315603757933104
 51
358.8488007310261878
  0
LINE
  5
DCFE
  8
0
 10
4873.1271956505961498
 20
246.9842647436423135
 30
0.0
 11
4873.1273566938134536
 21
247.0119063294295074
 31
0.0
  0
ARC
  5
DCFF
  8
0
 10
4873.0606515113840942
 20
247.0131494589302008
 30
0.0
 40
0.0612510676823524
 50
87.0072128386655663
 51
179.3927846156587123
  0
ARC
  5
DD00
  8
0
 10
4873.0603420917341282
 20
247.0072311250303017
 30
0.0
 40
0.067177484531506
 50
3.9907148924118698
 51
87.0072128386655663
  0
ARC
  5
DD01
  8
0
 10
4872.9134821816624026
 20
246.7524165452740021
 30
0.0
 40
0.0220238406618899
 50
82.725038174921977
 51
281.2287278120618907
  0
ARC
  5
DD02
  8
0
 10
4872.9171530973790141
 20
246.7525432535937
 30
0.0
 40
0.0217377389120819
 50
271.6283436917358927
 51
92.3254222952475061
  0
LINE
  5
DD03
  8
0
 10
4872.8511924472632018
 20
246.7878136549119859
 30
0.0
 11
4872.8512258171631402
 21
246.7616684130119893
 31
0.0
  0
ARC
  5
DD04
  8
0
 10
4872.9122358319500563
 20
246.7644093509917127
 30
0.0
 40
0.0610715534888087
 50
182.5723424233121079
 51
246.3308897016648871
  0
ARC
  5
DD05
  8
0
 10
4872.9146146572848011
 20
246.7698364141818956
 30
0.0
 40
0.0669970766585589
 50
246.3308897016648871
 51
332.4315603757933104
  0
ARC
  5
DD06
  8
0
 10
4872.935059423988605
 20
246.7591624838395035
 30
0.0
 40
0.0439336581229258
 50
332.4315603757933104
 51
358.8488007310261878
  0
LINE
  5
DD07
  8
0
 10
4872.9789842144618888
 20
246.7582798186120101
 30
0.0
 11
4872.9791452576801021
 21
246.7859214043990903
 31
0.0
  0
ARC
  5
DD08
  8
0
 10
4872.9124400752507427
 20
246.7871645338998121
 30
0.0
 40
0.0612510676823524
 50
87.0072128386655663
 51
179.3927846156587123
  0
ARC
  5
DD09
  8
0
 10
4872.9121306556007767
 20
246.781246199999913
 30
0.0
 40
0.067177484531506
 50
3.9907148924118698
 51
87.0072128386655663
  0
ARC
  5
DD0A
  8
0
 10
4872.9077723353957481
 20
246.0621983535899915
 30
0.0
 40
0.0220238406618899
 50
82.725038174921977
 51
281.2287278120618907
  0
ARC
  5
DD0B
  8
0
 10
4872.9114432511123596
 20
246.0623250619096041
 30
0.0
 40
0.0217377389120819
 50
271.6283436917358927
 51
92.3254222952475061
  0
LINE
  5
DD0C
  8
0
 10
4872.8454826009956378
 20
246.0975954632278899
 30
0.0
 11
4872.8455159708955762
 21
246.0714502213278934
 31
0.0
  0
ARC
  5
DD0D
  8
0
 10
4872.9065259856843113
 20
246.074191159307702
 30
0.0
 40
0.0610715534888087
 50
182.5723424233121079
 51
246.3308897016648871
  0
ARC
  5
DD0E
  8
0
 10
4872.9089048110181466
 20
246.0796182224977997
 30
0.0
 40
0.0669970766585589
 50
246.3308897016648871
 51
332.4315603757933104
  0
ARC
  5
DD0F
  8
0
 10
4872.9293495777219505
 20
246.0689442921554075
 30
0.0
 40
0.0439336581229258
 50
332.4315603757933104
 51
358.8488007310261878
  0
LINE
  5
DD10
  8
0
 10
4872.9732743681961438
 20
246.0680616269279142
 30
0.0
 11
4872.9734354114134476
 21
246.0957032127151081
 31
0.0
  0
ARC
  5
DD11
  8
0
 10
4872.9067302289840882
 20
246.0969463422158015
 30
0.0
 40
0.0612510676823524
 50
87.0072128386655663
 51
179.3927846156587123
  0
ARC
  5
DD12
  8
0
 10
4872.9064208093341222
 20
246.0910280083159023
 30
0.0
 40
0.067177484531506
 50
3.9907148924118698
 51
87.0072128386655663
  0
ARC
  5
DD13
  8
0
 10
4873.0621866636738559
 20
245.8372990608235966
 30
0.0
 40
0.0220238406618899
 50
82.725038174921977
 51
281.2287278120618907
  0
ARC
  5
DD14
  8
0
 10
4873.0658575793913769
 20
245.8374257691432945
 30
0.0
 40
0.0217377389120819
 50
271.6283436917358927
 51
92.3254222952475061
  0
LINE
  5
DD15
  8
0
 10
4872.9998969292746551
 20
245.8726961704616087
 30
0.0
 11
4872.9999302991764125
 21
245.8465509285616122
 31
0.0
  0
ARC
  5
DD16
  8
0
 10
4873.0609403139651477
 20
245.8492918665413924
 30
0.0
 40
0.0610715534888087
 50
182.5723424233121079
 51
246.3308897016648871
  0
ARC
  5
DD17
  8
0
 10
4873.0633191392980734
 20
245.8547189297314901
 30
0.0
 40
0.0669970766585589
 50
246.3308897016648871
 51
332.4315603757933104
  0
ARC
  5
DD18
  8
0
 10
4873.0837639060018773
 20
245.8440449993890979
 30
0.0
 40
0.0439336581229258
 50
332.4315603757933104
 51
358.8488007310261878
  0
LINE
  5
DD19
  8
0
 10
4873.1276886964751611
 20
245.8431623341616898
 30
0.0
 11
4873.1278497396933744
 21
245.8708039199487985
 31
0.0
  0
ARC
  5
DD1A
  8
0
 10
4873.0611445572631055
 20
245.8720470494494919
 30
0.0
 40
0.0612510676823524
 50
87.0072128386655663
 51
179.3927846156587123
  0
ARC
  5
DD1B
  8
0
 10
4873.060835137614049
 20
245.8661287155495927
 30
0.0
 40
0.067177484531506
 50
3.9907148924118698
 51
87.0072128386655663
  0
ARC
  5
DD1C
  8
0
 10
4873.7811776406097124
 20
245.4810169368963955
 30
0.0
 40
0.0220238406618899
 50
82.725038174921977
 51
281.2287278120618907
  0
ARC
  5
DD1D
  8
0
 10
4873.7848485563281429
 20
245.4811436452160081
 30
0.0
 40
0.0217377389120819
 50
271.6283436917358927
 51
92.3254222952475061
  0
LINE
  5
DD1E
  8
0
 10
4873.7188879062114211
 20
245.5164140465344076
 30
0.0
 11
4873.7189212761113595
 21
245.490268804634411
 31
0.0
  0
ARC
  5
DD1F
  8
0
 10
4873.7799312909010041
 20
245.4930097426141913
 30
0.0
 40
0.0610715534888087
 50
182.5723424233121079
 51
246.3308897016648871
  0
ARC
  5
DD20
  8
0
 10
4873.7823101162330204
 20
245.498436805804289
 30
0.0
 40
0.0669970766585589
 50
246.3308897016648871
 51
332.4315603757933104
  0
ARC
  5
DD21
  8
0
 10
4873.8027548829368243
 20
245.4877628754618968
 30
0.0
 40
0.0439336581229258
 50
332.4315603757933104
 51
358.8488007310261878
  0
LINE
  5
DD22
  8
0
 10
4873.8466796734110176
 20
245.4868802102344034
 30
0.0
 11
4873.8468407166292309
 21
245.5145217960215973
 31
0.0
  0
ARC
  5
DD23
  8
0
 10
4873.780135534198962
 20
245.5157649255222054
 30
0.0
 40
0.0612510676823524
 50
87.0072128386655663
 51
179.3927846156587123
  0
ARC
  5
DD24
  8
0
 10
4873.779826114548996
 20
245.5098465916223915
 30
0.0
 40
0.067177484531506
 50
3.9907148924118698
 51
87.0072128386655663
  0
ARC
  5
DD25
  8
0
 10
4873.6647169289390149
 20
245.1497708747131128
 30
0.0
 40
0.0220238406618899
 50
82.725038174921977
 51
281.2287278120618907
  0
ARC
  5
DD26
  8
0
 10
4873.6683878446547169
 20
245.1498975830328106
 30
0.0
 40
0.0217377389120819
 50
271.6283436917358927
 51
92.3254222952475061
  0
LINE
  5
DD27
  8
0
 10
4873.6024271945389046
 20
245.1851679843510965
 30
0.0
 11
4873.602460564438843
 21
245.1590227424510999
 31
0.0
  0
ARC
  5
DD28
  8
0
 10
4873.6634705792266686
 20
245.1617636804309086
 30
0.0
 40
0.0610715534888087
 50
182.5723424233121079
 51
246.3308897016648871
  0
ARC
  5
DD29
  8
0
 10
4873.6658494045595944
 20
245.1671907436210063
 30
0.0
 40
0.0669970766585589
 50
246.3308897016648871
 51
332.4315603757933104
  0
ARC
  5
DD2A
  8
0
 10
4873.6862941712652173
 20
245.1565168132786141
 30
0.0
 40
0.0439336581229258
 50
332.4315603757933104
 51
358.8488007310261878
  0
LINE
  5
DD2B
  8
0
 10
4873.7302189617394106
 20
245.1556341480510923
 30
0.0
 11
4873.7303800049558049
 21
245.1832757338382862
 31
0.0
  0
ARC
  5
DD2C
  8
0
 10
4873.663674822527355
 20
245.184518863339008
 30
0.0
 40
0.0612510676823524
 50
87.0072128386655663
 51
179.3927846156587123
  0
ARC
  5
DD2D
  8
0
 10
4873.663365402877389
 20
245.1786005294391089
 30
0.0
 40
0.067177484531506
 50
3.9907148924118698
 51
87.0072128386655663
  0
ARC
  5
DD2E
  8
0
 10
4873.1614817374256745
 20
245.3146895810941999
 30
0.0
 40
0.0220238406618899
 50
82.725038174921977
 51
281.2287278120618907
  0
ARC
  5
DD2F
  8
0
 10
4873.1651526531431955
 20
245.3148162894138977
 30
0.0
 40
0.0217377389120819
 50
271.6283436917358927
 51
92.3254222952475061
  0
LINE
  5
DD30
  8
0
 10
4873.0991920030255642
 20
245.350086690732212
 30
0.0
 11
4873.0992253729264121
 21
245.323941448832187
 31
0.0
  0
ARC
  5
DD31
  8
0
 10
4873.1602353877151472
 20
245.3266823868119957
 30
0.0
 40
0.0610715534888087
 50
182.5723424233121079
 51
246.3308897016648871
  0
ARC
  5
DD32
  8
0
 10
4873.162614213048073
 20
245.3321094500020934
 30
0.0
 40
0.0669970766585589
 50
246.3308897016648871
 51
332.4315603757933104
  0
ARC
  5
DD33
  8
0
 10
4873.1830589797527864
 20
245.3214355196597012
 30
0.0
 40
0.0439336581229258
 50
332.4315603757933104
 51
358.8488007310261878
  0
LINE
  5
DD34
  8
0
 10
4873.2269837702260702
 20
245.3205528544322078
 30
0.0
 11
4873.2271448134442835
 21
245.348194440219288
 31
0.0
  0
ARC
  5
DD35
  8
0
 10
4873.1604396310140146
 20
245.3494375697200098
 30
0.0
 40
0.0612510676823524
 50
87.0072128386655663
 51
179.3927846156587123
  0
ARC
  5
DD36
  8
0
 10
4873.1601302113649581
 20
245.3435192358201959
 30
0.0
 40
0.067177484531506
 50
3.9907148924118698
 51
87.0072128386655663
  0
ARC
  5
DD37
  8
0
 10
4872.8815936004666582
 20
245.0857984797056019
 30
0.0
 40
0.0220238406618899
 50
82.725038174921977
 51
281.2287278120618907
  0
ARC
  5
DD38
  8
0
 10
4872.8852645161850887
 20
245.0859251880251861
 30
0.0
 40
0.0217377389120819
 50
271.6283436917358927
 51
92.3254222952475061
  0
LINE
  5
DD39
  8
0
 10
4872.8193038660683669
 20
245.1211955893436141
 30
0.0
 11
4872.8193372359673958
 21
245.0950503474435891
 31
0.0
  0
ARC
  5
DD3A
  8
0
 10
4872.880347250756131
 20
245.0977912854233125
 30
0.0
 40
0.0610715534888087
 50
182.5723424233121079
 51
246.3308897016648871
  0
ARC
  5
DD3B
  8
0
 10
4872.8827260760890567
 20
245.1032183486134954
 30
0.0
 40
0.0669970766585589
 50
246.3308897016648871
 51
332.4315603757933104
  0
ARC
  5
DD3C
  8
0
 10
4872.9031708427937701
 20
245.0925444182709896
 30
0.0
 40
0.0439336581229258
 50
332.4315603757933104
 51
358.8488007310261878
  0
LINE
  5
DD3D
  8
0
 10
4872.9470956332670539
 20
245.0916617530434962
 30
0.0
 11
4872.9472566764852672
 21
245.1193033388306901
 31
0.0
  0
ARC
  5
DD3E
  8
0
 10
4872.8805514940559078
 20
245.1205464683314119
 30
0.0
 40
0.0612510676823524
 50
87.0072128386655663
 51
179.3927846156587123
  0
ARC
  5
DD3F
  8
0
 10
4872.8802420744059418
 20
245.1146281344315128
 30
0.0
 40
0.067177484531506
 50
3.9907148924118698
 51
87.0072128386655663
  0
ARC
  5
DD40
  8
0
 10
4872.7511966104166277
 20
245.6149954510067914
 30
0.0
 40
0.0220238406618899
 50
82.725038174921977
 51
281.2287278120618907
  0
ARC
  5
DD41
  8
0
 10
4872.7548675261350581
 20
245.615122159326404
 30
0.0
 40
0.0217377389120819
 50
271.6283436917358927
 51
92.3254222952475061
  0
LINE
  5
DD42
  8
0
 10
4872.6889068760183363
 20
245.6503925606448036
 30
0.0
 11
4872.6889402459182747
 21
245.6242473187446933
 31
0.0
  0
ARC
  5
DD43
  8
0
 10
4872.7499502607079194
 20
245.626988256724502
 30
0.0
 40
0.0610715534888087
 50
182.5723424233121079
 51
246.3308897016648871
  0
ARC
  5
DD44
  8
0
 10
4872.7523290860399356
 20
245.6324153199147133
 30
0.0
 40
0.0669970766585589
 50
246.3308897016648871
 51
332.4315603757933104
  0
ARC
  5
DD45
  8
0
 10
4872.7727738527437396
 20
245.6217413895722075
 30
0.0
 40
0.0439336581229258
 50
332.4315603757933104
 51
358.8488007310261878
  0
LINE
  5
DD46
  8
0
 10
4872.8166986432179328
 20
245.6208587243447141
 30
0.0
 11
4872.8168596864352367
 21
245.648500310131908
 31
0.0
  0
ARC
  5
DD47
  8
0
 10
4872.7501545040058772
 20
245.6497434396326014
 30
0.0
 40
0.0612510676823524
 50
87.0072128386655663
 51
179.3927846156587123
  0
ARC
  5
DD48
  8
0
 10
4872.7498450843559112
 20
245.6438251057327022
 30
0.0
 40
0.067177484531506
 50
3.9907148924118698
 51
87.0072128386655663
  0
ARC
  5
DD49
  8
0
 10
4872.5383490679432725
 20
245.3293456335943006
 30
0.0
 40
0.0220238406618899
 50
82.725038174921977
 51
281.2287278120618907
  0
ARC
  5
DD4A
  8
0
 10
4872.5420199836589745
 20
245.3294723419139132
 30
0.0
 40
0.0217377389120819
 50
271.6283436917358927
 51
92.3254222952475061
  0
LINE
  5
DD4B
  8
0
 10
4872.4760593335431622
 20
245.3647427432323127
 30
0.0
 11
4872.4760927034421911
 21
245.3385975013322025
 31
0.0
  0
ARC
  5
DD4C
  8
0
 10
4872.5371027182309263
 20
245.3413384393120111
 30
0.0
 40
0.0610715534888087
 50
182.5723424233121079
 51
246.3308897016648871
  0
ARC
  5
DD4D
  8
0
 10
4872.539481543563852
 20
245.3467655025021941
 30
0.0
 40
0.0669970766585589
 50
246.3308897016648871
 51
332.4315603757933104
  0
ARC
  5
DD4E
  8
0
 10
4872.5599263102685654
 20
245.3360915721598019
 30
0.0
 40
0.0439336581229258
 50
332.4315603757933104
 51
358.8488007310261878
  0
LINE
  5
DD4F
  8
0
 10
4872.6038511007427587
 20
245.3352089069323085
 30
0.0
 11
4872.6040121439600625
 21
245.3628504927193887
 31
0.0
  0
ARC
  5
DD50
  8
0
 10
4872.5373069615297936
 20
245.3640936222201105
 30
0.0
 40
0.0612510676823524
 50
87.0072128386655663
 51
179.3927846156587123
  0
ARC
  5
DD51
  8
0
 10
4872.5369975418807371
 20
245.3581752883202114
 30
0.0
 40
0.067177484531506
 50
3.9907148924118698
 51
87.0072128386655663
  0
ARC
  5
DD52
  8
0
 10
4872.2625290143314487
 20
245.6199684680777864
 30
0.0
 40
0.0220238406618899
 50
82.725038174921977
 51
281.2287278120618907
  0
ARC
  5
DD53
  8
0
 10
4872.2661999300489697
 20
245.6200951763975127
 30
0.0
 40
0.0217377389120819
 50
271.6283436917358927
 51
92.3254222952475061
  0
LINE
  5
DD54
  8
0
 10
4872.2002392799313384
 20
245.6553655777157985
 30
0.0
 11
4872.2002726498312768
 21
245.6292203358158019
 31
0.0
  0
ARC
  5
DD55
  8
0
 10
4872.2612826646200119
 20
245.6319612737956106
 30
0.0
 40
0.0610715534888087
 50
182.5723424233121079
 51
246.3308897016648871
  0
ARC
  5
DD56
  8
0
 10
4872.2636614899520282
 20
245.6373883369857083
 30
0.0
 40
0.0669970766585589
 50
246.3308897016648871
 51
332.4315603757933104
  0
ARC
  5
DD57
  8
0
 10
4872.2841062566576511
 20
245.6267144066432877
 30
0.0
 40
0.0439336581229258
 50
332.4315603757933104
 51
358.8488007310261878
  0
LINE
  5
DD58
  8
0
 10
4872.3280310471318444
 20
245.6258317414157943
 30
0.0
 11
4872.3281920903500577
 21
245.6534733272029882
 31
0.0
  0
ARC
  5
DD59
  8
0
 10
4872.2614869079188793
 20
245.6547164567035964
 30
0.0
 40
0.0612510676823524
 50
87.0072128386655663
 51
179.3927846156587123
  0
ARC
  5
DD5A
  8
0
 10
4872.2611774882698228
 20
245.6487981228038109
 30
0.0
 40
0.067177484531506
 50
3.9907148924118698
 51
87.0072128386655663
  0
ARC
  5
DD5B
  8
0
 10
4872.070109217756908
 20
245.9521935606665863
 30
0.0
 40
0.0220238406618899
 50
82.725038174921977
 51
281.2287278120618907
  0
ARC
  5
DD5C
  8
0
 10
4872.07378013347261
 20
245.9523202689863126
 30
0.0
 40
0.0217377389120819
 50
271.6283436917358927
 51
92.3254222952475061
  0
LINE
  5
DD5D
  8
0
 10
4872.0078194833567977
 20
245.9875906703045985
 30
0.0
 11
4872.0078528532576456
 21
245.9614454284046872
 31
0.0
  0
ARC
  5
DD5E
  8
0
 10
4872.0688628680463808
 20
245.9641863663844106
 30
0.0
 40
0.0610715534888087
 50
182.5723424233121079
 51
246.3308897016648871
  0
ARC
  5
DD5F
  8
0
 10
4872.071241693380216
 20
245.9696134295745082
 30
0.0
 40
0.0669970766585589
 50
246.3308897016648871
 51
332.4315603757933104
  0
ARC
  5
DD60
  8
0
 10
4872.0916864600840199
 20
245.9589394992320877
 30
0.0
 40
0.0439336581229258
 50
332.4315603757933104
 51
358.8488007310261878
  0
LINE
  5
DD61
  8
0
 10
4872.1356112505573037
 20
245.9580568340045943
 30
0.0
 11
4872.135772293773698
 21
245.9856984197917882
 31
0.0
  0
ARC
  5
DD62
  8
0
 10
4872.0690671113452481
 20
245.98694154929251
 30
0.0
 40
0.0612510676823524
 50
87.0072128386655663
 51
179.3927846156587123
  0
ARC
  5
DD63
  8
0
 10
4872.0687576916961916
 20
245.9810232153926108
 30
0.0
 40
0.067177484531506
 50
3.9907148924118698
 51
87.0072128386655663
  0
ARC
  5
DD64
  8
0
 10
4872.4858888043863772
 20
246.0063299127122036
 30
0.0
 40
0.0220238406618899
 50
82.725038174921977
 51
281.2287278120618907
  0
ARC
  5
DD65
  8
0
 10
4872.4895597201029886
 20
246.0064566210319015
 30
0.0
 40
0.0217377389120819
 50
271.6283436917358927
 51
92.3254222952475061
  0
LINE
  5
DD66
  8
0
 10
4872.4235990699862668
 20
246.0417270223501873
 30
0.0
 11
4872.4236324398862052
 21
246.0155817804501908
 31
0.0
  0
ARC
  5
DD67
  8
0
 10
4872.4846424546749404
 20
246.0183227184299994
 30
0.0
 40
0.0610715534888087
 50
182.5723424233121079
 51
246.3308897016648871
  0
ARC
  5
DD68
  8
0
 10
4872.4870212800087756
 20
246.0237497816200971
 30
0.0
 40
0.0669970766585589
 50
246.3308897016648871
 51
332.4315603757933104
  0
ARC
  5
DD69
  8
0
 10
4872.5074660467116701
 20
246.0130758512777049
 30
0.0
 40
0.0439336581229258
 50
332.4315603757933104
 51
358.8488007310261878
  0
LINE
  5
DD6A
  8
0
 10
4872.5513908371867728
 20
246.0121931860502116
 30
0.0
 11
4872.5515518804049862
 21
246.0398347718374055
 31
0.0
  0
ARC
  5
DD6B
  8
0
 10
4872.4848466979747172
 20
246.0410779013380989
 30
0.0
 40
0.0612510676823524
 50
87.0072128386655663
 51
179.3927846156587123
  0
ARC
  5
DD6C
  8
0
 10
4872.4845372783238417
 20
246.0351595674381997
 30
0.0
 40
0.067177484531506
 50
3.9907148924118698
 51
87.0072128386655663
  0
ARC
  5
DD6D
  8
0
 10
4871.9729373341970131
 20
246.3088437738898904
 30
0.0
 40
0.0220238406618899
 50
82.725038174921977
 51
281.2287278120618907
  0
ARC
  5
DD6E
  8
0
 10
4871.9766082499127151
 20
246.308970482209503
 30
0.0
 40
0.0217377389120819
 50
271.6283436917358927
 51
92.3254222952475061
  0
LINE
  5
DD6F
  8
0
 10
4871.9106475997969028
 20
246.3442408835279025
 30
0.0
 11
4871.9106809696977507
 21
246.3180956416279059
 31
0.0
  0
ARC
  5
DD70
  8
0
 10
4871.9716909844855763
 20
246.3208365796076862
 30
0.0
 40
0.0610715534888087
 50
182.5723424233121079
 51
246.3308897016648871
  0
ARC
  5
DD71
  8
0
 10
4871.9740698098194116
 20
246.3262636427978123
 30
0.0
 40
0.0669970766585589
 50
246.3308897016648871
 51
332.4315603757933104
  0
ARC
  5
DD72
  8
0
 10
4871.9945145765232155
 20
246.3155897124553917
 30
0.0
 40
0.0439336581229258
 50
332.4315603757933104
 51
358.8488007310261878
  0
LINE
  5
DD73
  8
0
 10
4872.0384393669974088
 20
246.3147070472278983
 30
0.0
 11
4872.0386004102138031
 21
246.342348633015007
 31
0.0
  0
ARC
  5
DD74
  8
0
 10
4871.9718952277853532
 20
246.3435917625157003
 30
0.0
 40
0.0612510676823524
 50
87.0072128386655663
 51
179.3927846156587123
  0
ARC
  5
DD75
  8
0
 10
4871.9715858081362967
 20
246.3376734286158865
 30
0.0
 40
0.067177484531506
 50
3.9907148924118698
 51
87.0072128386655663
  0
ARC
  5
DD76
  8
0
 10
4872.3909092466019501
 20
246.4439347235500009
 30
0.0
 40
0.0220238406618899
 50
82.725038174921977
 51
281.2287278120618907
  0
ARC
  5
DD77
  8
0
 10
4872.3945801623176521
 20
246.4440614318696987
 30
0.0
 40
0.0217377389120819
 50
271.6283436917358927
 51
92.3254222952475061
  0
LINE
  5
DD78
  8
0
 10
4872.3286195122018398
 20
246.479331833188013
 30
0.0
 11
4872.3286528821026877
 21
246.453186591287988
 31
0.0
  0
ARC
  5
DD79
  8
0
 10
4872.3896628968923324
 20
246.4559275292677967
 30
0.0
 40
0.0610715534888087
 50
182.5723424233121079
 51
246.3308897016648871
  0
ARC
  5
DD7A
  8
0
 10
4872.3920417222252581
 20
246.4613545924578943
 30
0.0
 40
0.0669970766585589
 50
246.3308897016648871
 51
332.4315603757933104
  0
ARC
  5
DD7B
  8
0
 10
4872.412486488929062
 20
246.4506806621155022
 30
0.0
 40
0.0439336581229258
 50
332.4315603757933104
 51
358.8488007310261878
  0
LINE
  5
DD7C
  8
0
 10
4872.4564112794032553
 20
246.4497979968880088
 30
0.0
 11
4872.4565723226196496
 21
246.4774395826752027
 31
0.0
  0
ARC
  5
DD7D
  8
0
 10
4872.3898671401902902
 20
246.4786827121758961
 30
0.0
 40
0.0612510676823524
 50
87.0072128386655663
 51
179.3927846156587123
  0
ARC
  5
DD7E
  8
0
 10
4872.3895577205412337
 20
246.4727643782759969
 30
0.0
 40
0.067177484531506
 50
3.9907148924118698
 51
87.0072128386655663
  0
ARC
  5
DD7F
  8
0
 10
4872.4848981642317085
 20
246.8835847169256112
 30
0.0
 40
0.0220238406618899
 50
82.725038174921977
 51
281.2287278120618907
  0
ARC
  5
DD80
  8
0
 10
4872.4885690799492295
 20
246.8837114252453091
 30
0.0
 40
0.0217377389120819
 50
271.6283436917358927
 51
92.3254222952475061
  0
LINE
  5
DD81
  8
0
 10
4872.4226084298334172
 20
246.918981826563595
 30
0.0
 11
4872.4226417997333556
 21
246.8928365846635984
 31
0.0
  0
ARC
  5
DD82
  8
0
 10
4872.4836518145230002
 20
246.8955775226434071
 30
0.0
 40
0.0610715534888087
 50
182.5723424233121079
 51
246.3308897016648871
  0
ARC
  5
DD83
  8
0
 10
4872.4860306398550165
 20
246.9010045858335047
 30
0.0
 40
0.0669970766585589
 50
246.3308897016648871
 51
332.4315603757933104
  0
ARC
  5
DD84
  8
0
 10
4872.5064754065588204
 20
246.8903306554911126
 30
0.0
 40
0.0439336581229258
 50
332.4315603757933104
 51
358.8488007310261878
  0
LINE
  5
DD85
  8
0
 10
4872.5504001970330137
 20
246.8894479902635908
 30
0.0
 11
4872.550561240251227
 21
246.9170895760508131
 31
0.0
  0
ARC
  5
DD86
  8
0
 10
4872.4838560578209581
 20
246.9183327055515065
 30
0.0
 40
0.0612510676823524
 50
87.0072128386655663
 51
179.3927846156587123
  0
ARC
  5
DD87
  8
0
 10
4872.4835466381709921
 20
246.9124143716516073
 30
0.0
 40
0.067177484531506
 50
3.9907148924118698
 51
87.0072128386655663
  0
ARC
  5
DD88
  8
0
 10
4872.7535399428652454
 20
247.2641874154149946
 30
0.0
 40
0.0220238406618899
 50
82.725038174921977
 51
281.2287278120618907
  0
ARC
  5
DD89
  8
0
 10
4872.7572108585827664
 20
247.2643141237346924
 30
0.0
 40
0.0217377389120819
 50
271.6283436917358927
 51
92.3254222952475061
  0
LINE
  5
DD8A
  8
0
 10
4872.6912502084660446
 20
247.2995845250530067
 30
0.0
 11
4872.6912835783650735
 21
247.2734392831530101
 31
0.0
  0
ARC
  5
DD8B
  8
0
 10
4872.7522935931547181
 20
247.2761802211327904
 30
0.0
 40
0.0610715534888087
 50
182.5723424233121079
 51
246.3308897016648871
  0
ARC
  5
DD8C
  8
0
 10
4872.7546724184867344
 20
247.2816072843228881
 30
0.0
 40
0.0669970766585589
 50
246.3308897016648871
 51
332.4315603757933104
  0
ARC
  5
DD8D
  8
0
 10
4872.7751171851923573
 20
247.2709333539804959
 30
0.0
 40
0.0439336581229258
 50
332.4315603757933104
 51
358.8488007310261878
  0
LINE
  5
DD8E
  8
0
 10
4872.8190419756656411
 20
247.2700506887530025
 30
0.0
 11
4872.8192030188829449
 21
247.2976922745401964
 31
0.0
  0
ARC
  5
DD8F
  8
0
 10
4872.7524978364535855
 20
247.2989354040408898
 30
0.0
 40
0.0612510676823524
 50
87.0072128386655663
 51
179.3927846156587123
  0
ARC
  5
DD90
  8
0
 10
4872.7521884168054385
 20
247.2930170701409907
 30
0.0
 40
0.067177484531506
 50
3.9907148924118698
 51
87.0072128386655663
  0
ARC
  5
DD91
  8
0
 10
4872.8829490217958664
 20
247.8687871522870978
 30
0.0
 40
0.0220238406618899
 50
82.725038174921977
 51
281.2287278120618907
  0
ARC
  5
DD92
  8
0
 10
4872.8866199375142969
 20
247.8689138606067957
 30
0.0
 40
0.0217377389120819
 50
271.6283436917358927
 51
92.3254222952475061
  0
LINE
  5
DD93
  8
0
 10
4872.8206592873966656
 20
247.9041842619249962
 30
0.0
 11
4872.820692657296604
 21
247.8780390200251134
 31
0.0
  0
ARC
  5
DD94
  8
0
 10
4872.8817026720862486
 20
247.8807799580048936
 30
0.0
 40
0.0610715534888087
 50
182.5723424233121079
 51
246.3308897016648871
  0
ARC
  5
DD95
  8
0
 10
4872.8840814974191744
 20
247.886207021194906
 30
0.0
 40
0.0669970766585589
 50
246.3308897016648871
 51
332.4315603757933104
  0
ARC
  5
DD96
  8
0
 10
4872.9045262641238878
 20
247.8755330908525139
 30
0.0
 40
0.0439336581229258
 50
332.4315603757933104
 51
358.8488007310261878
  0
LINE
  5
DD97
  8
0
 10
4872.9484510545971716
 20
247.8746504256251058
 30
0.0
 11
4872.9486120978153849
 21
247.902292011412186
 31
0.0
  0
ARC
  5
DD98
  8
0
 10
4872.881906915385116
 20
247.9035351409129078
 30
0.0
 40
0.0612510676823524
 50
87.0072128386655663
 51
179.3927846156587123
  0
ARC
  5
DD99
  8
0
 10
4872.8815974957360595
 20
247.8976168070130086
 30
0.0
 40
0.067177484531506
 50
3.9907148924118698
 51
87.0072128386655663
  0
ARC
  5
DD9A
  8
0
 10
4873.2818622548120402
 20
248.0285493414598932
 30
0.0
 40
0.0220238406618899
 50
82.725038174921977
 51
281.2287278120618907
  0
ARC
  5
DD9B
  8
0
 10
4873.2855331705286517
 20
248.028676049779591
 30
0.0
 40
0.0217377389120819
 50
271.6283436917358927
 51
92.3254222952475061
  0
LINE
  5
DD9C
  8
0
 10
4873.2195725204119299
 20
248.0639464510979053
 30
0.0
 11
4873.2196058903118683
 21
248.0378012091979087
 31
0.0
  0
ARC
  5
DD9D
  8
0
 10
4873.2806159051024224
 20
248.040542147177689
 30
0.0
 40
0.0610715534888087
 50
182.5723424233121079
 51
246.3308897016648871
  0
ARC
  5
DD9E
  8
0
 10
4873.2829947304344387
 20
248.0459692103677867
 30
0.0
 40
0.0669970766585589
 50
246.3308897016648871
 51
332.4315603757933104
  0
ARC
  5
DD9F
  8
0
 10
4873.3034394971391521
 20
248.0352952800253945
 30
0.0
 40
0.0439336581229258
 50
332.4315603757933104
 51
358.8488007310261878
  0
LINE
  5
DDA0
  8
0
 10
4873.3473642876133454
 20
248.0344126147979011
 30
0.0
 11
4873.3475253308297397
 21
248.062054200585095
 31
0.0
  0
ARC
  5
DDA1
  8
0
 10
4873.2808201484012898
 20
248.0632973300857884
 30
0.0
 40
0.0612510676823524
 50
87.0072128386655663
 51
179.3927846156587123
  0
ARC
  5
DDA2
  8
0
 10
4873.2805107287513238
 20
248.0573789961858893
 30
0.0
 40
0.067177484531506
 50
3.9907148924118698
 51
87.0072128386655663
  0
ARC
  5
DDA3
  8
0
 10
4872.5387329523728113
 20
247.64131450151379
 30
0.0
 40
0.0220238406618899
 50
82.725038174921977
 51
281.2287278120618907
  0
ARC
  5
DDA4
  8
0
 10
4872.5424038680903323
 20
247.6414412098334878
 30
0.0
 40
0.0217377389120819
 50
271.6283436917358927
 51
92.3254222952475061
  0
LINE
  5
DDA5
  8
0
 10
4872.4764432179727009
 20
247.6767116111518021
 30
0.0
 11
4872.4764765878717299
 21
247.6505663692518056
 31
0.0
  0
ARC
  5
DDA6
  8
0
 10
4872.5374866026613745
 20
247.6533073072315858
 30
0.0
 40
0.0610715534888087
 50
182.5723424233121079
 51
246.3308897016648871
  0
ARC
  5
DDA7
  8
0
 10
4872.5398654279943003
 20
247.6587343704217119
 30
0.0
 40
0.0669970766585589
 50
246.3308897016648871
 51
332.4315603757933104
  0
ARC
  5
DDA8
  8
0
 10
4872.5603101946999232
 20
247.648060440079206
 30
0.0
 40
0.0439336581229258
 50
332.4315603757933104
 51
358.8488007310261878
  0
LINE
  5
DDA9
  8
0
 10
4872.604234985173207
 20
247.6471777748517979
 30
0.0
 11
4872.6043960283896013
 21
247.6748193606389066
 31
0.0
  0
ARC
  5
DDAA
  8
0
 10
4872.5376908459602419
 20
247.6760624901396
 30
0.0
 40
0.0612510676823524
 50
87.0072128386655663
 51
179.3927846156587123
  0
ARC
  5
DDAB
  8
0
 10
4872.5373814263120948
 20
247.6701441562397861
 30
0.0
 40
0.067177484531506
 50
3.9907148924118698
 51
87.0072128386655663
  0
ARC
  5
DDAC
  8
0
 10
4872.2618240133033396
 20
247.3558421946196972
 30
0.0
 40
0.0220238406618899
 50
82.725038174921977
 51
281.2287278120618907
  0
ARC
  5
DDAD
  8
0
 10
4872.2654949290199511
 20
247.3559689029393098
 30
0.0
 40
0.0217377389120819
 50
271.6283436917358927
 51
92.3254222952475061
  0
LINE
  5
DDAE
  8
0
 10
4872.1995342789041388
 20
247.3912393042577094
 30
0.0
 11
4872.1995676488040772
 21
247.3650940623575991
 31
0.0
  0
ARC
  5
DDAF
  8
0
 10
4872.2605776635928123
 20
247.3678350003374078
 30
0.0
 40
0.0610715534888087
 50
182.5723424233121079
 51
246.3308897016648871
  0
ARC
  5
DDB0
  8
0
 10
4872.2629564889257381
 20
247.3732620635275907
 30
0.0
 40
0.0669970766585589
 50
246.3308897016648871
 51
332.4315603757933104
  0
ARC
  5
DDB1
  8
0
 10
4872.2834012556304515
 20
247.3625881331851986
 30
0.0
 40
0.0439336581229258
 50
332.4315603757933104
 51
358.8488007310261878
  0
LINE
  5
DDB2
  8
0
 10
4872.3273260461037353
 20
247.3617054679575915
 30
0.0
 11
4872.3274870893219486
 21
247.3893470537448138
 31
0.0
  0
ARC
  5
DDB3
  8
0
 10
4872.2607819068907702
 20
247.3905901832455072
 30
0.0
 40
0.0612510676823524
 50
87.0072128386655663
 51
179.3927846156587123
  0
ARC
  5
DDB4
  8
0
 10
4872.2604724872417137
 20
247.3846718493456081
 30
0.0
 40
0.067177484531506
 50
3.9907148924118698
 51
87.0072128386655663
  0
ARC
  5
DDB5
  8
0
 10
4872.0698636044962768
 20
247.0287202571813907
 30
0.0
 40
0.0220238406618899
 50
82.725038174921977
 51
281.2287278120618907
  0
ARC
  5
DDB6
  8
0
 10
4872.0735345202128883
 20
247.0288469655010033
 30
0.0
 40
0.0217377389120819
 50
271.6283436917358927
 51
92.3254222952475061
  0
LINE
  5
DDB7
  8
0
 10
4872.0075738700961665
 20
247.0641173668194028
 30
0.0
 11
4872.0076072399961049
 21
247.0379721249194063
 31
0.0
  0
ARC
  5
DDB8
  8
0
 10
4872.06861725478484
 20
247.0407130628991013
 30
0.0
 40
0.0610715534888087
 50
182.5723424233121079
 51
246.3308897016648871
  0
ARC
  5
DDB9
  8
0
 10
4872.0709960801177658
 20
247.0461401260893126
 30
0.0
 40
0.0669970766585589
 50
246.3308897016648871
 51
332.4315603757933104
  0
ARC
  5
DDBA
  8
0
 10
4872.0914408468233887
 20
247.035466195746892
 30
0.0
 40
0.0439336581229258
 50
332.4315603757933104
 51
358.8488007310261878
  0
LINE
  5
DDBB
  8
0
 10
4872.135365637295763
 20
247.0345835305193987
 30
0.0
 11
4872.1355266805139763
 21
247.0622251163065073
 31
0.0
  0
ARC
  5
DDBC
  8
0
 10
4872.0688214980837074
 20
247.0634682458072007
 30
0.0
 40
0.0612510676823524
 50
87.0072128386655663
 51
179.3927846156587123
  0
ARC
  5
DDBD
  8
0
 10
4872.0685120784346509
 20
247.0575499119073868
 30
0.0
 40
0.067177484531506
 50
3.9907148924118698
 51
87.0072128386655663
  0
ARC
  5
DDBE
  8
0
 10
4871.9718229777354281
 20
246.6739524177689873
 30
0.0
 40
0.0220238406618899
 50
82.725038174921977
 51
281.2287278120618907
  0
ARC
  5
DDBF
  8
0
 10
4871.9754938934511301
 20
246.6740791260887136
 30
0.0
 40
0.0217377389120819
 50
271.6283436917358927
 51
92.3254222952475061
  0
LINE
  5
DDC0
  8
0
 10
4871.9095332433353178
 20
246.7093495274069994
 30
0.0
 11
4871.9095666132352562
 21
246.6832042855070029
 31
0.0
  0
ARC
  5
DDC1
  8
0
 10
4871.9705766280230819
 20
246.6859452234868115
 30
0.0
 40
0.0610715534888087
 50
182.5723424233121079
 51
246.3308897016648871
  0
ARC
  5
DDC2
  8
0
 10
4871.9729554533550981
 20
246.6913722866769092
 30
0.0
 40
0.0669970766585589
 50
246.3308897016648871
 51
332.4315603757933104
  0
ARC
  5
DDC3
  8
0
 10
4871.993400220060721
 20
246.6806983563344886
 30
0.0
 40
0.0439336581229258
 50
332.4315603757933104
 51
358.8488007310261878
  0
LINE
  5
DDC4
  8
0
 10
4872.0373250105349143
 20
246.6798156911069952
 30
0.0
 11
4872.0374860537522181
 21
246.7074572768941891
 31
0.0
  0
ARC
  5
DDC5
  8
0
 10
4871.9707808713219492
 20
246.7087004063947973
 30
0.0
 40
0.0612510676823524
 50
87.0072128386655663
 51
179.3927846156587123
  0
ARC
  5
DDC6
  8
0
 10
4871.9704714516728927
 20
246.7027820724950118
 30
0.0
 40
0.067177484531506
 50
3.9907148924118698
 51
87.0072128386655663
  0
ARC
  5
DDC7
  8
0
 10
4873.718288686735832
 20
245.0896862349457876
 30
0.0
 40
3.868243315461116
 50
65.9812523583911599
 51
89.6195678430264167
  0
ARC
  5
DDC8
  8
0
 10
4874.4215211636683307
 20
246.8293852259145069
 30
0.0
 40
1.9940254366228201
 50
357.2719130436861974
 51
64.0908592365795897
  0
ARC
  5
DDC9
  8
0
 10
4874.4080417881195899
 20
246.7050684153433906
 30
0.0
 40
2.0054605536766892
 50
301.3121928941046122
 51
0.8402406146090445
  0
ARC
  5
DDCA
  8
0
 10
4898.3962636629767076
 20
216.2631007948064905
 30
0.0
 40
36.7675249881581578
 50
128.6149034368426101
 51
129.6457994241908978
  0
ARC
  5
DDCB
  8
0
 10
4875.6201123251630634
 20
243.7182623192545918
 30
0.0
 40
1.0950535540491551
 50
128.5871182381150106
 51
158.1243437148195881
  0
ARC
  5
DDCC
  8
0
 10
4875.4714793513430777
 20
243.7922202595914882
 30
0.0
 40
0.9296611689740297
 50
158.9411577215275884
 51
178.4127870724884133
  0
ARC
  5
DDCD
  8
0
 10
-3660.1929559232130487
 20
443.933952126181623
 30
0.0
 40
8537.0808921401330736
 50
358.6362692238934073
 51
358.6568182281170039
  0
ARC
  5
DDCE
  8
0
 10
4873.9222450793313328
 20
243.8368014687482059
 30
0.0
 40
3.1485464158577949
 50
270.2376037298828919
 51
279.6255605138304077
  0
ARC
  5
DDCF
  8
0
 10
4874.4444620124122594
 20
240.7576241419789937
 30
0.0
 40
0.0254
 50
279.6255605138304077
 51
358.6362692227717162
  0
ARC
  5
DDD0
  8
0
 10
4873.8586233295327474
 20
244.3559429140559018
 30
0.0
 40
0.7118909310061742
 50
299.6296981166374849
 51
338.8202600510801972
  0
ARC
  5
DDD1
  8
0
 10
4873.9330837306342801
 20
244.224939478620314
 30
0.0
 40
0.5612050024803898
 50
270.1560649855281895
 51
299.6341132061410235
  0
ARC
  5
DDD2
  8
0
 10
4875.6084966825410447
 20
243.680582980138098
 30
0.0
 40
1.1637880270483849
 50
127.1575645765850027
 51
158.9423465309760104
  0
ARC
  5
DDD3
  8
0
 10
4867.563162915117573
 20
254.296235736850889
 30
0.0
 40
12.1561023208619297
 50
307.1575645765850027
 51
311.3615980630838749
  0
ARC
  5
DDD4
  8
0
 10
4874.4729114624051363
 20
246.6582911918476952
 30
0.0
 40
1.862575417757544
 50
307.0842827433501157
 51
354.4304193275286821
  0
ARC
  5
DDD5
  8
0
 10
4874.6281278669375752
 20
246.5858060245454908
 30
0.0
 40
1.702014125489006
 50
356.3522432985192268
 51
38.1466177783047229
  0
ARC
  5
DDD6
  8
0
 10
4874.1644359247366083
 20
246.2236421914442985
 30
0.0
 40
2.290377084417611
 50
38.1067456933730782
 51
67.9421119083706628
  0
ARC
  5
DDD7
  8
0
 10
4873.942139449581191
 20
245.7344022395330114
 30
0.0
 40
2.827376895197236
 50
67.4903123097023752
 51
90.1525338358961363
  0
ARC
  5
DDD8
  8
0
 10
4873.9506105742875661
 20
245.807879035169492
 30
0.0
 40
2.8519181337222692
 50
55.9563939877890704
 51
90.3214098693864145
  0
ARC
  5
DDD9
  8
0
 10
4874.430742366508639
 20
246.5185364203017002
 30
0.0
 40
1.9942699209074479
 50
6.21621513749374
 51
55.9563939877890704
  0
ARC
  5
DDDA
  8
0
 10
4874.1571316809795462
 20
248.1091196984556859
 30
0.0
 40
0.0220238406618899
 50
258.7712721879382229
 51
97.2749618250780088
  0
ARC
  5
DDDB
  8
0
 10
4874.1534607652629347
 20
248.1092464067752985
 30
0.0
 40
0.0217377389120819
 50
87.6745777047524939
 51
268.3716563082639937
  0
LINE
  5
DDDC
  8
0
 10
4874.219421415378747
 20
248.144516808093698
 30
0.0
 11
4874.2193880454788086
 21
248.1183715661937015
 31
0.0
  0
ARC
  5
DDDD
  8
0
 10
4874.1583780306900735
 20
248.1211125041735102
 30
0.0
 40
0.0610715534888087
 50
293.6691102983351129
 51
357.427657576686272
  0
ARC
  5
DDDE
  8
0
 10
4874.1559992053571477
 20
248.1265395673636078
 30
0.0
 40
0.0669970766585589
 50
207.5684396242066896
 51
293.6691102983351129
  0
ARC
  5
DDDF
  8
0
 10
4874.1355544386524343
 20
248.1158656370211872
 30
0.0
 40
0.0439336581229258
 50
181.1511992689738122
 51
207.5684396242052117
  0
LINE
  5
DDE0
  8
0
 10
4874.0916296481791505
 20
248.1149829717936939
 30
0.0
 11
4874.0914686049618467
 21
248.1426245575808025
 31
0.0
  0
ARC
  5
DDE1
  8
0
 10
4874.1581737873921156
 20
248.1438676870814959
 30
0.0
 40
0.0612510676823524
 50
0.6072153843412367
 51
92.9927871613344337
  0
ARC
  5
DDE2
  8
0
 10
4874.1584832070402626
 20
248.1379493531815967
 30
0.0
 40
0.067177484531506
 50
92.9927871613344337
 51
176.0092851075881129
  0
ARC
  5
DDE3
  8
0
 10
4875.03752512157007
 20
246.4290042683828972
 30
0.0
 40
0.177882960600706
 50
97.0528380313418353
 51
160.6470656535321098
  0
ARC
  5
DDE4
  8
0
 10
4875.0395174791547106
 20
246.4129006051171871
 30
0.0
 40
0.194109403813036
 50
39.3739457143251386
 51
97.0528380313418353
  0
ARC
  5
DDE5
  8
0
 10
4875.1083691765888943
 20
246.4694036127324068
 30
0.0
 40
0.1050411933834529
 50
358.082317125933514
 51
39.3739457143251386
  0
ARC
  5
DDE6
  8
0
 10
4875.029419981619867
 20
246.4720470199779072
 30
0.0
 40
0.1840346297445655
 50
322.6823091168911901
 51
358.082317125933514
  0
ARC
  5
DDE7
  8
0
 10
4875.0380878985552044
 20
246.485258305859702
 30
0.0
 40
0.1858199503913451
 50
282.1982907030562728
 51
317.8165442683928745
  0
ARC
  5
DDE8
  8
0
 10
4875.0341616504247213
 20
246.492441880824714
 30
0.0
 40
0.1936848272965836
 50
245.0779664027602962
 51
282.884532997165195
  0
ARC
  5
DDE9
  8
0
 10
4875.0155768329550483
 20
246.4563181012761959
 30
0.0
 40
0.1531021657744578
 50
197.4528249694731983
 51
245.6888122856940129
  0
ARC
  5
DDEA
  8
0
 10
4875.0425491192972913
 20
246.4487955887279895
 30
0.0
 40
0.1772352702222621
 50
167.2363207404374066
 51
192.5116637097858074
  0
ARC
  5
DDEB
  8
0
 10
4874.206027875802647
 20
247.705788390961402
 30
0.0
 40
0.0220238406618899
 50
258.7712721879382229
 51
97.2749618250780088
  0
ARC
  5
DDEC
  8
0
 10
4874.2023569600860355
 20
247.7059150992810999
 30
0.0
 40
0.0217377389120819
 50
87.6745777047524939
 51
268.3716563082639937
  0
LINE
  5
DDED
  8
0
 10
4874.2683176102018479
 20
247.7411855005994141
 30
0.0
 11
4874.2682842403028189
 21
247.7150402586993891
 31
0.0
  0
ARC
  5
DDEE
  8
0
 10
4874.2072742255140838
 20
247.7177811966791978
 30
0.0
 40
0.0610715534888087
 50
293.6691102983351129
 51
357.427657576686272
  0
ARC
  5
DDEF
  8
0
 10
4874.204895400181158
 20
247.7232082598692955
 30
0.0
 40
0.0669970766585589
 50
207.5684396242066896
 51
293.6691102983351129
  0
ARC
  5
DDF0
  8
0
 10
4874.1844506334764446
 20
247.7125343295269033
 30
0.0
 40
0.0439336581229258
 50
181.1511992689738122
 51
207.5684396242052117
  0
LINE
  5
DDF1
  8
0
 10
4874.1405258430031608
 20
247.71165166429941
 30
0.0
 11
4874.1403647997849475
 21
247.7392932500866038
 31
0.0
  0
ARC
  5
DDF2
  8
0
 10
4874.2070699822152164
 20
247.7405363795872972
 30
0.0
 40
0.0612510676823524
 50
0.6072153843412367
 51
92.9927871613344337
  0
ARC
  5
DDF3
  8
0
 10
4874.2073794018642729
 20
247.7346180456873981
 30
0.0
 40
0.067177484531506
 50
92.9927871613344337
 51
176.0092851075881129
  0
ARC
  5
DDF4
  8
0
 10
4874.090473204160844
 20
247.3204620613441875
 30
0.0
 40
0.0220238406618899
 50
258.7712721879382229
 51
97.2749618250780088
  0
ARC
  5
DDF5
  8
0
 10
4874.0868022884433231
 20
247.3205887696639138
 30
0.0
 40
0.0217377389120819
 50
87.6745777047524939
 51
268.3716563082639937
  0
LINE
  5
DDF6
  8
0
 10
4874.1527629385600449
 20
247.3558591709821997
 30
0.0
 11
4874.1527295686601065
 21
247.3297139290822031
 31
0.0
  0
ARC
  5
DDF7
  8
0
 10
4874.0917195538713713
 20
247.3324548670620118
 30
0.0
 40
0.0610715534888087
 50
293.6691102983351129
 51
357.427657576686272
  0
ARC
  5
DDF8
  8
0
 10
4874.0893407285384455
 20
247.3378819302521094
 30
0.0
 40
0.0669970766585589
 50
207.5684396242066896
 51
293.6691102983351129
  0
ARC
  5
DDF9
  8
0
 10
4874.0688959618328226
 20
247.3272079999096889
 30
0.0
 40
0.0439336581229258
 50
181.1511992689738122
 51
207.5684396242052117
  0
LINE
  5
DDFA
  8
0
 10
4874.0249711713604484
 20
247.3263253346821955
 30
0.0
 11
4874.0248101281431445
 21
247.3539669204693894
 31
0.0
  0
ARC
  5
DDFB
  8
0
 10
4874.0915153105715945
 20
247.3552100499701112
 30
0.0
 40
0.0612510676823524
 50
0.6072153843412367
 51
92.9927871613344337
  0
ARC
  5
DDFC
  8
0
 10
4874.091824730220651
 20
247.349291716070212
 30
0.0
 40
0.067177484531506
 50
92.9927871613344337
 51
176.0092851075881129
  0
ARC
  5
DDFD
  8
0
 10
4874.7085880856848235
 20
247.5525031576692925
 30
0.0
 40
0.0220238406618899
 50
258.7712721879382229
 51
97.2749618250780088
  0
ARC
  5
DDFE
  8
0
 10
4874.7049171699691215
 20
247.5526298659889903
 30
0.0
 40
0.0217377389120819
 50
87.6745777047524939
 51
268.3716563082639937
  0
LINE
  5
DDFF
  8
0
 10
4874.7708778200858433
 20
247.5879002673073046
 30
0.0
 11
4874.7708444501859049
 21
247.5617550254073933
 31
0.0
  0
ARC
  5
DE00
  8
0
 10
4874.7098344353971697
 20
247.5644959633870883
 30
0.0
 40
0.0610715534888087
 50
293.6691102983351129
 51
357.427657576686272
  0
ARC
  5
DE01
  8
0
 10
4874.707455610064244
 20
247.569923026577186
 30
0.0
 40
0.0669970766585589
 50
207.5684396242066896
 51
293.6691102983351129
  0
ARC
  5
DE02
  8
0
 10
4874.6870108433586211
 20
247.5592490962347938
 30
0.0
 40
0.0439336581229258
 50
181.1511992689738122
 51
207.5684396242052117
  0
LINE
  5
DE03
  8
0
 10
4874.6430860528862468
 20
247.5583664310073004
 30
0.0
 11
4874.6429250096680335
 21
247.5860080167944943
 31
0.0
  0
ARC
  5
DE04
  8
0
 10
4874.7096301920983024
 20
247.5872511462951877
 30
0.0
 40
0.0612510676823524
 50
0.6072153843412367
 51
92.9927871613344337
  0
ARC
  5
DE05
  8
0
 10
4874.7099396117473589
 20
247.5813328123952886
 30
0.0
 40
0.067177484531506
 50
92.9927871613344337
 51
176.0092851075881129
  0
ARC
  5
DE06
  8
0
 10
4874.8075311137627068
 20
246.9784014703043908
 30
0.0
 40
0.0220238406618899
 50
258.7712721879382229
 51
97.2749618250780088
  0
ARC
  5
DE07
  8
0
 10
4874.8038601980460953
 20
246.9785281786240034
 30
0.0
 40
0.0217377389120819
 50
87.6745777047524939
 51
268.3716563082639937
  0
LINE
  5
DE08
  8
0
 10
4874.8698208481628171
 20
247.013798579942403
 30
0.0
 11
4874.8697874782628787
 21
246.9876533380424064
 31
0.0
  0
ARC
  5
DE09
  8
0
 10
4874.8087774634741436
 20
246.9903942760221014
 30
0.0
 40
0.0610715534888087
 50
293.6691102983351129
 51
357.427657576686272
  0
ARC
  5
DE0A
  8
0
 10
4874.8063986381412178
 20
246.9958213392123128
 30
0.0
 40
0.0669970766585589
 50
207.5684396242066896
 51
293.6691102983351129
  0
ARC
  5
DE0B
  8
0
 10
4874.7859538714374139
 20
246.9851474088698069
 30
0.0
 40
0.0439336581229258
 50
181.1511992689738122
 51
207.5684396242052117
  0
LINE
  5
DE0C
  8
0
 10
4874.7420290809632206
 20
246.9842647436423135
 30
0.0
 11
4874.7418680377450073
 21
247.0119063294295074
 31
0.0
  0
ARC
  5
DE0D
  8
0
 10
4874.8085732201752762
 20
247.0131494589302008
 30
0.0
 40
0.0612510676823524
 50
0.6072153843412367
 51
92.9927871613344337
  0
ARC
  5
DE0E
  8
0
 10
4874.8088826398252422
 20
247.0072311250303017
 30
0.0
 40
0.067177484531506
 50
92.9927871613344337
 51
176.0092851075881129
  0
ARC
  5
DE0F
  8
0
 10
4874.9557425498969678
 20
246.7524165452740021
 30
0.0
 40
0.0220238406618899
 50
258.7712721879382229
 51
97.2749618250780088
  0
ARC
  5
DE10
  8
0
 10
4874.9520716341794468
 20
246.7525432535937
 30
0.0
 40
0.0217377389120819
 50
87.6745777047524939
 51
268.3716563082639937
  0
LINE
  5
DE11
  8
0
 10
4875.0180322842952592
 20
246.7878136549119859
 30
0.0
 11
4875.0179989143953208
 21
246.7616684130119893
 31
0.0
  0
ARC
  5
DE12
  8
0
 10
4874.9569888996056761
 20
246.7644093509917127
 30
0.0
 40
0.0610715534888087
 50
293.6691102983351129
 51
357.427657576686272
  0
ARC
  5
DE13
  8
0
 10
4874.9546100742736598
 20
246.7698364141818956
 30
0.0
 40
0.0669970766585589
 50
207.5684396242066896
 51
293.6691102983351129
  0
ARC
  5
DE14
  8
0
 10
4874.9341653075689464
 20
246.7591624838395035
 30
0.0
 40
0.0439336581229258
 50
181.1511992689738122
 51
207.5684396242052117
  0
LINE
  5
DE15
  8
0
 10
4874.8902405170956627
 20
246.7582798186120101
 30
0.0
 11
4874.8900794738783588
 21
246.7859214043990903
 31
0.0
  0
ARC
  5
DE16
  8
0
 10
4874.9567846563077183
 20
246.7871645338998121
 30
0.0
 40
0.0612510676823524
 50
0.6072153843412367
 51
92.9927871613344337
  0
ARC
  5
DE17
  8
0
 10
4874.9570940759567748
 20
246.781246199999913
 30
0.0
 40
0.067177484531506
 50
92.9927871613344337
 51
176.0092851075881129
  0
ARC
  5
DE18
  8
0
 10
4874.9614523961627128
 20
246.0621983535899915
 30
0.0
 40
0.0220238406618899
 50
258.7712721879382229
 51
97.2749618250780088
  0
ARC
  5
DE19
  8
0
 10
4874.9577814804451918
 20
246.0623250619096041
 30
0.0
 40
0.0217377389120819
 50
87.6745777047524939
 51
268.3716563082639937
  0
LINE
  5
DE1A
  8
0
 10
4875.0237421305610042
 20
246.0975954632278899
 30
0.0
 11
4875.0237087606619752
 21
246.0714502213278934
 31
0.0
  0
ARC
  5
DE1B
  8
0
 10
4874.9626987458732401
 20
246.074191159307702
 30
0.0
 40
0.0610715534888087
 50
293.6691102983351129
 51
357.427657576686272
  0
ARC
  5
DE1C
  8
0
 10
4874.9603199205403143
 20
246.0796182224977997
 30
0.0
 40
0.0669970766585589
 50
207.5684396242066896
 51
293.6691102983351129
  0
ARC
  5
DE1D
  8
0
 10
4874.9398751538346914
 20
246.0689442921554075
 30
0.0
 40
0.0439336581229258
 50
181.1511992689738122
 51
207.5684396242052117
  0
LINE
  5
DE1E
  8
0
 10
4874.8959503633623171
 20
246.0680616269279142
 30
0.0
 11
4874.8957893201450133
 21
246.0957032127151081
 31
0.0
  0
ARC
  5
DE1F
  8
0
 10
4874.9624945025743727
 20
246.0969463422158015
 30
0.0
 40
0.0612510676823524
 50
0.6072153843412367
 51
92.9927871613344337
  0
ARC
  5
DE20
  8
0
 10
4874.9628039222234293
 20
246.0910280083159023
 30
0.0
 40
0.067177484531506
 50
92.9927871613344337
 51
176.0092851075881129
  0
ARC
  5
DE21
  8
0
 10
4874.8070380678818765
 20
245.8372990608235966
 30
0.0
 40
0.0220238406618899
 50
258.7712721879382229
 51
97.2749618250780088
  0
ARC
  5
DE22
  8
0
 10
4874.8033671521661745
 20
245.8374257691432945
 30
0.0
 40
0.0217377389120819
 50
87.6745777047524939
 51
268.3716563082639937
  0
LINE
  5
DE23
  8
0
 10
4874.8693278022828963
 20
245.8726961704616087
 30
0.0
 11
4874.8692944323820484
 21
245.8465509285616122
 31
0.0
  0
ARC
  5
DE24
  8
0
 10
4874.8082844175942228
 20
245.8492918665413924
 30
0.0
 40
0.0610715534888087
 50
293.6691102983351129
 51
357.427657576686272
  0
ARC
  5
DE25
  8
0
 10
4874.805905592261297
 20
245.8547189297314901
 30
0.0
 40
0.0669970766585589
 50
207.5684396242066896
 51
293.6691102983351129
  0
ARC
  5
DE26
  8
0
 10
4874.7854608255556741
 20
245.8440449993890979
 30
0.0
 40
0.0439336581229258
 50
181.1511992689738122
 51
207.5684396242052117
  0
LINE
  5
DE27
  8
0
 10
4874.7415360350842093
 20
245.8431623341616898
 30
0.0
 11
4874.7413749918650865
 21
245.8708039199487985
 31
0.0
  0
ARC
  5
DE28
  8
0
 10
4874.8080801742962649
 20
245.8720470494494919
 30
0.0
 40
0.0612510676823524
 50
0.6072153843412367
 51
92.9927871613344337
  0
ARC
  5
DE29
  8
0
 10
4874.8083895939444119
 20
245.8661287155495927
 30
0.0
 40
0.067177484531506
 50
92.9927871613344337
 51
176.0092851075881129
  0
ARC
  5
DE2A
  8
0
 10
4874.0880470909469295
 20
245.4810169368963955
 30
0.0
 40
0.0220238406618899
 50
258.7712721879382229
 51
97.2749618250780088
  0
ARC
  5
DE2B
  8
0
 10
4874.084376175230318
 20
245.4811436452160081
 30
0.0
 40
0.0217377389120819
 50
87.6745777047524939
 51
268.3716563082639937
  0
LINE
  5
DE2C
  8
0
 10
4874.1503368253470398
 20
245.5164140465344076
 30
0.0
 11
4874.1503034554471014
 21
245.490268804634411
 31
0.0
  0
ARC
  5
DE2D
  8
0
 10
4874.0892934406583663
 20
245.4930097426141913
 30
0.0
 40
0.0610715534888087
 50
293.6691102983351129
 51
357.427657576686272
  0
ARC
  5
DE2E
  8
0
 10
4874.0869146153236215
 20
245.498436805804289
 30
0.0
 40
0.0669970766585589
 50
207.5684396242066896
 51
293.6691102983351129
  0
ARC
  5
DE2F
  8
0
 10
4874.0664698486207271
 20
245.4877628754618968
 30
0.0
 40
0.0439336581229258
 50
181.1511992689738122
 51
207.5684396242052117
  0
LINE
  5
DE30
  8
0
 10
4874.0225450581474433
 20
245.4868802102344034
 30
0.0
 11
4874.02238401492923
 21
245.5145217960215973
 31
0.0
  0
ARC
  5
DE31
  8
0
 10
4874.08908919735768
 20
245.5157649255222054
 30
0.0
 40
0.0612510676823524
 50
0.6072153843412367
 51
92.9927871613344337
  0
ARC
  5
DE32
  8
0
 10
4874.0893986170085554
 20
245.5098465916223915
 30
0.0
 40
0.067177484531506
 50
92.9927871613344337
 51
176.0092851075881129
  0
ARC
  5
DE33
  8
0
 10
4874.2045078026203555
 20
245.1497708747131128
 30
0.0
 40
0.0220238406618899
 50
258.7712721879382229
 51
97.2749618250780088
  0
ARC
  5
DE34
  8
0
 10
4874.200836886901925
 20
245.1498975830328106
 30
0.0
 40
0.0217377389120819
 50
87.6745777047524939
 51
268.3716563082639937
  0
LINE
  5
DE35
  8
0
 10
4874.2667975370186468
 20
245.1851679843510965
 30
0.0
 11
4874.2667641671196179
 21
245.1590227424510999
 31
0.0
  0
ARC
  5
DE36
  8
0
 10
4874.2057541523308828
 20
245.1617636804309086
 30
0.0
 40
0.0610715534888087
 50
293.6691102983351129
 51
357.427657576686272
  0
ARC
  5
DE37
  8
0
 10
4874.203375326997957
 20
245.1671907436210063
 30
0.0
 40
0.0669970766585589
 50
207.5684396242066896
 51
293.6691102983351129
  0
ARC
  5
DE38
  8
0
 10
4874.1829305602932436
 20
245.1565168132786141
 30
0.0
 40
0.0439336581229258
 50
181.1511992689738122
 51
207.5684396242052117
  0
LINE
  5
DE39
  8
0
 10
4874.1390057698190503
 20
245.1556341480510923
 30
0.0
 11
4874.138844726600837
 21
245.1832757338382862
 31
0.0
  0
ARC
  5
DE3A
  8
0
 10
4874.2055499090311059
 20
245.184518863339008
 30
0.0
 40
0.0612510676823524
 50
0.6072153843412367
 51
92.9927871613344337
  0
ARC
  5
DE3B
  8
0
 10
4874.2058593286810719
 20
245.1786005294391089
 30
0.0
 40
0.067177484531506
 50
92.9927871613344337
 51
176.0092851075881129
  0
ARC
  5
DE3C
  8
0
 10
4874.7077429941318769
 20
245.3146895810941999
 30
0.0
 40
0.0220238406618899
 50
258.7712721879382229
 51
97.2749618250780088
  0
ARC
  5
DE3D
  8
0
 10
4874.7040720784152654
 20
245.3148162894138977
 30
0.0
 40
0.0217377389120819
 50
87.6745777047524939
 51
268.3716563082639937
  0
LINE
  5
DE3E
  8
0
 10
4874.7700327285319872
 20
245.350086690732212
 30
0.0
 11
4874.7699993586320488
 21
245.323941448832187
 31
0.0
  0
ARC
  5
DE3F
  8
0
 10
4874.7089893438442232
 20
245.3266823868119957
 30
0.0
 40
0.0610715534888087
 50
293.6691102983351129
 51
357.427657576686272
  0
ARC
  5
DE40
  8
0
 10
4874.7066105185103879
 20
245.3321094500020934
 30
0.0
 40
0.0669970766585589
 50
207.5684396242066896
 51
293.6691102983351129
  0
ARC
  5
DE41
  8
0
 10
4874.6861657518056745
 20
245.3214355196597012
 30
0.0
 40
0.0439336581229258
 50
181.1511992689738122
 51
207.5684396242052117
  0
LINE
  5
DE42
  8
0
 10
4874.6422409613323907
 20
245.3205528544322078
 30
0.0
 11
4874.6420799181141774
 21
245.348194440219288
 31
0.0
  0
ARC
  5
DE43
  8
0
 10
4874.7087851005444463
 20
245.3494375697200098
 30
0.0
 40
0.0612510676823524
 50
0.6072153843412367
 51
92.9927871613344337
  0
ARC
  5
DE44
  8
0
 10
4874.7090945201925933
 20
245.3435192358201959
 30
0.0
 40
0.067177484531506
 50
92.9927871613344337
 51
176.0092851075881129
  0
ARC
  5
DE45
  8
0
 10
4874.9876311310908932
 20
245.0857984797056019
 30
0.0
 40
0.0220238406618899
 50
258.7712721879382229
 51
97.2749618250780088
  0
ARC
  5
DE46
  8
0
 10
4874.9839602153742817
 20
245.0859251880251861
 30
0.0
 40
0.0217377389120819
 50
87.6745777047524939
 51
268.3716563082639937
  0
LINE
  5
DE47
  8
0
 10
4875.0499208654910035
 20
245.1211955893436141
 30
0.0
 11
4875.0498874955910651
 21
245.0950503474435891
 31
0.0
  0
ARC
  5
DE48
  8
0
 10
4874.98887748080233
 20
245.0977912854233125
 30
0.0
 40
0.0610715534888087
 50
293.6691102983351129
 51
357.427657576686272
  0
ARC
  5
DE49
  8
0
 10
4874.9864986554703137
 20
245.1032183486134954
 30
0.0
 40
0.0669970766585589
 50
207.5684396242066896
 51
293.6691102983351129
  0
ARC
  5
DE4A
  8
0
 10
4874.9660538887646908
 20
245.0925444182709896
 30
0.0
 40
0.0439336581229258
 50
181.1511992689738122
 51
207.5684396242052117
  0
LINE
  5
DE4B
  8
0
 10
4874.922129098289588
 20
245.0916617530434962
 30
0.0
 11
4874.9219680550731937
 21
245.1193033388306901
 31
0.0
  0
ARC
  5
DE4C
  8
0
 10
4874.9886732375043721
 20
245.1205464683314119
 30
0.0
 40
0.0612510676823524
 50
0.6072153843412367
 51
92.9927871613344337
  0
ARC
  5
DE4D
  8
0
 10
4874.9889826571534286
 20
245.1146281344315128
 30
0.0
 40
0.067177484531506
 50
92.9927871613344337
 51
176.0092851075881129
  0
ARC
  5
DE4E
  8
0
 10
4875.1180281211400143
 20
245.6149954510067914
 30
0.0
 40
0.0220238406618899
 50
258.7712721879382229
 51
97.2749618250780088
  0
ARC
  5
DE4F
  8
0
 10
4875.1143572054234028
 20
245.615122159326404
 30
0.0
 40
0.0217377389120819
 50
87.6745777047524939
 51
268.3716563082639937
  0
LINE
  5
DE50
  8
0
 10
4875.1803178555410341
 20
245.6503925606448036
 30
0.0
 11
4875.1802844856401862
 21
245.6242473187446933
 31
0.0
  0
ARC
  5
DE51
  8
0
 10
4875.1192744708523605
 20
245.626988256724502
 30
0.0
 40
0.0610715534888087
 50
293.6691102983351129
 51
357.427657576686272
  0
ARC
  5
DE52
  8
0
 10
4875.1168956455167063
 20
245.6324153199147133
 30
0.0
 40
0.0669970766585589
 50
207.5684396242066896
 51
293.6691102983351129
  0
ARC
  5
DE53
  8
0
 10
4875.0964508788138119
 20
245.6217413895722075
 30
0.0
 40
0.0439336581229258
 50
181.1511992689738122
 51
207.5684396242052117
  0
LINE
  5
DE54
  8
0
 10
4875.0525260883396186
 20
245.6208587243447141
 30
0.0
 11
4875.0523650451223148
 21
245.648500310131908
 31
0.0
  0
ARC
  5
DE55
  8
0
 10
4875.1190702275507647
 20
245.6497434396326014
 30
0.0
 40
0.0612510676823524
 50
0.6072153843412367
 51
92.9927871613344337
  0
ARC
  5
DE56
  8
0
 10
4875.1193796472016402
 20
245.6438251057327022
 30
0.0
 40
0.067177484531506
 50
92.9927871613344337
 51
176.0092851075881129
  0
ARC
  5
DE57
  8
0
 10
4875.3308756636160979
 20
245.3293456335943006
 30
0.0
 40
0.0220238406618899
 50
258.7712721879382229
 51
97.2749618250780088
  0
ARC
  5
DE58
  8
0
 10
4875.3272047478985769
 20
245.3294723419139132
 30
0.0
 40
0.0217377389120819
 50
87.6745777047524939
 51
268.3716563082639937
  0
LINE
  5
DE59
  8
0
 10
4875.3931653980162082
 20
245.3647427432323127
 30
0.0
 11
4875.3931320281153603
 21
245.3385975013322025
 31
0.0
  0
ARC
  5
DE5A
  8
0
 10
4875.3321220133257157
 20
245.3413384393120111
 30
0.0
 40
0.0610715534888087
 50
293.6691102983351129
 51
357.427657576686272
  0
ARC
  5
DE5B
  8
0
 10
4875.3297431879927899
 20
245.3467655025021941
 30
0.0
 40
0.0669970766585589
 50
207.5684396242066896
 51
293.6691102983351129
  0
ARC
  5
DE5C
  8
0
 10
4875.3092984212898955
 20
245.3360915721598019
 30
0.0
 40
0.0439336581229258
 50
181.1511992689738122
 51
207.5684396242052117
  0
LINE
  5
DE5D
  8
0
 10
4875.2653736308157022
 20
245.3352089069323085
 30
0.0
 11
4875.2652125875983984
 21
245.3628504927193887
 31
0.0
  0
ARC
  5
DE5E
  8
0
 10
4875.3319177700277578
 20
245.3640936222201105
 30
0.0
 40
0.0612510676823524
 50
0.6072153843412367
 51
92.9927871613344337
  0
ARC
  5
DE5F
  8
0
 10
4875.3322271896768143
 20
245.3581752883202114
 30
0.0
 40
0.067177484531506
 50
92.9927871613344337
 51
176.0092851075881129
  0
ARC
  5
DE60
  8
0
 10
4875.6066957172270122
 20
245.6199684680777864
 30
0.0
 40
0.0220238406618899
 50
258.7712721879382229
 51
97.2749618250780088
  0
ARC
  5
DE61
  8
0
 10
4875.6030248015104007
 20
245.6200951763975127
 30
0.0
 40
0.0217377389120819
 50
87.6745777047524939
 51
268.3716563082639937
  0
LINE
  5
DE62
  8
0
 10
4875.6689854516271225
 20
245.6553655777157985
 30
0.0
 11
4875.6689520817262746
 21
245.6292203358158019
 31
0.0
  0
ARC
  5
DE63
  8
0
 10
4875.607942066938449
 20
245.6319612737956106
 30
0.0
 40
0.0610715534888087
 50
293.6691102983351129
 51
357.427657576686272
  0
ARC
  5
DE64
  8
0
 10
4875.6055632416046137
 20
245.6373883369857083
 30
0.0
 40
0.0669970766585589
 50
207.5684396242066896
 51
293.6691102983351129
  0
ARC
  5
DE65
  8
0
 10
4875.5851184749008098
 20
245.6267144066432877
 30
0.0
 40
0.0439336581229258
 50
181.1511992689738122
 51
207.5684396242052117
  0
LINE
  5
DE66
  8
0
 10
4875.541193684425707
 20
245.6258317414157943
 30
0.0
 11
4875.5410326412093127
 21
245.6534733272029882
 31
0.0
  0
ARC
  5
DE67
  8
0
 10
4875.6077378236386721
 20
245.6547164567035964
 30
0.0
 40
0.0612510676823524
 50
0.6072153843412367
 51
92.9927871613344337
  0
ARC
  5
DE68
  8
0
 10
4875.6080472432886381
 20
245.6487981228038109
 30
0.0
 40
0.067177484531506
 50
92.9927871613344337
 51
176.0092851075881129
  0
ARC
  5
DE69
  8
0
 10
4875.7991155137997339
 20
245.9521935606665863
 30
0.0
 40
0.0220238406618899
 50
258.7712721879382229
 51
97.2749618250780088
  0
ARC
  5
DE6A
  8
0
 10
4875.7954445980840319
 20
245.9523202689863126
 30
0.0
 40
0.0217377389120819
 50
87.6745777047524939
 51
268.3716563082639937
  0
LINE
  5
DE6B
  8
0
 10
4875.8614052482007537
 20
245.9875906703045985
 30
0.0
 11
4875.8613718783008153
 21
245.9614454284046872
 31
0.0
  0
ARC
  5
DE6C
  8
0
 10
4875.8003618635120802
 20
245.9641863663844106
 30
0.0
 40
0.0610715534888087
 50
293.6691102983351129
 51
357.427657576686272
  0
ARC
  5
DE6D
  8
0
 10
4875.7979830381791544
 20
245.9696134295745082
 30
0.0
 40
0.0669970766585589
 50
207.5684396242066896
 51
293.6691102983351129
  0
ARC
  5
DE6E
  8
0
 10
4875.777538271474441
 20
245.9589394992320877
 30
0.0
 40
0.0439336581229258
 50
181.1511992689738122
 51
207.5684396242052117
  0
LINE
  5
DE6F
  8
0
 10
4875.7336134810011572
 20
245.9580568340045943
 30
0.0
 11
4875.7334524377829439
 21
245.9856984197917882
 31
0.0
  0
ARC
  5
DE70
  8
0
 10
4875.8001576202132128
 20
245.98694154929251
 30
0.0
 40
0.0612510676823524
 50
0.6072153843412367
 51
92.9927871613344337
  0
ARC
  5
DE71
  8
0
 10
4875.8004670398622693
 20
245.9810232153926108
 30
0.0
 40
0.067177484531506
 50
92.9927871613344337
 51
176.0092851075881129
  0
ARC
  5
DE72
  8
0
 10
4875.3833359271720838
 20
246.0063299127122036
 30
0.0
 40
0.0220238406618899
 50
258.7712721879382229
 51
97.2749618250780088
  0
ARC
  5
DE73
  8
0
 10
4875.3796650114536533
 20
246.0064566210319015
 30
0.0
 40
0.0217377389120819
 50
87.6745777047524939
 51
268.3716563082639937
  0
LINE
  5
DE74
  8
0
 10
4875.4456256615712846
 20
246.0417270223501873
 30
0.0
 11
4875.4455922916713462
 21
246.0155817804501908
 31
0.0
  0
ARC
  5
DE75
  8
0
 10
4875.384582276882611
 20
246.0183227184299994
 30
0.0
 40
0.0610715534888087
 50
293.6691102983351129
 51
357.427657576686272
  0
ARC
  5
DE76
  8
0
 10
4875.3822034515496853
 20
246.0237497816200971
 30
0.0
 40
0.0669970766585589
 50
207.5684396242066896
 51
293.6691102983351129
  0
ARC
  5
DE77
  8
0
 10
4875.3617586848449719
 20
246.0130758512777049
 30
0.0
 40
0.0439336581229258
 50
181.1511992689738122
 51
207.5684396242052117
  0
LINE
  5
DE78
  8
0
 10
4875.3178338943716881
 20
246.0121931860502116
 30
0.0
 11
4875.3176728511552938
 21
246.0398347718374055
 31
0.0
  0
ARC
  5
DE79
  8
0
 10
4875.3843780335837437
 20
246.0410779013380989
 30
0.0
 40
0.0612510676823524
 50
0.6072153843412367
 51
92.9927871613344337
  0
ARC
  5
DE7A
  8
0
 10
4875.3846874532328002
 20
246.0351595674381997
 30
0.0
 40
0.067177484531506
 50
92.9927871613344337
 51
176.0092851075881129
  0
ARC
  5
DE7B
  8
0
 10
4875.8962873973614478
 20
246.3088437738898904
 30
0.0
 40
0.0220238406618899
 50
258.7712721879382229
 51
97.2749618250780088
  0
ARC
  5
DE7C
  8
0
 10
4875.8926164816439268
 20
246.308970482209503
 30
0.0
 40
0.0217377389120819
 50
87.6745777047524939
 51
268.3716563082639937
  0
LINE
  5
DE7D
  8
0
 10
4875.9585771317606486
 20
246.3442408835279025
 30
0.0
 11
4875.9585437618607102
 21
246.3180956416279059
 31
0.0
  0
ARC
  5
DE7E
  8
0
 10
4875.8975337470719751
 20
246.3208365796076862
 30
0.0
 40
0.0610715534888087
 50
293.6691102983351129
 51
357.427657576686272
  0
ARC
  5
DE7F
  8
0
 10
4875.8951549217390493
 20
246.3262636427978123
 30
0.0
 40
0.0669970766585589
 50
207.5684396242066896
 51
293.6691102983351129
  0
ARC
  5
DE80
  8
0
 10
4875.8747101550343359
 20
246.3155897124553917
 30
0.0
 40
0.0439336581229258
 50
181.1511992689738122
 51
207.5684396242052117
  0
LINE
  5
DE81
  8
0
 10
4875.8307853645610521
 20
246.3147070472278983
 30
0.0
 11
4875.8306243213437483
 21
246.342348633015007
 31
0.0
  0
ARC
  5
DE82
  8
0
 10
4875.8973295037731077
 20
246.3435917625157003
 30
0.0
 40
0.0612510676823524
 50
0.6072153843412367
 51
92.9927871613344337
  0
ARC
  5
DE83
  8
0
 10
4875.8976389234221642
 20
246.3376734286158865
 30
0.0
 40
0.067177484531506
 50
92.9927871613344337
 51
176.0092851075881129
  0
ARC
  5
DE84
  8
0
 10
4875.4783154849546918
 20
246.4439347235500009
 30
0.0
 40
0.0220238406618899
 50
258.7712721879382229
 51
97.2749618250780088
  0
ARC
  5
DE85
  8
0
 10
4875.4746445692389898
 20
246.4440614318696987
 30
0.0
 40
0.0217377389120819
 50
87.6745777047524939
 51
268.3716563082639937
  0
LINE
  5
DE86
  8
0
 10
4875.5406052193557116
 20
246.479331833188013
 30
0.0
 11
4875.5405718494548637
 21
246.453186591287988
 31
0.0
  0
ARC
  5
DE87
  8
0
 10
4875.4795618346670381
 20
246.4559275292677967
 30
0.0
 40
0.0610715534888087
 50
293.6691102983351129
 51
357.427657576686272
  0
ARC
  5
DE88
  8
0
 10
4875.4771830093332028
 20
246.4613545924578943
 30
0.0
 40
0.0669970766585589
 50
207.5684396242066896
 51
293.6691102983351129
  0
ARC
  5
DE89
  8
0
 10
4875.4567382426293989
 20
246.4506806621155022
 30
0.0
 40
0.0439336581229258
 50
181.1511992689738122
 51
207.5684396242052117
  0
LINE
  5
DE8A
  8
0
 10
4875.4128134521570246
 20
246.4497979968880088
 30
0.0
 11
4875.4126524089379018
 21
246.4774395826752027
 31
0.0
  0
ARC
  5
DE8B
  8
0
 10
4875.4793575913681707
 20
246.4786827121758961
 30
0.0
 40
0.0612510676823524
 50
0.6072153843412367
 51
92.9927871613344337
  0
ARC
  5
DE8C
  8
0
 10
4875.4796670110172272
 20
246.4727643782759969
 30
0.0
 40
0.067177484531506
 50
92.9927871613344337
 51
176.0092851075881129
  0
ARC
  5
DE8D
  8
0
 10
4875.3843265673249334
 20
246.8835847169256112
 30
0.0
 40
0.0220238406618899
 50
258.7712721879382229
 51
97.2749618250780088
  0
ARC
  5
DE8E
  8
0
 10
4875.3806556516083219
 20
246.8837114252453091
 30
0.0
 40
0.0217377389120819
 50
87.6745777047524939
 51
268.3716563082639937
  0
LINE
  5
DE8F
  8
0
 10
4875.4466163017250437
 20
246.918981826563595
 30
0.0
 11
4875.4465829318251053
 21
246.8928365846635984
 31
0.0
  0
ARC
  5
DE90
  8
0
 10
4875.3855729170372797
 20
246.8955775226434071
 30
0.0
 40
0.0610715534888087
 50
293.6691102983351129
 51
357.427657576686272
  0
ARC
  5
DE91
  8
0
 10
4875.3831940917034444
 20
246.9010045858335047
 30
0.0
 40
0.0669970766585589
 50
207.5684396242066896
 51
293.6691102983351129
  0
ARC
  5
DE92
  8
0
 10
4875.362749324998731
 20
246.8903306554911126
 30
0.0
 40
0.0439336581229258
 50
181.1511992689738122
 51
207.5684396242052117
  0
LINE
  5
DE93
  8
0
 10
4875.3188245345263567
 20
246.8894479902635908
 30
0.0
 11
4875.3186634913072339
 21
246.9170895760508131
 31
0.0
  0
ARC
  5
DE94
  8
0
 10
4875.3853686737384123
 20
246.9183327055515065
 30
0.0
 40
0.0612510676823524
 50
0.6072153843412367
 51
92.9927871613344337
  0
ARC
  5
DE95
  8
0
 10
4875.3856780933865593
 20
246.9124143716516073
 30
0.0
 40
0.067177484531506
 50
92.9927871613344337
 51
176.0092851075881129
  0
ARC
  5
DE96
  8
0
 10
4875.115684788692306
 20
247.2641874154149946
 30
0.0
 40
0.0220238406618899
 50
258.7712721879382229
 51
97.2749618250780088
  0
ARC
  5
DE97
  8
0
 10
4875.1120138729756945
 20
247.2643141237346924
 30
0.0
 40
0.0217377389120819
 50
87.6745777047524939
 51
268.3716563082639937
  0
LINE
  5
DE98
  8
0
 10
4875.1779745230933258
 20
247.2995845250530067
 30
0.0
 11
4875.1779411531933874
 21
247.2734392831530101
 31
0.0
  0
ARC
  5
DE99
  8
0
 10
4875.1169311384028333
 20
247.2761802211327904
 30
0.0
 40
0.0610715534888087
 50
293.6691102983351129
 51
357.427657576686272
  0
ARC
  5
DE9A
  8
0
 10
4875.114552313070817
 20
247.2816072843228881
 30
0.0
 40
0.0669970766585589
 50
207.5684396242066896
 51
293.6691102983351129
  0
ARC
  5
DE9B
  8
0
 10
4875.0941075463670131
 20
247.2709333539804959
 30
0.0
 40
0.0439336581229258
 50
181.1511992689738122
 51
207.5684396242052117
  0
LINE
  5
DE9C
  8
0
 10
4875.0501827558919103
 20
247.2700506887530025
 30
0.0
 11
4875.0500217126746065
 21
247.2976922745401964
 31
0.0
  0
ARC
  5
DE9D
  8
0
 10
4875.1167268951048754
 20
247.2989354040408898
 30
0.0
 40
0.0612510676823524
 50
0.6072153843412367
 51
92.9927871613344337
  0
ARC
  5
DE9E
  8
0
 10
4875.1170363147539319
 20
247.2930170701409907
 30
0.0
 40
0.067177484531506
 50
92.9927871613344337
 51
176.0092851075881129
  0
ARC
  5
DE9F
  8
0
 10
4874.9862757097607755
 20
247.8687871522870978
 30
0.0
 40
0.0220238406618899
 50
258.7712721879382229
 51
97.2749618250780088
  0
ARC
  5
DEA0
  8
0
 10
4874.9826047940450735
 20
247.8689138606067957
 30
0.0
 40
0.0217377389120819
 50
87.6745777047524939
 51
268.3716563082639937
  0
LINE
  5
DEA1
  8
0
 10
4875.0485654441608858
 20
247.9041842619249962
 30
0.0
 11
4875.0485320742609474
 21
247.8780390200251134
 31
0.0
  0
ARC
  5
DEA2
  8
0
 10
4874.9875220594722123
 20
247.8807799580048936
 30
0.0
 40
0.0610715534888087
 50
293.6691102983351129
 51
357.427657576686272
  0
ARC
  5
DEA3
  8
0
 10
4874.985143234138377
 20
247.886207021194906
 30
0.0
 40
0.0669970766585589
 50
207.5684396242066896
 51
293.6691102983351129
  0
ARC
  5
DEA4
  8
0
 10
4874.9646984674345731
 20
247.8755330908525139
 30
0.0
 40
0.0439336581229258
 50
181.1511992689738122
 51
207.5684396242052117
  0
LINE
  5
DEA5
  8
0
 10
4874.9207736769612893
 20
247.8746504256251058
 30
0.0
 11
4874.9206126337439855
 21
247.902292011412186
 31
0.0
  0
ARC
  5
DEA6
  8
0
 10
4874.9873178161733449
 20
247.9035351409129078
 30
0.0
 40
0.0612510676823524
 50
0.6072153843412367
 51
92.9927871613344337
  0
ARC
  5
DEA7
  8
0
 10
4874.9876272358224014
 20
247.8976168070130086
 30
0.0
 40
0.067177484531506
 50
92.9927871613344337
 51
176.0092851075881129
  0
ARC
  5
DEA8
  8
0
 10
4874.5873624767464207
 20
248.0285493414598932
 30
0.0
 40
0.0220238406618899
 50
258.7712721879382229
 51
97.2749618250780088
  0
ARC
  5
DEA9
  8
0
 10
4874.5836915610288997
 20
248.028676049779591
 30
0.0
 40
0.0217377389120819
 50
87.6745777047524939
 51
268.3716563082639937
  0
LINE
  5
DEAA
  8
0
 10
4874.6496522111456215
 20
248.0639464510979053
 30
0.0
 11
4874.6496188412456831
 21
248.0378012091979087
 31
0.0
  0
ARC
  5
DEAB
  8
0
 10
4874.5886088264560385
 20
248.040542147177689
 30
0.0
 40
0.0610715534888087
 50
293.6691102983351129
 51
357.427657576686272
  0
ARC
  5
DEAC
  8
0
 10
4874.5862300011240222
 20
248.0459692103677867
 30
0.0
 40
0.0669970766585589
 50
207.5684396242066896
 51
293.6691102983351129
  0
ARC
  5
DEAD
  8
0
 10
4874.5657852344202183
 20
248.0352952800253945
 30
0.0
 40
0.0439336581229258
 50
181.1511992689738122
 51
207.5684396242052117
  0
LINE
  5
DEAE
  8
0
 10
4874.5218604439451155
 20
248.0344126147979011
 30
0.0
 11
4874.5216994007278117
 21
248.062054200585095
 31
0.0
  0
ARC
  5
DEAF
  8
0
 10
4874.5884045831580806
 20
248.0632973300857884
 30
0.0
 40
0.0612510676823524
 50
0.6072153843412367
 51
92.9927871613344337
  0
ARC
  5
DEB0
  8
0
 10
4874.5887140028080466
 20
248.0573789961858893
 30
0.0
 40
0.067177484531506
 50
92.9927871613344337
 51
176.0092851075881129
  0
ARC
  5
DEB1
  8
0
 10
4875.3304917791856496
 20
247.64131450151379
 30
0.0
 40
0.0220238406618899
 50
258.7712721879382229
 51
97.2749618250780088
  0
ARC
  5
DEB2
  8
0
 10
4875.3268208634690382
 20
247.6414412098334878
 30
0.0
 40
0.0217377389120819
 50
87.6745777047524939
 51
268.3716563082639937
  0
LINE
  5
DEB3
  8
0
 10
4875.39278151358576
 20
247.6767116111518021
 30
0.0
 11
4875.3927481436849121
 21
247.6505663692518056
 31
0.0
  0
ARC
  5
DEB4
  8
0
 10
4875.3317381288961769
 20
247.6533073072315858
 30
0.0
 40
0.0610715534888087
 50
293.6691102983351129
 51
357.427657576686272
  0
ARC
  5
DEB5
  8
0
 10
4875.3293593035632512
 20
247.6587343704217119
 30
0.0
 40
0.0669970766585589
 50
207.5684396242066896
 51
293.6691102983351129
  0
ARC
  5
DEB6
  8
0
 10
4875.3089145368594473
 20
247.648060440079206
 30
0.0
 40
0.0439336581229258
 50
181.1511992689738122
 51
207.5684396242052117
  0
LINE
  5
DEB7
  8
0
 10
4875.264989746385254
 20
247.6471777748517979
 30
0.0
 11
4875.2648287031679502
 21
247.6748193606389066
 31
0.0
  0
ARC
  5
DEB8
  8
0
 10
4875.3315338855982191
 20
247.6760624901396
 30
0.0
 40
0.0612510676823524
 50
0.6072153843412367
 51
92.9927871613344337
  0
ARC
  5
DEB9
  8
0
 10
4875.3318433052472756
 20
247.6701441562397861
 30
0.0
 40
0.067177484531506
 50
92.9927871613344337
 51
176.0092851075881129
  0
ARC
  5
DEBA
  8
0
 10
4875.6074007182542118
 20
247.3558421946196972
 30
0.0
 40
0.0220238406618899
 50
258.7712721879382229
 51
97.2749618250780088
  0
ARC
  5
DEBB
  8
0
 10
4875.6037298025376003
 20
247.3559689029393098
 30
0.0
 40
0.0217377389120819
 50
87.6745777047524939
 51
268.3716563082639937
  0
LINE
  5
DEBC
  8
0
 10
4875.6696904526543221
 20
247.3912393042577094
 30
0.0
 11
4875.6696570827543837
 21
247.3650940623575991
 31
0.0
  0
ARC
  5
DEBD
  8
0
 10
4875.6086470679656486
 20
247.3678350003374078
 30
0.0
 40
0.0610715534888087
 50
293.6691102983351129
 51
357.427657576686272
  0
ARC
  5
DEBE
  8
0
 10
4875.6062682426309038
 20
247.3732620635275907
 30
0.0
 40
0.0669970766585589
 50
207.5684396242066896
 51
293.6691102983351129
  0
ARC
  5
DEBF
  8
0
 10
4875.5858234759280094
 20
247.3625881331851986
 30
0.0
 40
0.0439336581229258
 50
181.1511992689738122
 51
207.5684396242052117
  0
LINE
  5
DEC0
  8
0
 10
4875.5418986854538161
 20
247.3617054679575915
 30
0.0
 11
4875.5417376422374218
 21
247.3893470537448138
 31
0.0
  0
ARC
  5
DEC1
  8
0
 10
4875.6084428246658717
 20
247.3905901832455072
 30
0.0
 40
0.0612510676823524
 50
0.6072153843412367
 51
92.9927871613344337
  0
ARC
  5
DEC2
  8
0
 10
4875.6087522443158377
 20
247.3846718493456081
 30
0.0
 40
0.067177484531506
 50
92.9927871613344337
 51
176.0092851075881129
  0
ARC
  5
DEC3
  8
0
 10
4875.7993611270621841
 20
247.0287202571813907
 30
0.0
 40
0.0220238406618899
 50
258.7712721879382229
 51
97.2749618250780088
  0
ARC
  5
DEC4
  8
0
 10
4875.7956902113446631
 20
247.0288469655010033
 30
0.0
 40
0.0217377389120819
 50
87.6745777047524939
 51
268.3716563082639937
  0
LINE
  5
DEC5
  8
0
 10
4875.8616508614622944
 20
247.0641173668194028
 30
0.0
 11
4875.861617491562356
 21
247.0379721249194063
 31
0.0
  0
ARC
  5
DEC6
  8
0
 10
4875.8006074767727114
 20
247.0407130628991013
 30
0.0
 40
0.0610715534888087
 50
293.6691102983351129
 51
357.427657576686272
  0
ARC
  5
DEC7
  8
0
 10
4875.7982286514397856
 20
247.0461401260893126
 30
0.0
 40
0.0669970766585589
 50
207.5684396242066896
 51
293.6691102983351129
  0
ARC
  5
DEC8
  8
0
 10
4875.7777838847359817
 20
247.035466195746892
 30
0.0
 40
0.0439336581229258
 50
181.1511992689738122
 51
207.5684396242052117
  0
LINE
  5
DEC9
  8
0
 10
4875.7338590942608789
 20
247.0345835305193987
 30
0.0
 11
4875.7336980510435751
 21
247.0622251163065073
 31
0.0
  0
ARC
  5
DECA
  8
0
 10
4875.800403233473844
 20
247.0634682458072007
 30
0.0
 40
0.0612510676823524
 50
0.6072153843412367
 51
92.9927871613344337
  0
ARC
  5
DECB
  8
0
 10
4875.8007126531229005
 20
247.0575499119073868
 30
0.0
 40
0.067177484531506
 50
92.9927871613344337
 51
176.0092851075881129
  0
ARC
  5
DECC
  8
0
 10
4875.8974017538248518
 20
246.6739524177689873
 30
0.0
 40
0.0220238406618899
 50
258.7712721879382229
 51
97.2749618250780088
  0
ARC
  5
DECD
  8
0
 10
4875.8937308381073308
 20
246.6740791260887136
 30
0.0
 40
0.0217377389120819
 50
87.6745777047524939
 51
268.3716563082639937
  0
LINE
  5
DECE
  8
0
 10
4875.9596914882240526
 20
246.7093495274069994
 30
0.0
 11
4875.9596581183232047
 21
246.6832042855070029
 31
0.0
  0
ARC
  5
DECF
  8
0
 10
4875.8986481035335601
 20
246.6859452234868115
 30
0.0
 40
0.0610715534888087
 50
293.6691102983351129
 51
357.427657576686272
  0
ARC
  5
DED0
  8
0
 10
4875.8962692782006343
 20
246.6913722866769092
 30
0.0
 40
0.0669970766585589
 50
207.5684396242066896
 51
293.6691102983351129
  0
ARC
  5
DED1
  8
0
 10
4875.8758245114968304
 20
246.6806983563344886
 30
0.0
 40
0.0439336581229258
 50
181.1511992689738122
 51
207.5684396242052117
  0
LINE
  5
DED2
  8
0
 10
4875.8318997210235466
 20
246.6798156911069952
 30
0.0
 11
4875.8317386778062428
 21
246.7074572768941891
 31
0.0
  0
ARC
  5
DED3
  8
0
 10
4875.8984438602346927
 20
246.7087004063947973
 30
0.0
 40
0.0612510676823524
 50
0.6072153843412367
 51
92.9927871613344337
  0
ARC
  5
DED4
  8
0
 10
4875.8987532798846587
 20
246.7027820724950118
 30
0.0
 40
0.067177484531506
 50
92.9927871613344337
 51
176.0092851075881129
  0
ARC
  5
DED5
  8
0
 10
4871.9275068314564123
 20
248.4853588862833078
 30
0.0
 40
1.2401574802999991
 50
119.4762993809288929
 51
246.6201318815774073
  0
ARC
  5
DED6
  8
0
 10
4871.9275068314564123
 20
248.4853588862833078
 30
0.0
 40
1.2401574802999991
 50
17.4294756976527516
 51
60.523700613749142
  0
ARC
  5
DED7
  8
0
 10
4871.9275068314564123
 20
248.4853588862833078
 30
0.0
 40
1.2401574802999991
 50
70.8118635454853518
 51
71.4905950183039351
  0
ARC
  5
DED8
  8
0
 10
4871.9275068314564123
 20
248.4853588862833078
 30
0.0
 40
1.2401574802999991
 50
108.5094049816960933
 51
109.1881364545146056
  0
LINE
  5
DED9
  8
0
 10
4867.203097254655404
 20
213.9087195069853067
 30
0.0
 11
4871.4511441641097917
 21
213.9091227704149105
 31
0.0
  0
LINE
  5
DEDA
  8
0
 10
4872.4037302353553969
 20
213.9091998987832994
 30
0.0
 11
4876.1794753354051863
 21
213.9087569237618993
 31
0.0
  0
ARC
  5
DEDB
  8
0
 10
4868.9747509255221303
 20
214.8930475513604961
 30
0.0
 40
1.191006219259457
 50
235.7516157778138108
 51
304.248998519671602
  0
ARC
  5
DEDC
  8
0
 10
4868.9747509259195795
 20
214.8930472130010116
 30
0.0
 40
1.1908838829171911
 50
55.6684961869126198
 51
124.3315038130873944
  0
LINE
  5
DEDD
  8
0
 10
4871.6420794540417774
 20
212.2707919572181083
 30
0.0
 11
4871.6420826234243577
 21
211.3890492061181874
 31
0.0
  0
LINE
  5
DEDE
  8
0
 10
4872.2129505252069066
 20
212.2707919572181083
 30
0.0
 11
4872.2129440635981155
 21
211.7344528542238038
 31
0.0
  0
ARC
  5
DEDF
  8
0
 10
4871.9274852223716152
 20
213.8813312442505037
 30
0.0
 40
1.325625412314519
 50
89.999065121348707
 51
92.7024915148980995
  0
ARC
  5
DEE0
  8
0
 10
4871.9186232496658704
 20
214.0690754173768084
 30
0.0
 40
1.1376722024372541
 50
92.7024915148980995
 51
97.8383706568080385
  0
ARC
  5
DEE1
  8
0
 10
4871.8512398182738252
 20
214.5585483580792925
 30
0.0
 40
0.6435828517061103
 50
97.8383706568080385
 51
103.6807000147307036
  0
ARC
  5
DEE2
  8
0
 10
4871.781853965288974
 20
214.8435978218182072
 30
0.0
 40
0.3502100626264428
 50
103.6807000147307036
 51
111.3107005673069949
  0
ARC
  5
DEE3
  8
0
 10
4871.7022031205651729
 20
215.0477789928769994
 30
0.0
 40
0.1310429855366077
 50
111.3107005673069949
 51
124.7730950094849049
  0
ARC
  5
DEE4
  8
0
 10
4871.6522253643770455
 20
215.1197596616088958
 30
0.0
 40
0.04341312313396
 50
124.7730950094849049
 51
149.3228936829065958
  0
ARC
  5
DEE5
  8
0
 10
4871.6300874921862487
 20
215.1328922069197915
 30
0.0
 40
0.0176730933851642
 50
149.3228936829052884
 51
210.7954160675764967
  0
ARC
  5
DEE6
  8
0
 10
4872.2913395854975533
 20
234.3606183001679142
 30
0.0
 40
19.3054378791862185
 50
268.8131669463915046
 51
268.9201536160018122
  0
ARC
  5
DEE7
  8
0
 10
4871.925342452899713
 20
216.3151050894595926
 30
0.0
 40
1.256239740500112
 50
264.9845127119518224
 51
268.455042127030481
  0
ARC
  5
DEE8
  8
0
 10
4871.8914906161207909
 20
215.924511234505303
 30
0.0
 40
0.864184434355835
 50
256.789421614114076
 51
265.0667905094970251
  0
ARC
  5
DEE9
  8
0
 10
4871.7488060358327857
 20
215.3166772307112922
 30
0.0
 40
0.2398279131114953
 50
241.0488929320420084
 51
256.789421614114076
  0
ARC
  5
DEEA
  8
0
 10
4871.656118650602366
 20
215.1491277296844089
 30
0.0
 40
0.0483500118400317
 50
211.5290210078163113
 51
241.0488929320883926
  0
ARC
  5
DEEB
  8
0
 10
4871.6674334628496581
 20
215.1949377539594082
 30
0.0
 40
0.066805352764098
 50
224.217907204681012
 51
231.8161607878238044
  0
ARC
  5
DEEC
  8
0
 10
4871.6826146956163939
 20
215.2142408604813113
 30
0.0
 40
0.0913630348548323
 50
231.8161607878238044
 51
245.01088873550259
  0
ARC
  5
DEED
  8
0
 10
4871.9299569423419598
 20
215.6547526846443077
 30
0.0
 40
0.5963445040201196
 50
241.348233271885789
 51
248.6073966432223017
  0
ARC
  5
DEEE
  8
0
 10
4871.9300135644089096
 20
215.66110807102379
 30
0.0
 40
0.602286936711522
 50
248.8229100658070081
 51
256.4112409429052946
  0
ARC
  5
DEEF
  8
0
 10
4871.8702974124917091
 20
215.3669856192470036
 30
0.0
 40
0.3025696338377783
 50
254.3164161108790893
 51
262.091729154037921
  0
ARC
  5
DEF0
  8
0
 10
4871.9182610155576185
 20
215.5860902477760987
 30
0.0
 40
0.5264760235573755
 50
260.2019668523411724
 51
266.903884881529109
  0
ARC
  5
DEF1
  8
0
 10
4871.6614205157029573
 20
210.4792211531128885
 30
0.0
 40
4.58685185778904
 50
86.7593776267473658
 51
87.1457430562031448
  0
ARC
  5
DEF2
  8
0
 10
4871.9507420512081808
 20
215.9125740639485969
 30
0.0
 40
0.8479776749870348
 50
263.2056002403252251
 51
268.4303379012790742
  0
ARC
  5
DEF3
  8
0
 10
4871.9272881492206579
 20
215.6690747181824861
 30
0.0
 40
0.6034388815881144
 50
254.9479373903517967
 51
262.6816211114121984
  0
ARC
  5
DEF4
  8
0
 10
4871.9263051004572844
 20
215.6654192199681859
 30
0.0
 40
0.5996535081499658
 50
247.2973823891416885
 51
254.9479373903517967
  0
ARC
  5
DEF5
  8
0
 10
4871.9248923622371876
 20
215.6620423938879014
 30
0.0
 40
0.5959930732501777
 50
244.8089832038145914
 51
247.2973823891416885
  0
LINE
  5
DEF6
  8
0
 10
4871.6712154072001795
 20
215.1227319583825022
 30
0.0
 11
4871.6707099916129664
 21
215.1238952129656923
 31
0.0
  0
LINE
  5
DEF7
  8
0
 10
4871.6712154072001795
 20
215.1227319583825022
 30
0.0
 11
4871.6877071063263429
 21
215.1325983102885004
 31
0.0
  0
LINE
  5
DEF8
  8
0
 10
4871.6877071063263429
 20
215.1325983102885004
 30
0.0
 11
4871.6877071063263429
 21
215.1208612888885057
 31
0.0
  0
LINE
  5
DEF9
  8
0
 10
4871.6877071063263429
 20
215.1208612888885057
 30
0.0
 11
4871.7218849621258414
 21
215.1208612888885057
 31
0.0
  0
LINE
  5
DEFA
  8
0
 10
4871.7218849621258414
 20
215.1208612888885057
 30
0.0
 11
4871.7218849621258414
 21
215.1257543980605931
 31
0.0
  0
LINE
  5
DEFB
  8
0
 10
4871.6707099916648076
 20
215.1238952129434097
 30
0.0
 11
4871.6671146648941431
 21
215.125603400206586
 31
0.0
  0
LINE
  5
DEFC
  8
0
 10
4871.6671146648941431
 20
215.125603400206586
 30
0.0
 11
4871.6572721452321275
 21
215.1332901804634048
 31
0.0
  0
LINE
  5
DEFD
  8
0
 10
4871.6572721452321275
 20
215.1332901804634048
 30
0.0
 11
4871.6671128862253681
 21
215.1318776781884878
 31
0.0
  0
LINE
  5
DEFE
  8
0
 10
4871.6671128862253681
 20
215.1318776781884878
 30
0.0
 11
4871.6691323828708846
 21
215.1309178131826059
 31
0.0
  0
LINE
  5
DEFF
  8
0
 10
4871.6691323828708846
 20
215.1309178131826059
 30
0.0
 11
4871.6850072270253804
 21
215.1405270806885142
 31
0.0
  0
LINE
  5
DF00
  8
0
 10
4871.6691323854247457
 20
215.1309177805885042
 30
0.0
 11
4871.6689426233251652
 21
215.1333388802885906
 31
0.0
  0
LINE
  5
DF01
  8
0
 10
4871.6689426233251652
 20
215.1333388802885906
 30
0.0
 11
4871.6691324140319921
 21
215.1359926851600051
 31
0.0
  0
LINE
  5
DF02
  8
0
 10
4871.6691324140319921
 20
215.1359926851600051
 30
0.0
 11
4871.6800803385876861
 21
215.1427200871999901
 31
0.0
  0
LINE
  5
DF03
  8
0
 10
4871.6691323858249234
 20
215.1359926674884946
 30
0.0
 11
4871.6671135567257807
 21
215.1369527130825929
 31
0.0
  0
LINE
  5
DF04
  8
0
 10
4871.6671135567257807
 20
215.1369527130825929
 30
0.0
 11
4871.6572721451366306
 21
215.1463823523795895
 31
0.0
  0
LINE
  5
DF05
  8
0
 10
4871.6572721451366306
 20
215.1463823523795895
 30
0.0
 11
4871.6671136555250996
 21
215.1467128572884917
 31
0.0
  0
LINE
  5
DF06
  8
0
 10
4871.6671136555250996
 20
215.1467128572884917
 30
0.0
 11
4871.670570131875138
 21
215.1450705949384883
 31
0.0
  0
LINE
  5
DF07
  8
0
 10
4871.670570131875138
 20
215.1450705949384883
 30
0.0
 11
4871.6712162407939104
 21
215.1468011514955094
 31
0.0
  0
ARC
  5
DF08
  8
0
 10
4871.9252369818941588
 20
215.6868688577953037
 30
0.0
 40
0.5968246512143286
 50
244.8100615749335986
 51
245.7468930816374098
  0
ARC
  5
DF09
  8
0
 10
4871.9251754563701979
 20
215.6867296667583105
 30
0.0
 40
0.596672472476718
 50
245.7467893742903016
 51
247.9285878473430955
  0
ARC
  5
DF0A
  8
0
 10
4871.9265558304623482
 20
215.6902193044678029
 30
0.0
 40
0.6004250692697949
 50
247.9316469837696957
 51
256.2098947786843155
  0
ARC
  5
DF0B
  8
0
 10
4871.9462595363247601
 20
215.8658260961942972
 30
0.0
 40
0.777068001960955
 50
262.1254090603968052
 51
268.6176924822632941
  0
ARC
  5
DF0C
  8
0
 10
4871.9273794416194505
 20
215.6939036408359982
 30
0.0
 40
0.6041995320994265
 50
256.2173245193744719
 51
261.6652717163725015
  0
LINE
  5
DF0D
  8
0
 10
4871.6688237824719181
 20
215.1334859913407911
 30
0.0
 11
4871.6589659298197148
 21
215.1425518988608019
 31
0.0
  0
LINE
  5
DF0E
  8
0
 10
4871.6589659298197148
 20
215.1425518988608019
 30
0.0
 11
4871.6392758153506293
 21
215.1527892633164072
 31
0.0
  0
LINE
  5
DF0F
  8
0
 10
4871.6392758153506293
 20
215.1527892633164072
 30
0.0
 11
4871.6294332956686048
 21
215.1539773427344073
 31
0.0
  0
LINE
  5
DF10
  8
0
 10
4871.6294332956686048
 20
215.1539773427344073
 30
0.0
 11
4871.6392758152478564
 21
215.1447719781895955
 31
0.0
  0
LINE
  5
DF11
  8
0
 10
4871.6392758152478564
 20
215.1447719781895955
 30
0.0
 11
4871.6589608546255477
 21
215.1345370743867136
 31
0.0
  0
LINE
  5
DF12
  8
0
 10
4871.6589608546255477
 20
215.1345370743867136
 30
0.0
 11
4871.6688237824719181
 21
215.1334859913407911
 31
0.0
  0
LINE
  5
DF13
  8
0
 10
4871.6688033741820618
 20
215.1232579393756907
 30
0.0
 11
4871.6589608545782539
 21
215.130574289689406
 31
0.0
  0
LINE
  5
DF14
  8
0
 10
4871.6589608545782539
 20
215.130574289689406
 30
0.0
 11
4871.6392758153006071
 21
215.140831976863609
 31
0.0
  0
LINE
  5
DF15
  8
0
 10
4871.6392758153006071
 20
215.140831976863609
 30
0.0
 11
4871.6294332956977087
 21
215.143849160854387
 31
0.0
  0
LINE
  5
DF16
  8
0
 10
4871.6294332956977087
 20
215.143849160854387
 30
0.0
 11
4871.639275815225119
 21
215.1364175306885045
 31
0.0
  0
LINE
  5
DF17
  8
0
 10
4871.639275815225119
 20
215.1364175306885045
 30
0.0
 11
4871.658960854650104
 21
215.1260868446775021
 31
0.0
  0
LINE
  5
DF18
  8
0
 10
4871.658960854650104
 20
215.1260868446775021
 30
0.0
 11
4871.6688033742848347
 21
215.1232579393501112
 31
0.0
  0
LINE
  5
DF19
  8
0
 10
4871.6572721451930192
 20
215.1259770348104041
 30
0.0
 11
4871.6671146648814101
 21
215.1227447471212031
 31
0.0
  0
LINE
  5
DF1A
  8
0
 10
4871.6671146648814101
 20
215.1227447471212031
 30
0.0
 11
4871.6788212256851693
 21
215.1172665062719886
 31
0.0
  0
LINE
  5
DF1B
  8
0
 10
4871.6788212256851693
 20
215.1172665062719886
 30
0.0
 11
4871.6837300506549582
 21
215.1134552381799949
 31
0.0
  0
LINE
  5
DF1C
  8
0
 10
4871.6837300506549582
 20
215.1134552381799949
 30
0.0
 11
4871.6963999147747018
 21
215.1079472430884891
 31
0.0
  0
LINE
  5
DF1D
  8
0
 10
4871.6963999147747018
 20
215.1079472430884891
 30
0.0
 11
4871.686799704326404
 21
215.1108889594407003
 31
0.0
  0
LINE
  5
DF1E
  8
0
 10
4871.686799704326404
 20
215.1108889594407003
 30
0.0
 11
4871.6671146649250659
 21
215.120018024681201
 31
0.0
  0
LINE
  5
DF1F
  8
0
 10
4871.6671146649250659
 20
215.120018024681201
 30
0.0
 11
4871.6572721451930192
 21
215.1259770348104041
 31
0.0
  0
LINE
  5
DF20
  8
0
 10
4871.6370164773170472
 20
215.1614582152544131
 30
0.0
 11
4871.639275815225119
 21
215.1589990354561905
 31
0.0
  0
LINE
  5
DF21
  8
0
 10
4871.639275815225119
 20
215.1589990354561905
 30
0.0
 11
4871.6589608546255477
 21
215.1487413482884961
 31
0.0
  0
LINE
  5
DF22
  8
0
 10
4871.6589608546255477
 20
215.1487413482884961
 30
0.0
 11
4871.6688033743694177
 21
215.1494422831094937
 31
0.0
  0
LINE
  5
DF23
  8
0
 10
4871.6688033743694177
 20
215.1494422831094937
 30
0.0
 11
4871.6589608546255477
 21
215.1602884735885084
 31
0.0
  0
LINE
  5
DF24
  8
0
 10
4871.6589608546255477
 20
215.1602884735885084
 30
0.0
 11
4871.6467907451997235
 21
215.1665297095682945
 31
0.0
  0
LINE
  5
DF25
  8
0
 10
4871.6572721451839243
 20
215.1652535505116077
 30
0.0
 11
4871.6671146649496222
 21
215.1673118255237114
 31
0.0
  0
LINE
  5
DF26
  8
0
 10
4871.6671146649496222
 20
215.1673118255237114
 30
0.0
 11
4871.686799704326404
 21
215.1581827602176133
 31
0.0
  0
LINE
  5
DF27
  8
0
 10
4871.686799704326404
 20
215.1581827602176133
 30
0.0
 11
4871.6966422239911481
 21
215.1470868413049971
 31
0.0
  0
LINE
  5
DF28
  8
0
 10
4871.6966422239911481
 20
215.1470868413049971
 30
0.0
 11
4871.6837300508022963
 21
215.1523370047885066
 31
0.0
  0
LINE
  5
DF29
  8
0
 10
4871.6837300508022963
 20
215.1523370047885066
 30
0.0
 11
4871.6788212257251871
 21
215.148525736688498
 31
0.0
  0
LINE
  5
DF2A
  8
0
 10
4871.6788212257251871
 20
215.148525736688498
 30
0.0
 11
4871.667114664905057
 21
215.1540039776099036
 31
0.0
  0
LINE
  5
DF2B
  8
0
 10
4871.667114664905057
 20
215.1540039776099036
 30
0.0
 11
4871.6572721451930192
 21
215.1652535505002106
 31
0.0
  0
LINE
  5
DF2C
  8
0
 10
4871.6700297268052964
 20
215.1754749491597067
 30
0.0
 11
4871.6867997042909337
 21
215.1676856503381998
 31
0.0
  0
LINE
  5
DF2D
  8
0
 10
4871.6867997042909337
 20
215.1676856503381998
 30
0.0
 11
4871.6966422239738677
 21
215.1715220590010063
 31
0.0
  0
LINE
  5
DF2E
  8
0
 10
4871.6966422239738677
 20
215.1715220590010063
 30
0.0
 11
4871.6891622273769826
 21
215.181318608397504
 31
0.0
  0
LINE
  5
DF2F
  8
0
 10
4871.6917178786216027
 20
215.1820096623991105
 30
0.0
 11
4871.6949535145158734
 21
215.1776824458058002
 31
0.0
  0
LINE
  5
DF30
  8
0
 10
4871.6949535145158734
 20
215.1776824458058002
 30
0.0
 11
4871.7146385539426774
 21
215.1695794271541899
 31
0.0
  0
LINE
  5
DF31
  8
0
 10
4871.7146385539426774
 20
215.1695794271541899
 30
0.0
 11
4871.7244810736274303
 21
215.1747915029727949
 31
0.0
  0
LINE
  5
DF32
  8
0
 10
4871.7244810736274303
 20
215.1747915029727949
 30
0.0
 11
4871.7150774165238545
 21
215.1875624178267969
 31
0.0
  0
LINE
  5
DF33
  8
0
 10
4871.7178744375642054
 20
215.1881613838640135
 30
0.0
 11
4871.7227923642030873
 21
215.1813978914150027
 31
0.0
  0
LINE
  5
DF34
  8
0
 10
4871.7227923642030873
 20
215.1813978914150027
 30
0.0
 11
4871.7424774035771406
 21
215.1743396253623928
 31
0.0
  0
LINE
  5
DF35
  8
0
 10
4871.7424774035771406
 20
215.1743396253623928
 30
0.0
 11
4871.7523199233082778
 21
215.1809205354292942
 31
0.0
  0
LINE
  5
DF36
  8
0
 10
4871.7523199233082778
 20
215.1809205354292942
 30
0.0
 11
4871.7435736515690223
 21
215.1930614655539955
 31
0.0
  0
LINE
  5
DF37
  8
0
 10
4871.7466994474880266
 20
215.1936074884094126
 30
0.0
 11
4871.7506312137784334
 21
215.1879929053017122
 31
0.0
  0
LINE
  5
DF38
  8
0
 10
4871.7506312137784334
 20
215.1879929053017122
 30
0.0
 11
4871.7703162532252463
 21
215.1819364769885965
 31
0.0
  0
LINE
  5
DF39
  8
0
 10
4871.7703162532252463
 20
215.1819364769885965
 30
0.0
 11
4871.7801587728736195
 21
215.1899021677454868
 31
0.0
  0
LINE
  5
DF3A
  8
0
 10
4871.7801587728736195
 20
215.1899021677454868
 30
0.0
 11
4871.7747176002303604
 21
215.1976095126786959
 31
0.0
  0
LINE
  5
DF3B
  8
0
 10
4871.7780781488518187
 20
215.1980329519350903
 30
0.0
 11
4871.7784700635247646
 21
215.1974683210885075
 31
0.0
  0
LINE
  5
DF3C
  8
0
 10
4871.7784700635247646
 20
215.1974683210885075
 30
0.0
 11
4871.7981551028778995
 21
215.1923874461955108
 31
0.0
  0
LINE
  5
DF3D
  8
0
 10
4871.7981551028778995
 20
215.1923874461955108
 30
0.0
 11
4871.807526360286829
 21
215.201310163959306
 31
0.0
  0
LINE
  5
DF3E
  8
0
 10
4871.8063089132247114
 20
215.1947063282611907
 30
0.0
 11
4871.7964663934963028
 21
215.1857304874606029
 31
0.0
  0
LINE
  5
DF3F
  8
0
 10
4871.7964663934963028
 20
215.1857304874606029
 30
0.0
 11
4871.8063089131446759
 21
215.1728426743825082
 31
0.0
  0
LINE
  5
DF40
  8
0
 10
4871.8063089131446759
 20
215.1728426743825082
 30
0.0
 11
4871.8259939525123627
 21
215.168912988068314
 31
0.0
  0
LINE
  5
DF41
  8
0
 10
4871.8259939525123627
 20
215.168912988068314
 30
0.0
 11
4871.8358364722880651
 21
215.1777674157960973
 31
0.0
  0
LINE
  5
DF42
  8
0
 10
4871.8358364722880651
 20
215.1777674157960973
 30
0.0
 11
4871.825993952632416
 21
215.1906710171390102
 31
0.0
  0
LINE
  5
DF43
  8
0
 10
4871.825993952632416
 20
215.1906710171390102
 30
0.0
 11
4871.8063089132247114
 21
215.1947063282611907
 31
0.0
  0
LINE
  5
DF44
  8
0
 10
4871.8289291049914027
 20
215.2032063624662896
 30
0.0
 11
4871.8243052431489559
 21
215.198402589661697
 31
0.0
  0
LINE
  5
DF45
  8
0
 10
4871.8243052431489559
 20
215.198402589661697
 30
0.0
 11
4871.8341477628418943
 21
215.1850449616455023
 31
0.0
  0
LINE
  5
DF46
  8
0
 10
4871.8341477628418943
 20
215.1850449616455023
 30
0.0
 11
4871.853832802225952
 21
215.1820630089885071
 31
0.0
  0
LINE
  5
DF47
  8
0
 10
4871.853832802225952
 20
215.1820630089885071
 30
0.0
 11
4871.8636753219234379
 21
215.1923478637581013
 31
0.0
  0
LINE
  5
DF48
  8
0
 10
4871.8636753219234379
 20
215.1923478637581013
 30
0.0
 11
4871.8544316737916233
 21
215.2049352158491047
 31
0.0
  0
LINE
  5
DF49
  8
0
 10
4871.8583814376634109
 20
215.2051515434727094
 30
0.0
 11
4871.8619866125245608
 21
215.2001683617293111
 31
0.0
  0
LINE
  5
DF4A
  8
0
 10
4871.8619866125245608
 20
215.2001683617293111
 30
0.0
 11
4871.8816716518258545
 21
215.1981452135595134
 31
0.0
  0
LINE
  5
DF4B
  8
0
 10
4871.8816716518258545
 20
215.1981452135595134
 30
0.0
 11
4871.8886179950286532
 21
215.2063867421119028
 31
0.0
  0
LINE
  5
DF4C
  8
0
 10
4871.8243052430925673
 20
215.1628362576419988
 30
0.0
 11
4871.8341477628246139
 21
215.1712991831888928
 31
0.0
  0
LINE
  5
DF4D
  8
0
 10
4871.8341477628246139
 20
215.1712991831888928
 30
0.0
 11
4871.8538328021941197
 21
215.1683659257913916
 31
0.0
  0
LINE
  5
DF4E
  8
0
 10
4871.8538328021941197
 20
215.1683659257913916
 30
0.0
 11
4871.8636753218715967
 21
215.1570342691821907
 31
0.0
  0
LINE
  5
DF4F
  8
0
 10
4871.8636753218715967
 20
215.1570342691821907
 30
0.0
 11
4871.853832802225952
 21
215.1486555248758066
 31
0.0
  0
LINE
  5
DF50
  8
0
 10
4871.853832802225952
 20
215.1486555248758066
 30
0.0
 11
4871.8341477628709981
 21
215.1515252359930059
 31
0.0
  0
LINE
  5
DF51
  8
0
 10
4871.8341477628709981
 20
215.1515252359930059
 30
0.0
 11
4871.8243052430916578
 21
215.1628362576408051
 31
0.0
  0
LINE
  5
DF52
  8
0
 10
4871.7686275439318706
 20
215.1759420144749129
 30
0.0
 11
4871.7784700635247646
 21
215.1835136593884954
 31
0.0
  0
LINE
  5
DF53
  8
0
 10
4871.7784700635247646
 20
215.1835136593884954
 30
0.0
 11
4871.7981551029261027
 21
215.1785194072398042
 31
0.0
  0
LINE
  5
DF54
  8
0
 10
4871.7981551029261027
 20
215.1785194072398042
 30
0.0
 11
4871.8079976225753853
 21
215.1660678716040991
 31
0.0
  0
LINE
  5
DF55
  8
0
 10
4871.8079976225753853
 20
215.1660678716040991
 30
0.0
 11
4871.7981551029261027
 21
215.1585860915525927
 31
0.0
  0
LINE
  5
DF56
  8
0
 10
4871.7981551029261027
 20
215.1585860915525927
 30
0.0
 11
4871.7784700635484114
 21
215.1634675850588962
 31
0.0
  0
LINE
  5
DF57
  8
0
 10
4871.7784700635484114
 20
215.1634675850588962
 30
0.0
 11
4871.7686275438900338
 21
215.1759420144454111
 31
0.0
  0
LINE
  5
DF58
  8
0
 10
4871.7407886941682591
 20
215.1689832042862065
 30
0.0
 11
4871.7506312138248177
 21
215.1751838565662922
 31
0.0
  0
LINE
  5
DF59
  8
0
 10
4871.7506312138248177
 20
215.1751838565662922
 30
0.0
 11
4871.7703162532252463
 21
215.1692168881884868
 31
0.0
  0
LINE
  5
DF5A
  8
0
 10
4871.7703162532252463
 20
215.1692168881884868
 30
0.0
 11
4871.7801587728963568
 21
215.1571654398316014
 31
0.0
  0
LINE
  5
DF5B
  8
0
 10
4871.7801587728963568
 20
215.1571654398316014
 30
0.0
 11
4871.770316253197052
 21
215.1510223215080089
 31
0.0
  0
LINE
  5
DF5C
  8
0
 10
4871.770316253197052
 20
215.1510223215080089
 30
0.0
 11
4871.7506312137884379
 21
215.1568742376578882
 31
0.0
  0
LINE
  5
DF5D
  8
0
 10
4871.7506312137884379
 20
215.1568742376578882
 30
0.0
 11
4871.7407886941682591
 21
215.1689832042862065
 31
0.0
  0
LINE
  5
DF5E
  8
0
 10
4871.7227923642258247
 20
215.1696872608683861
 30
0.0
 11
4871.7424774036253439
 21
215.1627184541885072
 31
0.0
  0
LINE
  5
DF5F
  8
0
 10
4871.7424774036253439
 20
215.1627184541885072
 30
0.0
 11
4871.752319923280993
 21
215.1510228960806046
 31
0.0
  0
LINE
  5
DF60
  8
0
 10
4871.752319923280993
 20
215.1510228960806046
 30
0.0
 11
4871.7424774036253439
 21
215.1462058210258874
 31
0.0
  0
LINE
  5
DF61
  8
0
 10
4871.7424774036253439
 20
215.1462058210258874
 30
0.0
 11
4871.7227923642258247
 21
215.1530618811885063
 31
0.0
  0
LINE
  5
DF62
  8
0
 10
4871.7227923642258247
 20
215.1530618811885063
 30
0.0
 11
4871.7227923642258247
 21
215.1644480085888915
 31
0.0
  0
LINE
  5
DF63
  8
0
 10
4871.7227923642258247
 20
215.1644480085888915
 30
0.0
 11
4871.7227923689142699
 21
215.1696872592085867
 31
0.0
  0
LINE
  5
DF64
  8
0
 10
4871.7227923689142699
 20
215.1696872592085867
 30
0.0
 11
4871.7129498446029174
 21
215.1648472846925984
 31
0.0
  0
LINE
  5
DF65
  8
0
 10
4871.7129498446029174
 20
215.1648472846925984
 30
0.0
 11
4871.7227923641521556
 21
215.1530618812145121
 31
0.0
  0
LINE
  5
DF66
  8
0
 10
4871.7424774036253439
 20
215.1462058210258874
 30
0.0
 11
4871.7424773993698182
 21
215.1627184556946872
 31
0.0
  0
LINE
  5
DF67
  8
0
 10
4871.6851109948520389
 20
215.1635741115123039
 30
0.0
 11
4871.6949535145258778
 21
215.167041272686987
 31
0.0
  0
LINE
  5
DF68
  8
0
 10
4871.6949535145258778
 20
215.167041272686987
 30
0.0
 11
4871.7146385539517723
 21
215.1590248752634977
 31
0.0
  0
LINE
  5
DF69
  8
0
 10
4871.7146385539517723
 20
215.1590248752634977
 30
0.0
 11
4871.7244810735846841
 21
215.1476465679859871
 31
0.0
  0
LINE
  5
DF6A
  8
0
 10
4871.7244810735846841
 20
215.1476465679859871
 30
0.0
 11
4871.7146385539635958
 21
215.1441636126889136
 31
0.0
  0
LINE
  5
DF6B
  8
0
 10
4871.7146385539635958
 20
215.1441636126889136
 30
0.0
 11
4871.6949535146113703
 21
215.1520744086687102
 31
0.0
  0
LINE
  5
DF6C
  8
0
 10
4871.6949535146113703
 20
215.1520744086687102
 30
0.0
 11
4871.6851109948520389
 21
215.1635741115123039
 31
0.0
  0
LINE
  5
DF6D
  8
0
 10
4871.712949236833083
 20
215.1405551209738007
 30
0.0
 11
4871.7227934476177325
 21
215.1436816654070014
 31
0.0
  0
LINE
  5
DF6E
  8
0
 10
4871.7227934476177325
 20
215.1436816654070014
 30
0.0
 11
4871.7424774035316659
 21
215.1368802660443009
 31
0.0
  0
LINE
  5
DF6F
  8
0
 10
4871.7424774035316659
 20
215.1368802660443009
 30
0.0
 11
4871.7523199233091873
 21
215.127016429825801
 31
0.0
  0
LINE
  5
DF70
  8
0
 10
4871.7523199233091873
 20
215.127016429825801
 30
0.0
 11
4871.712949236833083
 21
215.1405551209738007
 31
0.0
  0
LINE
  5
DF71
  8
0
 10
4871.740788694179173
 20
215.1419911896533108
 30
0.0
 11
4871.7506312138248177
 21
215.1464502323310057
 31
0.0
  0
LINE
  5
DF72
  8
0
 10
4871.7506312138248177
 20
215.1464502323310057
 30
0.0
 11
4871.7703162532252463
 21
215.1406563855477998
 31
0.0
  0
LINE
  5
DF73
  8
0
 10
4871.7703162532252463
 20
215.1406563855477998
 30
0.0
 11
4871.7801587729736639
 21
215.1304746356478006
 31
0.0
  0
LINE
  5
DF74
  8
0
 10
4871.7801587729736639
 20
215.1304746356478006
 30
0.0
 11
4871.7703162532607166
 21
215.1260254710817037
 31
0.0
  0
LINE
  5
DF75
  8
0
 10
4871.7703162532607166
 20
215.1260254710817037
 30
0.0
 11
4871.7506312138184512
 21
215.1317483422986072
 31
0.0
  0
LINE
  5
DF76
  8
0
 10
4871.7506312138184512
 20
215.1317483422986072
 30
0.0
 11
4871.740788694179173
 21
215.1419911896533108
 31
0.0
  0
LINE
  5
DF77
  8
0
 10
4871.7686243117268532
 20
215.122293226288491
 30
0.0
 11
4871.7784700636029811
 21
215.126391719386703
 31
0.0
  0
LINE
  5
DF78
  8
0
 10
4871.7784700636029811
 20
215.126391719386703
 30
0.0
 11
4871.798155102866076
 21
215.1216775803819985
 31
0.0
  0
LINE
  5
DF79
  8
0
 10
4871.798155102866076
 20
215.1216775803819985
 30
0.0
 11
4871.8079976225999417
 21
215.1129034651642087
 31
0.0
  0
LINE
  5
DF7A
  8
0
 10
4871.8079976225999417
 20
215.1129034651642087
 30
0.0
 11
4871.7686243117268532
 21
215.122293226288491
 31
0.0
  0
LINE
  5
DF7B
  8
0
 10
4871.76862754377089
 20
215.1462004408132032
 30
0.0
 11
4871.7784700634192632
 21
215.1519796150699051
 31
0.0
  0
LINE
  5
DF7C
  8
0
 10
4871.7784700634192632
 20
215.1519796150699051
 30
0.0
 11
4871.7981551029261027
 21
215.1471561910250045
 31
0.0
  0
LINE
  5
DF7D
  8
0
 10
4871.7981551029261027
 20
215.1471561910250045
 30
0.0
 11
4871.8079976225726568
 21
215.1366275358334121
 31
0.0
  0
LINE
  5
DF7E
  8
0
 10
4871.8079976225726568
 20
215.1366275358334121
 30
0.0
 11
4871.7981551029261027
 21
215.1308850549885108
 31
0.0
  0
LINE
  5
DF7F
  8
0
 10
4871.7981551029261027
 20
215.1308850549885108
 30
0.0
 11
4871.7784700634756518
 21
215.1356350984551966
 31
0.0
  0
LINE
  5
DF80
  8
0
 10
4871.7784700634756518
 20
215.1356350984551966
 30
0.0
 11
4871.7686275438427401
 21
215.1462004407397046
 31
0.0
  0
LINE
  5
DF81
  8
0
 10
4871.7964663935090357
 20
215.1531467396083031
 30
0.0
 11
4871.8063089131519519
 21
215.1602536172613895
 31
0.0
  0
LINE
  5
DF82
  8
0
 10
4871.8063089131519519
 20
215.1602536172613895
 30
0.0
 11
4871.8259939525687514
 21
215.1563789776284921
 31
0.0
  0
LINE
  5
DF83
  8
0
 10
4871.8259939525687514
 20
215.1563789776284921
 30
0.0
 11
4871.8349089881676264
 21
215.1464653337191919
 31
0.0
  0
LINE
  5
DF84
  8
0
 10
4871.8349089881676264
 20
215.1464653337191919
 30
0.0
 11
4871.8259939525250957
 21
215.1384235074058893
 31
0.0
  0
LINE
  5
DF85
  8
0
 10
4871.8259939525250957
 20
215.1384235074058893
 30
0.0
 11
4871.8063089131710512
 21
215.1422271658987029
 31
0.0
  0
LINE
  5
DF86
  8
0
 10
4871.8063089131710512
 20
215.1422271658987029
 30
0.0
 11
4871.7964663935117642
 21
215.1531467396046082
 31
0.0
  0
LINE
  5
DF87
  8
0
 10
4871.7964663935363205
 20
215.1265554473999089
 30
0.0
 11
4871.8063089132247114
 21
215.1319461830885018
 31
0.0
  0
LINE
  5
DF88
  8
0
 10
4871.8063089132247114
 20
215.1319461830885018
 30
0.0
 11
4871.8259939525250957
 21
215.128178429313806
 31
0.0
  0
LINE
  5
DF89
  8
0
 10
4871.8259939525250957
 20
215.128178429313806
 30
0.0
 11
4871.8358364722462284
 21
215.1190641533981989
 31
0.0
  0
LINE
  5
DF8A
  8
0
 10
4871.8358364722462284
 20
215.1190641533981989
 30
0.0
 11
4871.8259939525250957
 21
215.113695396688513
 31
0.0
  0
LINE
  5
DF8B
  8
0
 10
4871.8259939525250957
 20
215.113695396688513
 30
0.0
 11
4871.8063089132247114
 21
215.1174191947262102
 31
0.0
  0
LINE
  5
DF8C
  8
0
 10
4871.8063089132247114
 20
215.1174191947262102
 30
0.0
 11
4871.7964663935381395
 21
215.1265554474016142
 31
0.0
  0
LINE
  5
DF8D
  8
0
 10
4871.8243052431753313
 20
215.1334921924897969
 30
0.0
 11
4871.8341477628246139
 21
215.1401775046307137
 31
0.0
  0
LINE
  5
DF8E
  8
0
 10
4871.8341477628246139
 20
215.1401775046307137
 30
0.0
 11
4871.853832802225952
 21
215.1373405883884971
 31
0.0
  0
LINE
  5
DF8F
  8
0
 10
4871.853832802225952
 20
215.1373405883884971
 30
0.0
 11
4871.8636753218679587
 21
215.1278602719102082
 31
0.0
  0
LINE
  5
DF90
  8
0
 10
4871.8636753218679587
 20
215.1278602719102082
 30
0.0
 11
4871.853832802225952
 21
215.121214885688488
 31
0.0
  0
LINE
  5
DF91
  8
0
 10
4871.853832802225952
 20
215.121214885688488
 30
0.0
 11
4871.8341477628246139
 21
215.1240102938884888
 31
0.0
  0
LINE
  5
DF92
  8
0
 10
4871.8341477628246139
 20
215.1240102938884888
 30
0.0
 11
4871.8243052431753313
 21
215.1334921924897969
 31
0.0
  0
LINE
  5
DF93
  8
0
 10
4871.8243052431098477
 20
215.1098277192834871
 30
0.0
 11
4871.8338273513063541
 21
215.1146795453362017
 31
0.0
  0
LINE
  5
DF94
  8
0
 10
4871.8338273513063541
 20
215.1146795453362017
 30
0.0
 11
4871.8538328021777488
 21
215.112078634281005
 31
0.0
  0
LINE
  5
DF95
  8
0
 10
4871.8538328021777488
 20
215.112078634281005
 30
0.0
 11
4871.8636753218634112
 21
215.1043012058752879
 31
0.0
  0
LINE
  5
DF96
  8
0
 10
4871.8636753218634112
 20
215.1043012058752879
 30
0.0
 11
4871.8243052431098477
 21
215.1098277192834871
 31
0.0
  0
LINE
  5
DF97
  8
0
 10
4871.8521440927897856
 20
215.1167573478298891
 30
0.0
 11
4871.8619866125245608
 21
215.1230530967885102
 31
0.0
  0
LINE
  5
DF98
  8
0
 10
4871.8619866125245608
 20
215.1230530967885102
 30
0.0
 11
4871.8816716517358145
 21
215.1211960399851932
 31
0.0
  0
LINE
  5
DF99
  8
0
 10
4871.8816716517358145
 20
215.1211960399851932
 30
0.0
 11
4871.8915141715078789
 21
215.1130644619684062
 31
0.0
  0
LINE
  5
DF9A
  8
0
 10
4871.8915141715078789
 20
215.1130644619684062
 30
0.0
 11
4871.8816716518485919
 21
215.1067929247217023
 31
0.0
  0
LINE
  5
DF9B
  8
0
 10
4871.8816716518485919
 20
215.1067929247217023
 30
0.0
 11
4871.8619866126064153
 21
215.1086289189659908
 31
0.0
  0
LINE
  5
DF9C
  8
0
 10
4871.8619866126064153
 20
215.1086289189659908
 30
0.0
 11
4871.8521440927897856
 21
215.1167573478298891
 31
0.0
  0
LINE
  5
DF9D
  8
0
 10
4871.8799829423987831
 20
215.1027846035080984
 30
0.0
 11
4871.8898254621935848
 21
215.1087144084029887
 31
0.0
  0
LINE
  5
DF9E
  8
0
 10
4871.8898254621935848
 20
215.1087144084029887
 30
0.0
 11
4871.9095105014566798
 21
215.1077979161121903
 31
0.0
  0
LINE
  5
DF9F
  8
0
 10
4871.9095105014566798
 20
215.1077979161121903
 30
0.0
 11
4871.9193530212342012
 21
215.1009592951940874
 31
0.0
  0
LINE
  5
DFA0
  8
0
 10
4871.9193530212342012
 20
215.1009592951940874
 30
0.0
 11
4871.8799829423987831
 21
215.1027846035080984
 31
0.0
  0
LINE
  5
DFA1
  8
0
 10
4871.8799829425333883
 20
215.1263151133254894
 30
0.0
 11
4871.8898254620589796
 21
215.1339022311354938
 31
0.0
  0
LINE
  5
DFA2
  8
0
 10
4871.8898254620589796
 20
215.1339022311354938
 30
0.0
 11
4871.9095105015749141
 21
215.1329657018069099
 31
0.0
  0
LINE
  5
DFA3
  8
0
 10
4871.9095105015749141
 20
215.1329657018069099
 30
0.0
 11
4871.9193530211723555
 21
215.1244556439654048
 31
0.0
  0
LINE
  5
DFA4
  8
0
 10
4871.9193530211723555
 20
215.1244556439654048
 30
0.0
 11
4871.9095105015248919
 21
215.1169031932257099
 31
0.0
  0
LINE
  5
DFA5
  8
0
 10
4871.9095105015248919
 20
215.1169031932257099
 30
0.0
 11
4871.8898254621253727
 21
215.1178262770625054
 31
0.0
  0
LINE
  5
DFA6
  8
0
 10
4871.8898254621253727
 20
215.1178262770625054
 30
0.0
 11
4871.8799829423805932
 21
215.1263151133175029
 31
0.0
  0
LINE
  5
DFA7
  8
0
 10
4871.85214409281798
 20
215.1431061902694921
 30
0.0
 11
4871.8619866124990949
 21
215.1511106678605074
 31
0.0
  0
LINE
  5
DFA8
  8
0
 10
4871.8619866124990949
 20
215.1511106678605074
 30
0.0
 11
4871.8816716518258545
 21
215.1492024808707981
 31
0.0
  0
LINE
  5
DFA9
  8
0
 10
4871.8816716518258545
 20
215.1492024808707981
 30
0.0
 11
4871.8915141715942809
 21
215.1393241969495023
 31
0.0
  0
LINE
  5
DFAA
  8
0
 10
4871.8915141715942809
 20
215.1393241969495023
 30
0.0
 11
4871.8816716518967951
 21
215.1313758782698073
 31
0.0
  0
LINE
  5
DFAB
  8
0
 10
4871.8816716518967951
 20
215.1313758782698073
 30
0.0
 11
4871.8619866125263798
 21
215.1332501244835953
 31
0.0
  0
LINE
  5
DFAC
  8
0
 10
4871.8619866125263798
 20
215.1332501244835953
 30
0.0
 11
4871.85214409281798
 21
215.1431061902694921
 31
0.0
  0
LINE
  5
DFAD
  8
0
 10
4871.8799829424524432
 20
215.1554430808564859
 30
0.0
 11
4871.8898254621362867
 21
215.1648121965397991
 31
0.0
  0
LINE
  5
DFAE
  8
0
 10
4871.8898254621362867
 20
215.1648121965397991
 30
0.0
 11
4871.9095105015649096
 21
215.1638445035582947
 31
0.0
  0
LINE
  5
DFAF
  8
0
 10
4871.9095105015649096
 20
215.1638445035582947
 30
0.0
 11
4871.9193530211796315
 21
215.1535285717492911
 31
0.0
  0
LINE
  5
DFB0
  8
0
 10
4871.9193530211796315
 20
215.1535285717492911
 30
0.0
 11
4871.9095105015412628
 21
215.1442307349163912
 31
0.0
  0
LINE
  5
DFB1
  8
0
 10
4871.9095105015412628
 20
215.1442307349163912
 30
0.0
 11
4871.8898254621253727
 21
215.1442307349163912
 31
0.0
  0
LINE
  5
DFB2
  8
0
 10
4871.8898254621253727
 20
215.1442307349163912
 30
0.0
 11
4871.8799829424524432
 21
215.1554430808564859
 31
0.0
  0
LINE
  5
DFB3
  8
0
 10
4871.8521440928234369
 20
215.1753181235322927
 30
0.0
 11
4871.8619866125090994
 21
215.1851881595511031
 31
0.0
  0
LINE
  5
DFB4
  8
0
 10
4871.8619866125090994
 20
215.1851881595511031
 30
0.0
 11
4871.8816716518622343
 21
215.1832033519222875
 31
0.0
  0
LINE
  5
DFB5
  8
0
 10
4871.8816716518622343
 20
215.1832033519222875
 30
0.0
 11
4871.8915141715442587
 21
215.171399795210192
 31
0.0
  0
LINE
  5
DFB6
  8
0
 10
4871.8915141715442587
 20
215.171399795210192
 30
0.0
 11
4871.8816716518822432
 21
215.1616366515009986
 31
0.0
  0
LINE
  5
DFB7
  8
0
 10
4871.8816716518822432
 20
215.1616366515009986
 30
0.0
 11
4871.8619866125245608
 21
215.1635711217884932
 31
0.0
  0
LINE
  5
DFB8
  8
0
 10
4871.8619866125245608
 20
215.1635711217884932
 30
0.0
 11
4871.8521440928234369
 21
215.1753181235322927
 31
0.0
  0
LINE
  5
DFB9
  8
0
 10
4871.879982942413335
 20
215.1906883738678005
 30
0.0
 11
4871.8898254620426087
 21
215.2020432596609112
 31
0.0
  0
LINE
  5
DFBA
  8
0
 10
4871.8898254620426087
 20
215.2020432596609112
 30
0.0
 11
4871.9095105014721412
 21
215.2010298864834112
 31
0.0
  0
LINE
  5
DFBB
  8
0
 10
4871.9095105014721412
 20
215.2010298864834112
 30
0.0
 11
4871.9193530211923644
 21
215.1886922511637863
 31
0.0
  0
LINE
  5
DFBC
  8
0
 10
4871.9193530211923644
 20
215.1886922511637863
 30
0.0
 11
4871.9095105014830551
 21
215.1774675970075066
 31
0.0
  0
LINE
  5
DFBD
  8
0
 10
4871.9095105014830551
 20
215.1774675970075066
 30
0.0
 11
4871.8898254620607986
 21
215.1784510177434981
 31
0.0
  0
LINE
  5
DFBE
  8
0
 10
4871.8898254620607986
 20
215.1784510177434981
 30
0.0
 11
4871.8799829424306154
 21
215.1906883738649015
 31
0.0
  0
LINE
  5
DFBF
  8
0
 10
4871.9095073382723058
 20
215.2068347446069936
 30
0.0
 11
4871.9176643118253196
 21
215.1963025832885137
 31
0.0
  0
LINE
  5
DFC0
  8
0
 10
4871.9176643118253196
 20
215.1963025832885137
 30
0.0
 11
4871.9373493511211564
 21
215.1963025832490075
 31
0.0
  0
LINE
  5
DFC1
  8
0
 10
4871.9373493511211564
 20
215.1963025832490075
 30
0.0
 11
4871.9455108776928682
 21
215.2068354677161892
 31
0.0
  0
LINE
  5
DFC2
  8
0
 10
4871.9078217921278338
 20
215.1705918951890908
 30
0.0
 11
4871.9176643118707943
 21
215.1813953861573054
 31
0.0
  0
LINE
  5
DFC3
  8
0
 10
4871.9176643118707943
 20
215.1813953861573054
 30
0.0
 11
4871.9373493511247943
 21
215.1813953860782078
 31
0.0
  0
LINE
  5
DFC4
  8
0
 10
4871.9373493511247943
 20
215.1813953860782078
 30
0.0
 11
4871.947191870853203
 21
215.1705918952262948
 31
0.0
  0
LINE
  5
DFC5
  8
0
 10
4871.947191870853203
 20
215.1705918952262948
 30
0.0
 11
4871.9373493511247943
 21
215.1598742191382883
 31
0.0
  0
LINE
  5
DFC6
  8
0
 10
4871.9373493511247943
 20
215.1598742191382883
 30
0.0
 11
4871.9176643118253196
 21
215.1598742190751068
 31
0.0
  0
LINE
  5
DFC7
  8
0
 10
4871.9176643118253196
 20
215.1598742190751068
 30
0.0
 11
4871.9078217921223768
 21
215.1705918951961962
 31
0.0
  0
LINE
  5
DFC8
  8
0
 10
4871.9078217920414318
 20
215.1385441700045078
 30
0.0
 11
4871.9176643116916239
 21
215.1474638330159905
 31
0.0
  0
LINE
  5
DFC9
  8
0
 10
4871.9176643116916239
 20
215.1474638330159905
 30
0.0
 11
4871.937349351098419
 21
215.1474638330149105
 31
0.0
  0
LINE
  5
DFCA
  8
0
 10
4871.937349351098419
 20
215.1474638330149105
 30
0.0
 11
4871.9471918708613885
 21
215.1385441699586067
 31
0.0
  0
LINE
  5
DFCB
  8
0
 10
4871.9471918708613885
 20
215.1385441699586067
 30
0.0
 11
4871.9373493511247943
 21
215.1296679542057859
 31
0.0
  0
LINE
  5
DFCC
  8
0
 10
4871.9373493511247943
 20
215.1296679542057859
 30
0.0
 11
4871.9176643118253196
 21
215.1296679542057859
 31
0.0
  0
LINE
  5
DFCD
  8
0
 10
4871.9176643118253196
 20
215.1296679542057859
 30
0.0
 11
4871.907821792091454
 21
215.1385441699586067
 31
0.0
  0
LINE
  5
DFCE
  8
0
 10
4871.9078217920387033
 20
215.112302666064096
 30
0.0
 11
4871.9181239927365823
 21
215.1194962286249961
 31
0.0
  0
LINE
  5
DFCF
  8
0
 10
4871.9181239927365823
 20
215.1194962286249961
 30
0.0
 11
4871.9373493511247943
 21
215.1195036801063054
 31
0.0
  0
LINE
  5
DFD0
  8
0
 10
4871.9373493511247943
 20
215.1195036801063054
 30
0.0
 11
4871.9471918708350131
 21
215.1123026660260962
 31
0.0
  0
LINE
  5
DFD1
  8
0
 10
4871.9471918708350131
 20
215.1123026660260962
 30
0.0
 11
4871.9373493511247943
 21
215.1051196401373033
 31
0.0
  0
LINE
  5
DFD2
  8
0
 10
4871.9373493511247943
 20
215.1051196401373033
 30
0.0
 11
4871.9176643118253196
 21
215.1051196399901926
 31
0.0
  0
LINE
  5
DFD3
  8
0
 10
4871.9176643118253196
 20
215.1051196399901926
 30
0.0
 11
4871.9078217920496172
 21
215.1123026660552
 31
0.0
  0
LINE
  5
DFD4
  8
0
 10
4871.9275081306250286
 20
215.0606874677885116
 30
0.0
 11
4871.9176643118253196
 21
215.0606874677885116
 31
0.0
  0
LINE
  5
DFD5
  8
0
 10
4871.9176643118253196
 20
215.0606874677885116
 30
0.0
 11
4871.9078217927171863
 21
215.0599339785692905
 31
0.0
  0
LINE
  5
DFD6
  8
0
 10
4871.9078217927171863
 20
215.0599339785692905
 30
0.0
 11
4871.9176643118280481
 21
215.0591177075149858
 31
0.0
  0
LINE
  5
DFD7
  8
0
 10
4871.9176643118280481
 20
215.0591177075149858
 30
0.0
 11
4871.9275065376641578
 21
215.059036188989495
 31
0.0
  0
LINE
  5
DFD8
  8
0
 10
4871.9193530212696714
 20
215.0616827795805079
 30
0.0
 11
4871.9095105014721412
 21
215.0605041152425088
 31
0.0
  0
LINE
  5
DFD9
  8
0
 10
4871.9095105014721412
 20
215.0605041152425088
 30
0.0
 11
4871.889825462169938
 21
215.0614206076043047
 31
0.0
  0
LINE
  5
DFDA
  8
0
 10
4871.889825462169938
 20
215.0614206076043047
 30
0.0
 11
4871.8799830621637739
 21
215.063508057076092
 31
0.0
  0
LINE
  5
DFDB
  8
0
 10
4871.8799830621637739
 20
215.063508057076092
 30
0.0
 11
4871.8898243656021805
 21
215.0628903811526129
 31
0.0
  0
LINE
  5
DFDC
  8
0
 10
4871.8898243656021805
 20
215.0628903811526129
 30
0.0
 11
4871.9095105015248919
 21
215.0619782131279862
 31
0.0
  0
LINE
  5
DFDD
  8
0
 10
4871.9095105015248919
 20
215.0619782131279862
 30
0.0
 11
4871.9193530212696714
 21
215.0616827795805079
 31
0.0
  0
LINE
  5
DFDE
  8
0
 10
4871.8915141715951904
 20
215.0606957744734871
 30
0.0
 11
4871.8816716518258545
 21
215.0608872186128053
 31
0.0
  0
LINE
  5
DFDF
  8
0
 10
4871.8915141715160644
 20
215.0606957744849126
 30
0.0
 11
4871.8816716518631438
 21
215.0624415223981032
 31
0.0
  0
LINE
  5
DFE0
  8
0
 10
4871.8816716518631438
 20
215.0624415223981032
 30
0.0
 11
4871.8619866124736291
 21
215.0642775166801925
 31
0.0
  0
LINE
  5
DFE1
  8
0
 10
4871.8619866124736291
 20
215.0642775166801925
 30
0.0
 11
4871.8521440927479489
 21
215.0643886603550072
 31
0.0
  0
LINE
  5
DFE2
  8
0
 10
4871.8521440927479489
 20
215.0643886603550072
 30
0.0
 11
4871.861831985102981
 21
215.0626470627956053
 31
0.0
  0
LINE
  5
DFE3
  8
0
 10
4871.8636753218606827
 20
215.0650246903063874
 30
0.0
 11
4871.85383280222959
 21
215.064784833518388
 31
0.0
  0
LINE
  5
DFE4
  8
0
 10
4871.85383280222959
 20
215.064784833518388
 30
0.0
 11
4871.8341477628846405
 21
215.0675599055306861
 31
0.0
  0
LINE
  5
DFE5
  8
0
 10
4871.8341477628846405
 20
215.0675599055306861
 30
0.0
 11
4871.8243052431844262
 21
215.0705512036878986
 31
0.0
  0
LINE
  5
DFE6
  8
0
 10
4871.8243052431844262
 20
215.0705512036878986
 30
0.0
 11
4871.8341477628246139
 21
215.0689996872571896
 31
0.0
  0
LINE
  5
DFE7
  8
0
 10
4871.8341477628246139
 20
215.0689996872571896
 30
0.0
 11
4871.853832802225952
 21
215.0662381683625028
 31
0.0
  0
LINE
  5
DFE8
  8
0
 10
4871.853832802225952
 20
215.0662381683625028
 30
0.0
 11
4871.8636753219252569
 21
215.0650246902885101
 31
0.0
  0
LINE
  5
DFE9
  8
0
 10
4871.8358364722380429
 20
215.066695465961601
 30
0.0
 11
4871.8259939529189069
 21
215.0693439943202065
 31
0.0
  0
LINE
  5
DFEA
  8
0
 10
4871.8259939529189069
 20
215.0693439943202065
 30
0.0
 11
4871.8063089132247114
 21
215.0730677924364045
 31
0.0
  0
LINE
  5
DFEB
  8
0
 10
4871.8063089132247114
 20
215.0730677924364045
 30
0.0
 11
4871.7964663937245859
 21
215.074186759923208
 31
0.0
  0
LINE
  5
DFEC
  8
0
 10
4871.7964663937245859
 20
215.074186759923208
 30
0.0
 11
4871.8063089132247114
 21
215.0715602104646109
 31
0.0
  0
LINE
  5
DFED
  8
0
 10
4871.8063089132247114
 20
215.0715602104646109
 30
0.0
 11
4871.8259939525623849
 21
215.0677924566288084
 31
0.0
  0
LINE
  5
DFEE
  8
0
 10
4871.8259939525623849
 20
215.0677924566288084
 30
0.0
 11
4871.8358364722143961
 21
215.0666954659118915
 31
0.0
  0
LINE
  5
DFEF
  8
0
 10
4871.8079976225426435
 20
215.0736269495216106
 30
0.0
 11
4871.7981551028724425
 21
215.074383779752992
 31
0.0
  0
LINE
  5
DFF0
  8
0
 10
4871.7981551028724425
 20
215.074383779752992
 30
0.0
 11
4871.7784700635247646
 21
215.0790979185248943
 31
0.0
  0
LINE
  5
DFF1
  8
0
 10
4871.7784700635247646
 20
215.0790979185248943
 30
0.0
 11
4871.7686243198959346
 21
215.0830140770034973
 31
0.0
  0
LINE
  5
DFF2
  8
0
 10
4871.7686243198959346
 20
215.0830140770034973
 30
0.0
 11
4871.7784700635247646
 21
215.0804822595885071
 31
0.0
  0
LINE
  5
DFF3
  8
0
 10
4871.7784700635247646
 20
215.0804822595885071
 30
0.0
 11
4871.7981551029261027
 21
215.0757918536885995
 31
0.0
  0
LINE
  5
DFF4
  8
0
 10
4871.7981551029261027
 20
215.0757918536885995
 30
0.0
 11
4871.8079976225426435
 21
215.0736269495216106
 31
0.0
  0
LINE
  5
DFF5
  8
0
 10
4871.7801587729563835
 20
215.0781059481307125
 30
0.0
 11
4871.7703162532252463
 21
215.0816740686732089
 31
0.0
  0
LINE
  5
DFF6
  8
0
 10
4871.7703162532252463
 20
215.0816740686732089
 30
0.0
 11
4871.7506312138420981
 21
215.0873969399320913
 31
0.0
  0
LINE
  5
DFF7
  8
0
 10
4871.7506312138420981
 20
215.0873969399320913
 30
0.0
 11
4871.7407886945720747
 21
215.0896225021016903
 31
0.0
  0
LINE
  5
DFF8
  8
0
 10
4871.7407886945720747
 20
215.0896225021016903
 30
0.0
 11
4871.7434130102892595
 21
215.0884565300883082
 31
0.0
  0
LINE
  5
DFF9
  8
0
 10
4871.7753085342901613
 20
215.0790291177968925
 30
0.0
 11
4871.7801587729563835
 21
215.0781059481307125
 31
0.0
  0
LINE
  5
DFFA
  8
0
 10
4871.752319923273717
 20
215.0877399141926958
 30
0.0
 11
4871.7424774036253439
 21
215.0909131237370104
 31
0.0
  0
LINE
  5
DFFB
  8
0
 10
4871.7424774036253439
 20
215.0909131237370104
 30
0.0
 11
4871.7227923642258247
 21
215.0976804025885087
 31
0.0
  0
LINE
  5
DFFC
  8
0
 10
4871.7227923642258247
 20
215.0976804025885087
 30
0.0
 11
4871.7131921022883034
 21
215.1012221372776025
 31
0.0
  0
LINE
  5
DFFD
  8
0
 10
4871.7131921022883034
 20
215.1012221372776025
 30
0.0
 11
4871.7227923642258247
 21
215.0963874794884987
 31
0.0
  0
LINE
  5
DFFE
  8
0
 10
4871.7227923642258247
 20
215.0963874794884987
 30
0.0
 11
4871.7424774036198869
 21
215.0895864653506067
 31
0.0
  0
LINE
  5
DFFF
  8
0
 10
4871.7424774036198869
 20
215.0895864653506067
 30
0.0
 11
4871.7523199232346087
 21
215.0877399142302977
 31
0.0
  0
LINE
  5
E000
  8
0
 10
4871.6851109949038801
 20
215.1112054240780935
 30
0.0
 11
4871.6870258772278248
 21
215.1101323902396132
 31
0.0
  0
LINE
  5
E001
  8
0
 10
4871.6851109949038801
 20
215.1112054240780935
 30
0.0
 11
4871.6949535146195558
 21
215.1077230064011871
 31
0.0
  0
LINE
  5
E002
  8
0
 10
4871.6949535146195558
 20
215.1077230064011871
 30
0.0
 11
4871.7146385539017501
 21
215.0998122105220034
 31
0.0
  0
LINE
  5
E003
  8
0
 10
4871.7146385539017501
 20
215.0998122105220034
 30
0.0
 11
4871.7244810733809572
 21
215.0952778806156971
 31
0.0
  0
LINE
  5
E004
  8
0
 10
4871.7244810733809572
 20
215.0952778806156971
 30
0.0
 11
4871.722448731104123
 21
215.0957175917010886
 31
0.0
  0
LINE
  5
E005
  8
0
 10
4871.9176643118707943
 20
215.1813953861573054
 30
0.0
 11
4871.9176643119399159
 21
215.1598742190751068
 31
0.0
  0
LINE
  5
E006
  8
0
 10
4871.9373493511247943
 20
215.1598742191382883
 30
0.0
 11
4871.9373493511247943
 21
215.1813953860782078
 31
0.0
  0
LINE
  5
E007
  8
0
 10
4871.937349351098419
 20
215.1474638330149105
 30
0.0
 11
4871.9373493511247943
 21
215.1296679542057859
 31
0.0
  0
LINE
  5
E008
  8
0
 10
4871.9176643118253196
 20
215.1296679542057859
 30
0.0
 11
4871.9176643118262291
 21
215.1474638330159905
 31
0.0
  0
LINE
  5
E009
  8
0
 10
4871.9373493511247943
 20
215.1195036801063054
 30
0.0
 11
4871.9373493512330242
 21
215.1051196401373033
 31
0.0
  0
LINE
  5
E00A
  8
0
 10
4871.9176643118253196
 20
215.1051196399901926
 30
0.0
 11
4871.9181239927365823
 21
215.1194962286249961
 31
0.0
  0
LINE
  5
E00B
  8
0
 10
4871.8898254620426087
 20
215.2020432596609112
 30
0.0
 11
4871.8898254620607986
 21
215.1784510177434981
 31
0.0
  0
LINE
  5
E00C
  8
0
 10
4871.9095105014830551
 20
215.1774675970075066
 30
0.0
 11
4871.9095105014721412
 21
215.2010298864834112
 31
0.0
  0
LINE
  5
E00D
  8
0
 10
4871.8816716518622343
 20
215.1832033519222875
 30
0.0
 11
4871.8816716518822432
 21
215.1616366515009986
 31
0.0
  0
LINE
  5
E00E
  8
0
 10
4871.8619866125245608
 20
215.1635711217884932
 30
0.0
 11
4871.8619866125090994
 21
215.1851881595511031
 31
0.0
  0
LINE
  5
E00F
  8
0
 10
4871.8898254621362867
 20
215.1648121965397991
 30
0.0
 11
4871.8898254621362867
 21
215.1442307349163912
 31
0.0
  0
LINE
  5
E010
  8
0
 10
4871.9095105015412628
 20
215.1442307349163912
 30
0.0
 11
4871.9095105015649096
 21
215.1638445035582947
 31
0.0
  0
LINE
  5
E011
  8
0
 10
4871.8619866124990949
 20
215.1511106678605074
 30
0.0
 11
4871.8619866125263798
 21
215.1332501244835953
 31
0.0
  0
LINE
  5
E012
  8
0
 10
4871.8816716518967951
 20
215.1313758782698073
 30
0.0
 11
4871.8816716518258545
 21
215.1492024808707981
 31
0.0
  0
LINE
  5
E013
  8
0
 10
4871.8898254620589796
 20
215.1339022311354938
 30
0.0
 11
4871.8898254621253727
 21
215.1178262770625054
 31
0.0
  0
LINE
  5
E014
  8
0
 10
4871.9095105015248919
 20
215.1169031932257099
 30
0.0
 11
4871.9095105015749141
 21
215.1329657018069099
 31
0.0
  0
LINE
  5
E015
  8
0
 10
4871.8898254621935848
 20
215.1087144084029887
 30
0.0
 11
4871.8898254621935848
 21
215.1023282764255953
 31
0.0
  0
LINE
  5
E016
  8
0
 10
4871.9095105014566798
 20
215.1077979161121903
 30
0.0
 11
4871.9095105014566798
 21
215.1014156222757094
 31
0.0
  0
LINE
  5
E017
  8
0
 10
4871.8816716517358145
 20
215.1211960399851932
 30
0.0
 11
4871.8816716518485919
 21
215.1067929247217023
 31
0.0
  0
LINE
  5
E018
  8
0
 10
4871.8619866126064153
 20
215.1086289189659908
 30
0.0
 11
4871.8619866125245608
 21
215.1230530967885102
 31
0.0
  0
LINE
  5
E019
  8
0
 10
4871.8538328021777488
 20
215.112078634281005
 30
0.0
 11
4871.8529523507540944
 21
215.1058064262226139
 31
0.0
  0
LINE
  5
E01A
  8
0
 10
4871.8338273513063541
 20
215.1146795453362017
 30
0.0
 11
4871.8329754401338505
 21
215.1086106538973013
 31
0.0
  0
LINE
  5
E01B
  8
0
 10
4871.853832802225952
 20
215.1373405883884971
 30
0.0
 11
4871.853832802225952
 21
215.121214885688488
 31
0.0
  0
LINE
  5
E01C
  8
0
 10
4871.8341477628246139
 20
215.1240102938884888
 30
0.0
 11
4871.8341477628246139
 21
215.1401775046307137
 31
0.0
  0
LINE
  5
E01D
  8
0
 10
4871.8341477628246139
 20
215.1712991831888928
 30
0.0
 11
4871.8341477628709981
 21
215.1515252359930059
 31
0.0
  0
LINE
  5
E01E
  8
0
 10
4871.8538328021941197
 20
215.1683659257913916
 30
0.0
 11
4871.853832802225952
 21
215.1486555248758066
 31
0.0
  0
LINE
  5
E01F
  8
0
 10
4871.853832802225952
 20
215.1820630089885071
 30
0.0
 11
4871.853832802225952
 21
215.2049012130511016
 31
0.0
  0
LINE
  5
E020
  8
0
 10
4871.8341477628418943
 20
215.1850449616455023
 30
0.0
 11
4871.8341477628418943
 21
215.2036070089706925
 31
0.0
  0
LINE
  5
E021
  8
0
 10
4871.8619866125245608
 20
215.2001683617293111
 30
0.0
 11
4871.8619866125245608
 21
215.2053369768480877
 31
0.0
  0
LINE
  5
E022
  8
0
 10
4871.8816716518258545
 20
215.1981452135595134
 30
0.0
 11
4871.8816716518258545
 21
215.2061647622925875
 31
0.0
  0
LINE
  5
E023
  8
0
 10
4871.9176643118253196
 20
215.1963025832885137
 30
0.0
 11
4871.9176643118253196
 21
215.206920276903503
 31
0.0
  0
LINE
  5
E024
  8
0
 10
4871.8063089132247114
 20
215.1947063282611907
 30
0.0
 11
4871.8063089131446759
 21
215.1728426743825082
 31
0.0
  0
LINE
  5
E025
  8
0
 10
4871.825993952632416
 20
215.1906710171390102
 30
0.0
 11
4871.8259939525123627
 21
215.168912988068314
 31
0.0
  0
LINE
  5
E026
  8
0
 10
4871.7784700635247646
 20
215.1835136593884954
 30
0.0
 11
4871.7784700635484114
 21
215.1634675850588962
 31
0.0
  0
LINE
  5
E027
  8
0
 10
4871.7981551029261027
 20
215.1585860915525927
 30
0.0
 11
4871.7981551029261027
 21
215.1785194072398042
 31
0.0
  0
LINE
  5
E028
  8
0
 10
4871.8063089131519519
 20
215.1602536172613895
 30
0.0
 11
4871.8063089131710512
 21
215.1422271658987029
 31
0.0
  0
LINE
  5
E029
  8
0
 10
4871.8259939525250957
 20
215.1384235074058893
 30
0.0
 11
4871.8259939525687514
 21
215.1563789776284921
 31
0.0
  0
LINE
  5
E02A
  8
0
 10
4871.7981551029261027
 20
215.1471561910250045
 30
0.0
 11
4871.7981551029261027
 21
215.1308850549885108
 31
0.0
  0
LINE
  5
E02B
  8
0
 10
4871.7784700634756518
 20
215.1356350984551966
 30
0.0
 11
4871.7784700634192632
 21
215.1519796150699051
 31
0.0
  0
LINE
  5
E02C
  8
0
 10
4871.7703162532252463
 20
215.1692168881884868
 30
0.0
 11
4871.770316253197052
 21
215.1510223215080089
 31
0.0
  0
LINE
  5
E02D
  8
0
 10
4871.7506312137884379
 20
215.1568742376578882
 30
0.0
 11
4871.7506312138248177
 21
215.1751838565662922
 31
0.0
  0
LINE
  5
E02E
  8
0
 10
4871.7506312138248177
 20
215.1464502323310057
 30
0.0
 11
4871.7506312138184512
 21
215.1317483422986072
 31
0.0
  0
LINE
  5
E02F
  8
0
 10
4871.7703162532607166
 20
215.1260254710817037
 30
0.0
 11
4871.7703162532252463
 21
215.1406563855477998
 31
0.0
  0
LINE
  5
E030
  8
0
 10
4871.7784700636029811
 20
215.126391719386703
 30
0.0
 11
4871.7784700636029811
 21
215.1199452078928971
 31
0.0
  0
LINE
  5
E031
  8
0
 10
4871.798155102866076
 20
215.1216775803819985
 30
0.0
 11
4871.798155102866076
 21
215.1152507127567048
 31
0.0
  0
LINE
  5
E032
  8
0
 10
4871.7424774035316659
 20
215.1368802660443009
 30
0.0
 11
4871.7424774035316659
 21
215.1304010503974098
 31
0.0
  0
LINE
  5
E033
  8
0
 10
4871.7227934476177325
 20
215.1436816654070014
 30
0.0
 11
4871.7227934476177325
 21
215.1371699189020887
 31
0.0
  0
LINE
  5
E034
  8
0
 10
4871.7146385539517723
 20
215.1590248752634977
 30
0.0
 11
4871.7146385539635958
 21
215.1441636126889136
 31
0.0
  0
LINE
  5
E035
  8
0
 10
4871.6949535146113703
 20
215.1520744086687102
 30
0.0
 11
4871.6949535145258778
 21
215.167041272686987
 31
0.0
  0
LINE
  5
E036
  8
0
 10
4871.6671146649496222
 20
215.1673118255237114
 30
0.0
 11
4871.667114664905057
 21
215.1540039776099036
 31
0.0
  0
LINE
  5
E037
  8
0
 10
4871.6589608546255477
 20
215.1487413482884961
 30
0.0
 11
4871.6589608546255477
 21
215.1602884735885084
 31
0.0
  0
LINE
  5
E038
  8
0
 10
4871.6392758153506293
 20
215.1527892633164072
 30
0.0
 11
4871.6392758152478564
 21
215.1447719781895955
 31
0.0
  0
LINE
  5
E039
  8
0
 10
4871.6589608546255477
 20
215.1345370743867136
 30
0.0
 11
4871.6589608546255477
 21
215.1425421374459006
 31
0.0
  0
LINE
  5
E03A
  8
0
 10
4871.6392758153006071
 20
215.140831976863609
 30
0.0
 11
4871.639275815225119
 21
215.1364175306885045
 31
0.0
  0
LINE
  5
E03B
  8
0
 10
4871.658960854650104
 20
215.1260868446775021
 30
0.0
 11
4871.6589608545782539
 21
215.130574289689406
 31
0.0
  0
LINE
  5
E03C
  8
0
 10
4871.6867997042909337
 20
215.1676856503381998
 30
0.0
 11
4871.6867997042909337
 21
215.1806612808744887
 31
0.0
  0
LINE
  5
E03D
  8
0
 10
4871.7131581134926819
 20
215.1701888258112945
 30
0.0
 11
4871.7131581134926819
 21
215.1871438797103053
 31
0.0
  0
LINE
  5
E03E
  8
0
 10
4871.6949535145158734
 20
215.1776824458058002
 30
0.0
 11
4871.6949535145158734
 21
215.1828549508817048
 31
0.0
  0
LINE
  5
E03F
  8
0
 10
4871.7424774035771406
 20
215.1743396253623928
 30
0.0
 11
4871.7424774035771406
 21
215.192874476223011
 31
0.0
  0
LINE
  5
E040
  8
0
 10
4871.7227923642030873
 20
215.1813978914150027
 30
0.0
 11
4871.7227923642030873
 21
215.1891830689482106
 31
0.0
  0
LINE
  5
E041
  8
0
 10
4871.7506312137784334
 20
215.1879929053017122
 30
0.0
 11
4871.7506312137784334
 21
215.1942187095285135
 31
0.0
  0
LINE
  5
E042
  8
0
 10
4871.7703162532252463
 20
215.1819364769885965
 30
0.0
 11
4871.7703162532252463
 21
215.1970395457981908
 31
0.0
  0
LINE
  5
E043
  8
0
 10
4871.7981551028778995
 20
215.1923874461955108
 30
0.0
 11
4871.7981551028778995
 21
215.20035145168859
 31
0.0
  0
LINE
  5
E044
  8
0
 10
4871.8063089132247114
 20
215.1319461830885018
 30
0.0
 11
4871.8063089132247114
 21
215.1174191947262102
 31
0.0
  0
LINE
  5
E045
  8
0
 10
4871.8259939525250957
 20
215.113695396688513
 30
0.0
 11
4871.8259939525250957
 21
215.128178429313806
 31
0.0
  0
ARC
  5
E046
  8
0
 10
4871.9270896776761219
 20
213.8517767613255103
 30
0.0
 40
1.456276216777989
 50
89.983599046645196
 51
94.6118452309805349
  0
ARC
  5
E047
  8
0
 10
4871.8903950706389878
 20
214.3066713866878104
 30
0.0
 40
0.9999039845277348
 50
94.6118452309805349
 51
102.6905403806558041
  0
ARC
  5
E048
  8
0
 10
4871.7387887036838947
 20
214.9799201528934134
 30
0.0
 40
0.3097964626888201
 50
102.6905403806558041
 51
114.9841311417656016
  0
ARC
  5
E049
  8
0
 10
4871.6480435039293297
 20
215.1746646635779996
 30
0.0
 40
0.0949474093504723
 50
114.9841311417656016
 51
136.3880402042670141
  0
ARC
  5
E04A
  8
0
 10
4871.5954024868606211
 20
215.2248367763222063
 30
0.0
 40
0.0222265972563359
 50
136.4287141226178051
 51
180.2624731203135866
  0
LINE
  5
E04B
  8
0
 10
4871.5731761228262258
 20
215.224734956188513
 30
0.0
 11
4871.5731761228262258
 21
215.1678795831884941
 31
0.0
  0
ARC
  5
E04C
  8
0
 10
4871.6303763928399349
 20
215.1678795831884941
 30
0.0
 40
0.0572002700141861
 50
180.0
 51
196.878589812921291
  0
ARC
  5
E04D
  8
0
 10
4871.636521966987857
 20
215.169744243209891
 30
0.0
 40
0.0636225000478887
 50
196.8785898129196994
 51
221.8100080722587109
  0
ARC
  5
E04E
  8
0
 10
4871.6937886262467146
 20
215.2209645483893894
 30
0.0
 40
0.140453417817401
 50
221.8100080722587109
 51
235.4125522456689907
  0
ARC
  5
E04F
  8
0
 10
4871.6601481421448625
 20
215.1721770271520882
 30
0.0
 40
0.081192094857019
 50
235.4125522456689907
 51
249.149896668290296
  0
ARC
  5
E050
  8
0
 10
4871.7679735063884436
 20
215.4207593339949938
 30
0.0
 40
0.3520880945457473
 50
247.1498614551229025
 51
257.8267799919108256
  0
ARC
  5
E051
  8
0
 10
4871.9924850467068609
 20
217.4877958365034942
 30
0.0
 40
2.4351629914501451
 50
265.3293134417232864
 51
268.4711449727415129
  0
ARC
  5
E052
  8
0
 10
4871.8796546391622542
 20
215.9277302481420122
 30
0.0
 40
0.8712124611658374
 50
257.6777533369269122
 51
264.370522346405096
  0
ARC
  5
E053
  8
0
 10
4871.9276063927591167
 20
213.8221362672016141
 30
0.0
 40
1.388742041846398
 50
90.0038137686838411
 51
94.5201689389016053
  0
ARC
  5
E054
  8
0
 10
4871.8899315655789906
 20
214.2636233230118137
 30
0.0
 40
0.9456630494470569
 50
94.3527011003414344
 51
100.771417906137799
  0
ARC
  5
E055
  8
0
 10
4871.7815374652682294
 20
214.8045687661686998
 30
0.0
 40
0.3940276429766695
 50
99.9881718519143448
 51
112.2917980942607983
  0
ARC
  5
E056
  8
0
 10
4871.6724724290543236
 20
215.070371313492501
 30
0.0
 40
0.1067191899003035
 50
112.2441518589109961
 51
130.8882502240143992
  0
ARC
  5
E057
  8
0
 10
4871.6265573191421936
 20
215.1249042748231943
 30
0.0
 40
0.0354512552373187
 50
132.4807892110594025
 51
153.0606302546331108
  0
ARC
  5
E058
  8
0
 10
4871.6136736250837203
 20
215.1318265289947078
 30
0.0
 40
0.0208321879964717
 50
153.9797586427629881
 51
175.6205721312853996
  0
ARC
  5
E059
  8
0
 10
4871.6227658445286579
 20
215.1321546975854062
 30
0.0
 40
0.0298902610401469
 50
177.5790405562883905
 51
185.2895874553757096
  0
ARC
  5
E05A
  8
0
 10
4871.6159649448463824
 20
215.1331973903178891
 30
0.0
 40
0.023274097195206
 50
189.3925154842023062
 51
222.0122631631462866
  0
ARC
  5
E05B
  8
0
 10
4871.6912212697889117
 20
215.5836929899980134
 30
0.0
 40
0.4368397400084885
 50
242.8350731787438122
 51
254.3501769121619986
  0
ARC
  5
E05C
  8
0
 10
4871.649412447513896
 20
215.5022191837479966
 30
0.0
 40
0.3452648595837748
 50
231.5166505058446091
 51
242.8350731787438122
  0
ARC
  5
E05D
  8
0
 10
4871.5766423632258011
 20
215.4106800590687953
 30
0.0
 40
0.2283251464221232
 50
222.3153064907249927
 51
231.5166505058446091
  0
ARC
  5
E05E
  8
0
 10
4872.1060943356478674
 20
215.9719769008285084
 30
0.0
 40
0.9994203606592158
 50
198.221923832938586
 51
225.6778204310174942
  0
LINE
  5
E05F
  8
0
 10
4871.1567924383170975
 20
215.6594597572610041
 30
0.0
 11
4871.1485228998808452
 21
215.877091169818101
 31
0.0
  0
ARC
  5
E060
  8
0
 10
4871.9597278253950208
 20
212.6652080211271993
 30
0.0
 40
2.679893542942938
 50
90.6887450137391653
 51
95.57331892399867
  0
ARC
  5
E061
  8
0
 10
4871.7382116410171875
 20
214.7525188904581057
 30
0.0
 40
0.5812075418292356
 50
93.8231864219979457
 51
110.1050268671693999
  0
ARC
  5
E062
  8
0
 10
4871.5889275301560701
 20
215.1510267692740115
 30
0.0
 40
0.1557008261659444
 50
108.9261289687524936
 51
129.4882784111798912
  0
ARC
  5
E063
  8
0
 10
4871.5198922221152316
 20
215.2348082104236084
 30
0.0
 40
0.0471411483970503
 50
129.4882784111798912
 51
156.8197473316797925
  0
ARC
  5
E064
  8
0
 10
4871.499426962729558
 20
215.2435712838473876
 30
0.0
 40
0.0248786620678465
 50
156.8197473316768082
 51
213.9888929760140002
  0
ARC
  5
E065
  8
0
 10
4871.554334838804607
 20
215.2805916291407016
 30
0.0
 40
0.0911008699799343
 50
213.9888929760140002
 51
221.9678300847604078
  0
ARC
  5
E066
  8
0
 10
4871.6950546810448941
 20
215.5866792285881957
 30
0.0
 40
0.426950826154494
 50
247.037771701045898
 51
253.4134884655751989
  0
ARC
  5
E067
  8
0
 10
4871.5969820343743777
 20
215.3552104103108888
 30
0.0
 40
0.1755625649728374
 50
235.3722459458655862
 51
247.037771701045898
  0
ARC
  5
E068
  8
0
 10
4871.5390017519475805
 20
215.27125024678611
 30
0.0
 40
0.073528148184749
 50
224.5463584327274873
 51
235.3722459458655862
  0
ARC
  5
E069
  8
0
 10
4871.280604429167397
 20
215.0169126078787087
 30
0.0
 40
0.289041584397697
 50
44.5463584327275299
 51
48.9931508707124621
  0
ARC
  5
E06A
  8
0
 10
4871.5058518890537016
 20
215.2759676195713894
 30
0.0
 40
0.0542453469997692
 50
212.6287003244190998
 51
228.9931508706731904
  0
ARC
  5
E06B
  8
0
 10
4871.4873959254209694
 20
215.264151508264689
 30
0.0
 40
0.0323308978847463
 50
179.5823150590622106
 51
212.6287003244190998
  0
ARC
  5
E06C
  8
0
 10
4871.4794100917579271
 20
215.2642097258433864
 30
0.0
 40
0.024344852018686
 50
144.39515464167971
 51
179.5823150590622106
  0
ARC
  5
E06D
  8
0
 10
4871.5246225539549414
 20
215.2318349985035013
 30
0.0
 40
0.0799532120744611
 50
114.5967565960434058
 51
144.39515464167971
  0
ARC
  5
E06E
  8
0
 10
4871.8244679759263818
 20
215.5695967340178925
 30
0.0
 40
0.5175600726419285
 50
218.1597360729730894
 51
219.7632381794634
  0
ARC
  5
E06F
  8
0
 10
4871.4365375176939779
 20
215.2667678530696946
 30
0.0
 40
0.0254777312477094
 50
186.6585165029648863
 51
221.7004533298510864
  0
ARC
  5
E070
  8
0
 10
4871.9311045565045788
 20
213.6302792889541138
 30
0.0
 40
1.7333430391864439
 50
90.1186877046049659
 51
97.0074883875796843
  0
ARC
  5
E071
  8
0
 10
4871.9229196875267007
 20
213.6968618404482072
 30
0.0
 40
1.6662592986592819
 50
97.00746360472003
 51
101.7565556061667991
  0
ARC
  5
E072
  8
0
 10
4871.7931215074058855
 20
214.3205327348146909
 30
0.0
 40
1.0292248003450799
 50
101.7565556061667991
 51
106.8414763512567021
  0
ARC
  5
E073
  8
0
 10
4871.0359247403039262
 20
216.8219437341182925
 30
0.0
 40
1.5842793476424739
 50
286.7060264364017144
 51
286.8414763512562899
  0
ARC
  5
E074
  8
0
 10
4871.7710531318880385
 20
214.3725692365414943
 30
0.0
 40
0.9730335353448346
 50
106.7060264364017002
 51
109.2032383743767952
  0
ARC
  5
E075
  8
0
 10
4871.517620580509174
 20
215.1001959706987918
 30
0.0
 40
0.2025345266764623
 50
109.2032383743767952
 51
118.6662397556921036
  0
ARC
  5
E076
  8
0
 10
4871.4309869056287425
 20
215.2586572055259069
 30
0.0
 40
0.0219373047538143
 50
118.6662397556921036
 51
145.0204501021308943
  0
ARC
  5
E077
  8
0
 10
4871.4215481228393401
 20
215.2652612929919087
 30
0.0
 40
0.0104175568488933
 50
145.0204501021335091
 51
187.9876738954444022
  0
ARC
  5
E078
  8
0
 10
4871.9275278529567004
 20
213.8813312442505037
 30
0.0
 40
1.325625412314519
 50
87.2975084851019147
 51
90.0009348786513073
  0
ARC
  5
E079
  8
0
 10
4871.9363898256633547
 20
214.0690754173768084
 30
0.0
 40
1.1376722024372541
 50
82.1616293431919757
 51
87.2975084851019147
  0
ARC
  5
E07A
  8
0
 10
4872.0037732570553999
 20
214.5585483580792925
 30
0.0
 40
0.6435828517061103
 50
76.3192999852689411
 51
82.1616293431919757
  0
ARC
  5
E07B
  8
0
 10
4872.0731591100411606
 20
214.8435978218182072
 30
0.0
 40
0.3502100626264428
 50
68.689299432692934
 51
76.3192999852689411
  0
ARC
  5
E07C
  8
0
 10
4872.1528099547631427
 20
215.0477789928769994
 30
0.0
 40
0.1310429855366077
 50
55.2269049905151377
 51
68.689299432692934
  0
ARC
  5
E07D
  8
0
 10
4872.2027877109530891
 20
215.1197596616088958
 30
0.0
 40
0.04341312313396
 50
30.6771063170933189
 51
55.2269049905151377
  0
ARC
  5
E07E
  8
0
 10
4872.2249255831420669
 20
215.1328922069197915
 30
0.0
 40
0.0176730933851642
 50
329.2045839324234748
 51
30.6771063170947187
  0
ARC
  5
E07F
  8
0
 10
4871.5570640076603013
 20
234.6870094128549908
 30
0.0
 40
19.6318958716854191
 50
271.0812240654034895
 51
271.186388375839897
  0
ARC
  5
E080
  8
0
 10
4871.9296706224276932
 20
216.3151050894595926
 30
0.0
 40
1.256239740500112
 50
271.544957872969519
 51
275.0154872880481776
  0
ARC
  5
E081
  8
0
 10
4871.9635224592066152
 20
215.924511234505303
 30
0.0
 40
0.864184434355835
 50
274.9332094905029749
 51
283.210578385885924
  0
ARC
  5
E082
  8
0
 10
4872.1062070394964394
 20
215.3166772307112922
 30
0.0
 40
0.2398279131114953
 50
283.210578385885924
 51
298.9511070679116074
  0
ARC
  5
E083
  8
0
 10
4872.1988944247259496
 20
215.1491277296844089
 30
0.0
 40
0.0483500118400317
 50
298.9511070679116074
 51
328.4709789921838023
  0
ARC
  5
E084
  8
0
 10
4872.1875796124786575
 20
215.1949377539594082
 30
0.0
 40
0.066805352764098
 50
308.1838392121752008
 51
315.782092795318988
  0
ARC
  5
E085
  8
0
 10
4872.1723983797137407
 20
215.2142408604813113
 30
0.0
 40
0.0913630348548323
 50
294.9891112644967279
 51
308.1838392121752008
  0
ARC
  5
E086
  8
0
 10
4871.9250561329872653
 20
215.6547526846443077
 30
0.0
 40
0.5963445040201196
 50
291.3926033567777267
 51
298.6517667281141826
  0
ARC
  5
E087
  8
0
 10
4871.924999510921225
 20
215.66110807102379
 30
0.0
 40
0.602286936711522
 50
283.5887590570947054
 51
291.1770899341930203
  0
ARC
  5
E088
  8
0
 10
4871.984715662835697
 20
215.3669856192470036
 30
0.0
 40
0.3025696338377783
 50
277.908270845962079
 51
285.683583889120996
  0
ARC
  5
E089
  8
0
 10
4871.9367520597697876
 20
215.5860902477760987
 30
0.0
 40
0.5264760235573755
 50
273.096115118470891
 51
279.7980331476587139
  0
ARC
  5
E08A
  8
0
 10
4872.1935925596262678
 20
210.4792211531128885
 30
0.0
 40
4.58685185778904
 50
92.8542569437968552
 51
93.2406223732526342
  0
ARC
  5
E08B
  8
0
 10
4871.9042523086900474
 20
215.9127688291196137
 30
0.0
 40
0.8481732865137088
 50
271.5715671173601891
 51
276.7940986081349024
  0
ARC
  5
E08C
  8
0
 10
4871.9277249261067482
 20
215.6690747181824861
 30
0.0
 40
0.6034388815881144
 50
277.3183788885876879
 51
285.0520626096482033
  0
ARC
  5
E08D
  8
0
 10
4871.9287079748710312
 20
215.6654192199681859
 30
0.0
 40
0.5996535081499658
 50
285.0520626096482033
 51
292.7026176108582831
  0
ARC
  5
E08E
  8
0
 10
4871.930120713091128
 20
215.6620423938879014
 30
0.0
 40
0.5959930732501777
 50
292.7026176108582831
 51
295.1910167961854086
  0
LINE
  5
E08F
  8
0
 10
4872.1837976681290456
 20
215.1227319583825022
 30
0.0
 11
4872.1843030837171682
 21
215.1238952129656923
 31
0.0
  0
LINE
  5
E090
  8
0
 10
4872.1837976681290456
 20
215.1227319583825022
 30
0.0
 11
4872.1673059690037917
 21
215.1325983102885004
 31
0.0
  0
LINE
  5
E091
  8
0
 10
4872.1673059690037917
 20
215.1325983102885004
 30
0.0
 11
4872.1673059690037917
 21
215.1208612888885057
 31
0.0
  0
LINE
  5
E092
  8
0
 10
4872.1673059690037917
 20
215.1208612888885057
 30
0.0
 11
4872.1331281132042932
 21
215.1208612888885057
 31
0.0
  0
LINE
  5
E093
  8
0
 10
4872.1331281132042932
 20
215.1208612888885057
 30
0.0
 11
4872.1331281132042932
 21
215.1257543980605931
 31
0.0
  0
LINE
  5
E094
  8
0
 10
4872.1843030836644175
 20
215.1238952129434097
 30
0.0
 11
4872.1878984104341725
 21
215.125603400206586
 31
0.0
  0
LINE
  5
E095
  8
0
 10
4872.1878984104341725
 20
215.125603400206586
 30
0.0
 11
4872.1977409300961881
 21
215.1332901804634048
 31
0.0
  0
LINE
  5
E096
  8
0
 10
4872.1977409300961881
 20
215.1332901804634048
 30
0.0
 11
4872.1879001891029475
 21
215.1318776781884878
 31
0.0
  0
LINE
  5
E097
  8
0
 10
4872.1879001891029475
 20
215.1318776781884878
 30
0.0
 11
4872.18588069245925
 21
215.1309178131826059
 31
0.0
  0
LINE
  5
E098
  8
0
 10
4872.18588069245925
 20
215.1309178131826059
 30
0.0
 11
4872.1700058483029352
 21
215.1405270806885142
 31
0.0
  0
LINE
  5
E099
  8
0
 10
4872.1858806899035699
 20
215.1309177805885042
 30
0.0
 11
4872.1860704520031504
 21
215.1333388802885906
 31
0.0
  0
LINE
  5
E09A
  8
0
 10
4872.1860704520031504
 20
215.1333388802885906
 30
0.0
 11
4872.185880661297233
 21
215.1359926851600051
 31
0.0
  0
LINE
  5
E09B
  8
0
 10
4872.185880661297233
 20
215.1359926851600051
 30
0.0
 11
4872.17493273673972
 21
215.1427200871999901
 31
0.0
  0
LINE
  5
E09C
  8
0
 10
4872.1858806895033922
 20
215.1359926674884946
 30
0.0
 11
4872.1878995186034444
 21
215.1369527130825929
 31
0.0
  0
LINE
  5
E09D
  8
0
 10
4872.1878995186034444
 20
215.1369527130825929
 30
0.0
 11
4872.1977409301925945
 21
215.1463823523795895
 31
0.0
  0
LINE
  5
E09E
  8
0
 10
4872.1977409301925945
 20
215.1463823523795895
 30
0.0
 11
4872.187899419803216
 21
215.1467128572884917
 31
0.0
  0
LINE
  5
E09F
  8
0
 10
4872.187899419803216
 20
215.1467128572884917
 30
0.0
 11
4872.1844429434531776
 21
215.1450705949384883
 31
0.0
  0
LINE
  5
E0A0
  8
0
 10
4872.1844429434531776
 20
215.1450705949384883
 30
0.0
 11
4872.1837968345353147
 21
215.1468011514955094
 31
0.0
  0
ARC
  5
E0A1
  8
0
 10
4871.9297760934350663
 20
215.6868688577953037
 30
0.0
 40
0.5968246512143286
 50
294.2531069183626187
 51
295.1899384250191929
  0
ARC
  5
E0A2
  8
0
 10
4871.9298376189581177
 20
215.6867296667583105
 30
0.0
 40
0.596672472476718
 50
292.0714121526569897
 51
294.2532106257098121
  0
ARC
  5
E0A3
  8
0
 10
4871.9284572448668769
 20
215.6902193044678029
 30
0.0
 40
0.6004250692697949
 50
283.7901052213156277
 51
292.0683530162302759
  0
ARC
  5
E0A4
  8
0
 10
4871.9087414064451877
 20
215.8659367630926056
 30
0.0
 40
0.7771792875367352
 50
271.3840980997584893
 51
277.8743591704960068
  0
ARC
  5
E0A5
  8
0
 10
4871.9276336337088651
 20
215.6939036408359982
 30
0.0
 40
0.6041995320994265
 50
278.3347282836276122
 51
283.7826754806254144
  0
LINE
  5
E0A6
  8
0
 10
4872.186189292857307
 20
215.1334859913407911
 30
0.0
 11
4872.1960471455076913
 21
215.1425518988608019
 31
0.0
  0
LINE
  5
E0A7
  8
0
 10
4872.1960471455076913
 20
215.1425518988608019
 30
0.0
 11
4872.2157372599785958
 21
215.1527892633164072
 31
0.0
  0
LINE
  5
E0A8
  8
0
 10
4872.2157372599785958
 20
215.1527892633164072
 30
0.0
 11
4872.2255797796597108
 21
215.1539773427344073
 31
0.0
  0
LINE
  5
E0A9
  8
0
 10
4872.2255797796597108
 20
215.1539773427344073
 30
0.0
 11
4872.2157372600795497
 21
215.1447719781895955
 31
0.0
  0
LINE
  5
E0AA
  8
0
 10
4872.2157372600795497
 20
215.1447719781895955
 30
0.0
 11
4872.1960522207036774
 21
215.1345370743867136
 31
0.0
  0
LINE
  5
E0AB
  8
0
 10
4872.1960522207036774
 20
215.1345370743867136
 30
0.0
 11
4872.186189292857307
 21
215.1334859913407911
 31
0.0
  0
LINE
  5
E0AC
  8
0
 10
4872.1862097011480728
 20
215.1232579393756907
 30
0.0
 11
4872.1960522207509712
 21
215.130574289689406
 31
0.0
  0
LINE
  5
E0AD
  8
0
 10
4872.1960522207509712
 20
215.130574289689406
 30
0.0
 11
4872.215737260026799
 21
215.140831976863609
 31
0.0
  0
LINE
  5
E0AE
  8
0
 10
4872.215737260026799
 20
215.140831976863609
 30
0.0
 11
4872.2255797796306069
 21
215.143849160854387
 31
0.0
  0
LINE
  5
E0AF
  8
0
 10
4872.2255797796306069
 20
215.143849160854387
 30
0.0
 11
4872.2157372601031966
 21
215.1364175306885045
 31
0.0
  0
LINE
  5
E0B0
  8
0
 10
4872.2157372601031966
 20
215.1364175306885045
 30
0.0
 11
4872.1960522206791211
 21
215.1260868446775021
 31
0.0
  0
LINE
  5
E0B1
  8
0
 10
4872.1960522206791211
 20
215.1260868446775021
 30
0.0
 11
4872.1862097010443904
 21
215.1232579393501112
 31
0.0
  0
LINE
  5
E0B2
  8
0
 10
4872.1977409301362059
 20
215.1259770348104041
 30
0.0
 11
4872.187898410447815
 21
215.1227447471212031
 31
0.0
  0
LINE
  5
E0B3
  8
0
 10
4872.187898410447815
 20
215.1227447471212031
 30
0.0
 11
4872.1761918496440558
 21
215.1172665062719886
 31
0.0
  0
LINE
  5
E0B4
  8
0
 10
4872.1761918496440558
 20
215.1172665062719886
 30
0.0
 11
4872.1712830246733574
 21
215.1134552381799949
 31
0.0
  0
LINE
  5
E0B5
  8
0
 10
4872.1712830246733574
 20
215.1134552381799949
 30
0.0
 11
4872.1586131605536139
 21
215.1079472430884891
 31
0.0
  0
LINE
  5
E0B6
  8
0
 10
4872.1586131605536139
 20
215.1079472430884891
 30
0.0
 11
4872.1682133710037306
 21
215.1108889594407003
 31
0.0
  0
LINE
  5
E0B7
  8
0
 10
4872.1682133710037306
 20
215.1108889594407003
 30
0.0
 11
4872.1878984104032497
 21
215.120018024681201
 31
0.0
  0
LINE
  5
E0B8
  8
0
 10
4872.1878984104032497
 20
215.120018024681201
 30
0.0
 11
4872.1977409301362059
 21
215.1259770348104041
 31
0.0
  0
LINE
  5
E0B9
  8
0
 10
4872.2179965980130874
 20
215.1614582152544131
 30
0.0
 11
4872.2157372601031966
 21
215.1589990354561905
 31
0.0
  0
LINE
  5
E0BA
  8
0
 10
4872.2157372601031966
 20
215.1589990354561905
 30
0.0
 11
4872.1960522207036774
 21
215.1487413482884961
 31
0.0
  0
LINE
  5
E0BB
  8
0
 10
4872.1960522207036774
 20
215.1487413482884961
 30
0.0
 11
4872.1862097009588979
 21
215.1494422831094937
 31
0.0
  0
LINE
  5
E0BC
  8
0
 10
4872.1862097009588979
 20
215.1494422831094937
 30
0.0
 11
4872.1960522207036774
 21
215.1602884735885084
 31
0.0
  0
LINE
  5
E0BD
  8
0
 10
4872.1960522207036774
 20
215.1602884735885084
 30
0.0
 11
4872.2082223301285921
 21
215.1665297095682945
 31
0.0
  0
LINE
  5
E0BE
  8
0
 10
4872.1977409301453008
 20
215.1652535505116077
 30
0.0
 11
4872.1878984103777839
 21
215.1673118255237114
 31
0.0
  0
LINE
  5
E0BF
  8
0
 10
4872.1878984103777839
 20
215.1673118255237114
 30
0.0
 11
4872.1682133710037306
 21
215.1581827602176133
 31
0.0
  0
LINE
  5
E0C0
  8
0
 10
4872.1682133710037306
 20
215.1581827602176133
 30
0.0
 11
4872.1583708513371676
 21
215.1470868413049971
 31
0.0
  0
LINE
  5
E0C1
  8
0
 10
4872.1583708513371676
 20
215.1470868413049971
 30
0.0
 11
4872.1712830245278383
 21
215.1523370047885066
 31
0.0
  0
LINE
  5
E0C2
  8
0
 10
4872.1712830245278383
 20
215.1523370047885066
 30
0.0
 11
4872.176191849604038
 21
215.148525736688498
 31
0.0
  0
LINE
  5
E0C3
  8
0
 10
4872.176191849604038
 20
215.148525736688498
 30
0.0
 11
4872.1878984104241681
 21
215.1540039776099036
 31
0.0
  0
LINE
  5
E0C4
  8
0
 10
4872.1878984104241681
 20
215.1540039776099036
 30
0.0
 11
4872.1977409301362059
 21
215.1652535505002106
 31
0.0
  0
LINE
  5
E0C5
  8
0
 10
4872.1849833485230192
 20
215.1754749491597067
 30
0.0
 11
4872.1682133710373819
 21
215.1676856503381998
 31
0.0
  0
LINE
  5
E0C6
  8
0
 10
4872.1682133710373819
 20
215.1676856503381998
 30
0.0
 11
4872.1583708513553574
 21
215.1715220590010063
 31
0.0
  0
LINE
  5
E0C7
  8
0
 10
4872.1583708513553574
 20
215.1715220590010063
 30
0.0
 11
4872.165850847951333
 21
215.181318608397504
 31
0.0
  0
LINE
  5
E0C8
  8
0
 10
4872.1632951967058034
 20
215.1820096623991105
 30
0.0
 11
4872.1600595608124422
 21
215.1776824458058002
 31
0.0
  0
LINE
  5
E0C9
  8
0
 10
4872.1600595608124422
 20
215.1776824458058002
 30
0.0
 11
4872.1403745213856382
 21
215.1695794271541899
 31
0.0
  0
LINE
  5
E0CA
  8
0
 10
4872.1403745213856382
 20
215.1695794271541899
 30
0.0
 11
4872.1305320017008853
 21
215.1747915029727949
 31
0.0
  0
LINE
  5
E0CB
  8
0
 10
4872.1305320017008853
 20
215.1747915029727949
 30
0.0
 11
4872.1399356588035516
 21
215.1875624178267969
 31
0.0
  0
LINE
  5
E0CC
  8
0
 10
4872.1371386377659292
 20
215.1881613838640135
 30
0.0
 11
4872.1322207111261378
 21
215.1813978914150027
 31
0.0
  0
LINE
  5
E0CD
  8
0
 10
4872.1322207111261378
 20
215.1813978914150027
 30
0.0
 11
4872.1125356717520845
 21
215.1743396253623928
 31
0.0
  0
LINE
  5
E0CE
  8
0
 10
4872.1125356717520845
 20
215.1743396253623928
 30
0.0
 11
4872.1026931520218568
 21
215.1809205354292942
 31
0.0
  0
LINE
  5
E0CF
  8
0
 10
4872.1026931520218568
 20
215.1809205354292942
 30
0.0
 11
4872.1114394237592933
 21
215.1930614655539955
 31
0.0
  0
LINE
  5
E0D0
  8
0
 10
4872.1083136278411985
 20
215.1936074884094126
 30
0.0
 11
4872.1043818615498822
 21
215.1879929053017122
 31
0.0
  0
LINE
  5
E0D1
  8
0
 10
4872.1043818615498822
 20
215.1879929053017122
 30
0.0
 11
4872.0846968221030693
 21
215.1819364769885965
 31
0.0
  0
LINE
  5
E0D2
  8
0
 10
4872.0846968221030693
 20
215.1819364769885965
 30
0.0
 11
4872.0748543024546962
 21
215.1899021677454868
 31
0.0
  0
LINE
  5
E0D3
  8
0
 10
4872.0748543024546962
 20
215.1899021677454868
 30
0.0
 11
4872.0802954750997742
 21
215.1976095126786959
 31
0.0
  0
LINE
  5
E0D4
  8
0
 10
4872.0769349264755874
 20
215.1980329519350903
 30
0.0
 11
4872.0765430118035511
 21
215.1974683210885075
 31
0.0
  0
LINE
  5
E0D5
  8
0
 10
4872.0765430118035511
 20
215.1974683210885075
 30
0.0
 11
4872.0568579724513256
 21
215.1923874461955108
 31
0.0
  0
LINE
  5
E0D6
  8
0
 10
4872.0568579724513256
 20
215.1923874461955108
 30
0.0
 11
4872.0474867150423961
 21
215.201310163959306
 31
0.0
  0
LINE
  5
E0D7
  8
0
 10
4872.0487041621036042
 20
215.1947063282611907
 30
0.0
 11
4872.0585466818338318
 21
215.1857304874606029
 31
0.0
  0
LINE
  5
E0D8
  8
0
 10
4872.0585466818338318
 20
215.1857304874606029
 30
0.0
 11
4872.0487041621836397
 21
215.1728426743825082
 31
0.0
  0
LINE
  5
E0D9
  8
0
 10
4872.0487041621836397
 20
215.1728426743825082
 30
0.0
 11
4872.0290191228159529
 21
215.168912988068314
 31
0.0
  0
LINE
  5
E0DA
  8
0
 10
4872.0290191228159529
 20
215.168912988068314
 30
0.0
 11
4872.0191766030402505
 21
215.1777674157960973
 31
0.0
  0
LINE
  5
E0DB
  8
0
 10
4872.0191766030402505
 20
215.1777674157960973
 30
0.0
 11
4872.0290191226977186
 21
215.1906710171390102
 31
0.0
  0
LINE
  5
E0DC
  8
0
 10
4872.0290191226977186
 20
215.1906710171390102
 30
0.0
 11
4872.0487041621036042
 21
215.1947063282611907
 31
0.0
  0
LINE
  5
E0DD
  8
0
 10
4872.0260839703378224
 20
215.2032063624662896
 30
0.0
 11
4872.0307078321802692
 21
215.198402589661697
 31
0.0
  0
LINE
  5
E0DE
  8
0
 10
4872.0307078321802692
 20
215.198402589661697
 30
0.0
 11
4872.0208653124864213
 21
215.1850449616455023
 31
0.0
  0
LINE
  5
E0DF
  8
0
 10
4872.0208653124864213
 20
215.1850449616455023
 30
0.0
 11
4872.0011802731041826
 21
215.1820630089885071
 31
0.0
  0
LINE
  5
E0E0
  8
0
 10
4872.0011802731041826
 20
215.1820630089885071
 30
0.0
 11
4871.9913377534057872
 21
215.1923478637581013
 31
0.0
  0
LINE
  5
E0E1
  8
0
 10
4871.9913377534057872
 20
215.1923478637581013
 30
0.0
 11
4872.0005814015357828
 21
215.2049352158491047
 31
0.0
  0
LINE
  5
E0E2
  8
0
 10
4871.9966316376667237
 20
215.2051515434727094
 30
0.0
 11
4871.9930264628037548
 21
215.2001683617293111
 31
0.0
  0
LINE
  5
E0E3
  8
0
 10
4871.9930264628037548
 20
215.2001683617293111
 30
0.0
 11
4871.9733414235042801
 21
215.1981452135595134
 31
0.0
  0
LINE
  5
E0E4
  8
0
 10
4871.9733414235042801
 20
215.1981452135595134
 30
0.0
 11
4871.9663950802987529
 21
215.2063867421119028
 31
0.0
  0
LINE
  5
E0E5
  8
0
 10
4872.0307078322357484
 20
215.1628362576419988
 30
0.0
 11
4872.0208653125046112
 21
215.1712991831888928
 31
0.0
  0
LINE
  5
E0E6
  8
0
 10
4872.0208653125046112
 20
215.1712991831888928
 30
0.0
 11
4872.0011802731360149
 21
215.1683659257913916
 31
0.0
  0
LINE
  5
E0E7
  8
0
 10
4872.0011802731360149
 20
215.1683659257913916
 30
0.0
 11
4871.9913377534558094
 21
215.1570342691821907
 31
0.0
  0
LINE
  5
E0E8
  8
0
 10
4871.9913377534558094
 20
215.1570342691821907
 30
0.0
 11
4872.0011802731041826
 21
215.1486555248758066
 31
0.0
  0
LINE
  5
E0E9
  8
0
 10
4872.0011802731041826
 20
215.1486555248758066
 30
0.0
 11
4872.0208653124573175
 21
215.1515252359930059
 31
0.0
  0
LINE
  5
E0EA
  8
0
 10
4872.0208653124573175
 20
215.1515252359930059
 30
0.0
 11
4872.0307078322366579
 21
215.1628362576408051
 31
0.0
  0
LINE
  5
E0EB
  8
0
 10
4872.0863855313973545
 20
215.1759420144749129
 30
0.0
 11
4872.0765430118035511
 21
215.1835136593884954
 31
0.0
  0
LINE
  5
E0EC
  8
0
 10
4872.0765430118035511
 20
215.1835136593884954
 30
0.0
 11
4872.0568579724031224
 21
215.1785194072398042
 31
0.0
  0
LINE
  5
E0ED
  8
0
 10
4872.0568579724031224
 20
215.1785194072398042
 30
0.0
 11
4872.0470154527529303
 21
215.1660678716040991
 31
0.0
  0
LINE
  5
E0EE
  8
0
 10
4872.0470154527529303
 20
215.1660678716040991
 30
0.0
 11
4872.0568579724031224
 21
215.1585860915525927
 31
0.0
  0
LINE
  5
E0EF
  8
0
 10
4872.0568579724031224
 20
215.1585860915525927
 30
0.0
 11
4872.0765430117799042
 21
215.1634675850588962
 31
0.0
  0
LINE
  5
E0F0
  8
0
 10
4872.0765430117799042
 20
215.1634675850588962
 30
0.0
 11
4872.0863855314382818
 21
215.1759420144454111
 31
0.0
  0
LINE
  5
E0F1
  8
0
 10
4872.1142243811600565
 20
215.1689832042862065
 30
0.0
 11
4872.1043818615044074
 21
215.1751838565662922
 31
0.0
  0
LINE
  5
E0F2
  8
0
 10
4872.1043818615044074
 20
215.1751838565662922
 30
0.0
 11
4872.0846968221030693
 21
215.1692168881884868
 31
0.0
  0
LINE
  5
E0F3
  8
0
 10
4872.0846968221030693
 20
215.1692168881884868
 30
0.0
 11
4872.0748543024319588
 21
215.1571654398316014
 31
0.0
  0
LINE
  5
E0F4
  8
0
 10
4872.0748543024319588
 20
215.1571654398316014
 30
0.0
 11
4872.0846968221321731
 21
215.1510223215080089
 31
0.0
  0
LINE
  5
E0F5
  8
0
 10
4872.0846968221321731
 20
215.1510223215080089
 30
0.0
 11
4872.1043818615398777
 21
215.1568742376578882
 31
0.0
  0
LINE
  5
E0F6
  8
0
 10
4872.1043818615398777
 20
215.1568742376578882
 30
0.0
 11
4872.1142243811600565
 21
215.1689832042862065
 31
0.0
  0
LINE
  5
E0F7
  8
0
 10
4872.1322207111043099
 20
215.1696872608683861
 30
0.0
 11
4872.1125356717029717
 21
215.1627184541885072
 31
0.0
  0
LINE
  5
E0F8
  8
0
 10
4872.1125356717029717
 20
215.1627184541885072
 30
0.0
 11
4872.1026931520473227
 21
215.1510228960806046
 31
0.0
  0
LINE
  5
E0F9
  8
0
 10
4872.1026931520473227
 20
215.1510228960806046
 30
0.0
 11
4872.1125356717029717
 21
215.1462058210258874
 31
0.0
  0
LINE
  5
E0FA
  8
0
 10
4872.1125356717029717
 20
215.1462058210258874
 30
0.0
 11
4872.1322207111043099
 21
215.1530618811885063
 31
0.0
  0
LINE
  5
E0FB
  8
0
 10
4872.1322207111043099
 20
215.1530618811885063
 30
0.0
 11
4872.1322207111043099
 21
215.1644480085888915
 31
0.0
  0
LINE
  5
E0FC
  8
0
 10
4872.1322207111043099
 20
215.1644480085888915
 30
0.0
 11
4872.1322207064149552
 21
215.1696872592085867
 31
0.0
  0
LINE
  5
E0FD
  8
0
 10
4872.1322207064149552
 20
215.1696872592085867
 30
0.0
 11
4872.1420632307263077
 21
215.1648472846925984
 31
0.0
  0
LINE
  5
E0FE
  8
0
 10
4872.1420632307263077
 20
215.1648472846925984
 30
0.0
 11
4872.132220711177979
 21
215.1530618812145121
 31
0.0
  0
LINE
  5
E0FF
  8
0
 10
4872.1125356717029717
 20
215.1462058210258874
 30
0.0
 11
4872.1125356759594069
 21
215.1627184556946872
 31
0.0
  0
LINE
  5
E100
  8
0
 10
4872.1699020804771862
 20
215.1635741115123039
 30
0.0
 11
4872.1600595608042568
 21
215.167041272686987
 31
0.0
  0
LINE
  5
E101
  8
0
 10
4872.1600595608042568
 20
215.167041272686987
 30
0.0
 11
4872.1403745213783623
 21
215.1590248752634977
 31
0.0
  0
LINE
  5
E102
  8
0
 10
4872.1403745213783623
 20
215.1590248752634977
 30
0.0
 11
4872.1305320017436316
 21
215.1476465679859871
 31
0.0
  0
LINE
  5
E103
  8
0
 10
4872.1305320017436316
 20
215.1476465679859871
 30
0.0
 11
4872.1403745213647198
 21
215.1441636126889136
 31
0.0
  0
LINE
  5
E104
  8
0
 10
4872.1403745213647198
 20
215.1441636126889136
 30
0.0
 11
4872.1600595607178548
 21
215.1520744086687102
 31
0.0
  0
LINE
  5
E105
  8
0
 10
4872.1600595607178548
 20
215.1520744086687102
 30
0.0
 11
4872.1699020804771862
 21
215.1635741115123039
 31
0.0
  0
LINE
  5
E106
  8
0
 10
4872.1420638384961421
 20
215.1405551209738007
 30
0.0
 11
4872.1322196277105832
 21
215.1436816654070014
 31
0.0
  0
LINE
  5
E107
  8
0
 10
4872.1322196277105832
 20
215.1436816654070014
 30
0.0
 11
4872.1125356717957402
 21
215.1368802660443009
 31
0.0
  0
LINE
  5
E108
  8
0
 10
4872.1125356717957402
 20
215.1368802660443009
 30
0.0
 11
4872.1026931520200378
 21
215.127016429825801
 31
0.0
  0
LINE
  5
E109
  8
0
 10
4872.1026931520200378
 20
215.127016429825801
 30
0.0
 11
4872.1420638384961421
 21
215.1405551209738007
 31
0.0
  0
LINE
  5
E10A
  8
0
 10
4872.1142243811491426
 20
215.1419911896533108
 30
0.0
 11
4872.1043818615044074
 21
215.1464502323310057
 31
0.0
  0
LINE
  5
E10B
  8
0
 10
4872.1043818615044074
 20
215.1464502323310057
 30
0.0
 11
4872.0846968221030693
 21
215.1406563855477998
 31
0.0
  0
LINE
  5
E10C
  8
0
 10
4872.0846968221030693
 20
215.1406563855477998
 30
0.0
 11
4872.0748543023546517
 21
215.1304746356478006
 31
0.0
  0
LINE
  5
E10D
  8
0
 10
4872.0748543023546517
 20
215.1304746356478006
 30
0.0
 11
4872.0846968220666895
 21
215.1260254710817037
 31
0.0
  0
LINE
  5
E10E
  8
0
 10
4872.0846968220666895
 20
215.1260254710817037
 30
0.0
 11
4872.1043818615107739
 21
215.1317483422986072
 31
0.0
  0
LINE
  5
E10F
  8
0
 10
4872.1043818615107739
 20
215.1317483422986072
 30
0.0
 11
4872.1142243811491426
 21
215.1419911896533108
 31
0.0
  0
LINE
  5
E110
  8
0
 10
4872.0863887636032814
 20
215.122293226288491
 30
0.0
 11
4872.076543011726244
 21
215.126391719386703
 31
0.0
  0
LINE
  5
E111
  8
0
 10
4872.076543011726244
 20
215.126391719386703
 30
0.0
 11
4872.0568579724631491
 21
215.1216775803819985
 31
0.0
  0
LINE
  5
E112
  8
0
 10
4872.0568579724631491
 20
215.1216775803819985
 30
0.0
 11
4872.0470154527301929
 21
215.1129034651642087
 31
0.0
  0
LINE
  5
E113
  8
0
 10
4872.0470154527301929
 20
215.1129034651642087
 30
0.0
 11
4872.0863887636032814
 21
215.122293226288491
 31
0.0
  0
LINE
  5
E114
  8
0
 10
4872.0863855315592446
 20
215.1462004408132032
 30
0.0
 11
4872.0765430119090524
 21
215.1519796150699051
 31
0.0
  0
LINE
  5
E115
  8
0
 10
4872.0765430119090524
 20
215.1519796150699051
 30
0.0
 11
4872.0568579724031224
 21
215.1471561910250045
 31
0.0
  0
LINE
  5
E116
  8
0
 10
4872.0568579724031224
 20
215.1471561910250045
 30
0.0
 11
4872.0470154527565683
 21
215.1366275358334121
 31
0.0
  0
LINE
  5
E117
  8
0
 10
4872.0470154527565683
 20
215.1366275358334121
 30
0.0
 11
4872.0568579724031224
 21
215.1308850549885108
 31
0.0
  0
LINE
  5
E118
  8
0
 10
4872.0568579724031224
 20
215.1308850549885108
 30
0.0
 11
4872.0765430118526638
 21
215.1356350984551966
 31
0.0
  0
LINE
  5
E119
  8
0
 10
4872.0765430118526638
 20
215.1356350984551966
 30
0.0
 11
4872.0863855314855755
 21
215.1462004407397046
 31
0.0
  0
LINE
  5
E11A
  8
0
 10
4872.0585466818192799
 20
215.1531467396083031
 30
0.0
 11
4872.0487041621772732
 21
215.1602536172613895
 31
0.0
  0
LINE
  5
E11B
  8
0
 10
4872.0487041621772732
 20
215.1602536172613895
 30
0.0
 11
4872.0290191227586547
 21
215.1563789776284921
 31
0.0
  0
LINE
  5
E11C
  8
0
 10
4872.0290191227586547
 20
215.1563789776284921
 30
0.0
 11
4872.0201040871615987
 21
215.1464653337191919
 31
0.0
  0
LINE
  5
E11D
  8
0
 10
4872.0201040871615987
 20
215.1464653337191919
 30
0.0
 11
4872.0290191228032199
 21
215.1384235074058893
 31
0.0
  0
LINE
  5
E11E
  8
0
 10
4872.0290191228032199
 20
215.1384235074058893
 30
0.0
 11
4872.0487041621572644
 21
215.1422271658987029
 31
0.0
  0
LINE
  5
E11F
  8
0
 10
4872.0487041621572644
 20
215.1422271658987029
 30
0.0
 11
4872.0585466818165514
 21
215.1531467396046082
 31
0.0
  0
LINE
  5
E120
  8
0
 10
4872.0585466817938141
 20
215.1265554473999089
 30
0.0
 11
4872.0487041621036042
 21
215.1319461830885018
 31
0.0
  0
LINE
  5
E121
  8
0
 10
4872.0487041621036042
 20
215.1319461830885018
 30
0.0
 11
4872.0290191228032199
 21
215.128178429313806
 31
0.0
  0
LINE
  5
E122
  8
0
 10
4872.0290191228032199
 20
215.128178429313806
 30
0.0
 11
4872.0191766030829967
 21
215.1190641533981989
 31
0.0
  0
LINE
  5
E123
  8
0
 10
4872.0191766030829967
 20
215.1190641533981989
 30
0.0
 11
4872.0290191228032199
 21
215.113695396688513
 31
0.0
  0
LINE
  5
E124
  8
0
 10
4872.0290191228032199
 20
215.113695396688513
 30
0.0
 11
4872.0487041621036042
 21
215.1174191947262102
 31
0.0
  0
LINE
  5
E125
  8
0
 10
4872.0487041621036042
 20
215.1174191947262102
 30
0.0
 11
4872.0585466817910856
 21
215.1265554474016142
 31
0.0
  0
LINE
  5
E126
  8
0
 10
4872.0307078321538938
 20
215.1334921924897969
 30
0.0
 11
4872.0208653125037017
 21
215.1401775046307137
 31
0.0
  0
LINE
  5
E127
  8
0
 10
4872.0208653125037017
 20
215.1401775046307137
 30
0.0
 11
4872.0011802731041826
 21
215.1373405883884971
 31
0.0
  0
LINE
  5
E128
  8
0
 10
4872.0011802731041826
 20
215.1373405883884971
 30
0.0
 11
4871.9913377534603569
 21
215.1278602719102082
 31
0.0
  0
LINE
  5
E129
  8
0
 10
4871.9913377534603569
 20
215.1278602719102082
 30
0.0
 11
4872.0011802731041826
 21
215.121214885688488
 31
0.0
  0
LINE
  5
E12A
  8
0
 10
4872.0011802731041826
 20
215.121214885688488
 30
0.0
 11
4872.0208653125037017
 21
215.1240102938884888
 31
0.0
  0
LINE
  5
E12B
  8
0
 10
4872.0208653125037017
 20
215.1240102938884888
 30
0.0
 11
4872.0307078321538938
 21
215.1334921924897969
 31
0.0
  0
LINE
  5
E12C
  8
0
 10
4872.0307078322193775
 20
215.1098277192834871
 30
0.0
 11
4872.021185724022871
 21
215.1146795453362017
 31
0.0
  0
LINE
  5
E12D
  8
0
 10
4872.021185724022871
 20
215.1146795453362017
 30
0.0
 11
4872.0011802731496573
 21
215.112078634281005
 31
0.0
  0
LINE
  5
E12E
  8
0
 10
4872.0011802731496573
 20
215.112078634281005
 30
0.0
 11
4871.9913377534649044
 21
215.1043012058752879
 31
0.0
  0
LINE
  5
E12F
  8
0
 10
4871.9913377534649044
 20
215.1043012058752879
 30
0.0
 11
4872.0307078322193775
 21
215.1098277192834871
 31
0.0
  0
LINE
  5
E130
  8
0
 10
4872.002868982540349
 20
215.1167573478298891
 30
0.0
 11
4871.9930264628037548
 21
215.1230530967885102
 31
0.0
  0
LINE
  5
E131
  8
0
 10
4871.9930264628037548
 20
215.1230530967885102
 30
0.0
 11
4871.9733414235934106
 21
215.1211960399851932
 31
0.0
  0
LINE
  5
E132
  8
0
 10
4871.9733414235934106
 20
215.1211960399851932
 30
0.0
 11
4871.9634989038213462
 21
215.1130644619684062
 31
0.0
  0
LINE
  5
E133
  8
0
 10
4871.9634989038213462
 20
215.1130644619684062
 30
0.0
 11
4871.9733414234797237
 21
215.1067929247217023
 31
0.0
  0
LINE
  5
E134
  8
0
 10
4871.9733414234797237
 20
215.1067929247217023
 30
0.0
 11
4871.9930264627228098
 21
215.1086289189659908
 31
0.0
  0
LINE
  5
E135
  8
0
 10
4871.9930264627228098
 20
215.1086289189659908
 30
0.0
 11
4872.002868982540349
 21
215.1167573478298891
 31
0.0
  0
LINE
  5
E136
  8
0
 10
4871.9750301329304421
 20
215.1027846035080984
 30
0.0
 11
4871.9651876131347308
 21
215.1087144084029887
 31
0.0
  0
LINE
  5
E137
  8
0
 10
4871.9651876131347308
 20
215.1087144084029887
 30
0.0
 11
4871.9455025738716358
 21
215.1077979161121903
 31
0.0
  0
LINE
  5
E138
  8
0
 10
4871.9455025738716358
 20
215.1077979161121903
 30
0.0
 11
4871.935660054095024
 21
215.1009592951940874
 31
0.0
  0
LINE
  5
E139
  8
0
 10
4871.935660054095024
 20
215.1009592951940874
 30
0.0
 11
4871.9750301329304421
 21
215.1027846035080984
 31
0.0
  0
LINE
  5
E13A
  8
0
 10
4871.9750301327967463
 20
215.1263151133254894
 30
0.0
 11
4871.965187613271155
 21
215.1339022311354938
 31
0.0
  0
LINE
  5
E13B
  8
0
 10
4871.965187613271155
 20
215.1339022311354938
 30
0.0
 11
4871.9455025737552205
 21
215.1329657018069099
 31
0.0
  0
LINE
  5
E13C
  8
0
 10
4871.9455025737552205
 20
215.1329657018069099
 30
0.0
 11
4871.9356600541568696
 21
215.1244556439654048
 31
0.0
  0
LINE
  5
E13D
  8
0
 10
4871.9356600541568696
 20
215.1244556439654048
 30
0.0
 11
4871.9455025738043332
 21
215.1169031932257099
 31
0.0
  0
LINE
  5
E13E
  8
0
 10
4871.9455025738043332
 20
215.1169031932257099
 30
0.0
 11
4871.9651876132038524
 21
215.1178262770625054
 31
0.0
  0
LINE
  5
E13F
  8
0
 10
4871.9651876132038524
 20
215.1178262770625054
 30
0.0
 11
4871.975030132946813
 21
215.1263151133175029
 31
0.0
  0
LINE
  5
E140
  8
0
 10
4872.0028689825112451
 20
215.1431061902694921
 30
0.0
 11
4871.9930264628301302
 21
215.1511106678605074
 31
0.0
  0
LINE
  5
E141
  8
0
 10
4871.9930264628301302
 20
215.1511106678605074
 30
0.0
 11
4871.9733414235042801
 21
215.1492024808707981
 31
0.0
  0
LINE
  5
E142
  8
0
 10
4871.9733414235042801
 20
215.1492024808707981
 30
0.0
 11
4871.9634989037349442
 21
215.1393241969495023
 31
0.0
  0
LINE
  5
E143
  8
0
 10
4871.9634989037349442
 20
215.1393241969495023
 30
0.0
 11
4871.97334142343243
 21
215.1313758782698073
 31
0.0
  0
LINE
  5
E144
  8
0
 10
4871.97334142343243
 20
215.1313758782698073
 30
0.0
 11
4871.9930264628028453
 21
215.1332501244835953
 31
0.0
  0
LINE
  5
E145
  8
0
 10
4871.9930264628028453
 20
215.1332501244835953
 30
0.0
 11
4872.0028689825112451
 21
215.1431061902694921
 31
0.0
  0
LINE
  5
E146
  8
0
 10
4871.9750301328758724
 20
215.1554430808564859
 30
0.0
 11
4871.9651876131938479
 21
215.1648121965397991
 31
0.0
  0
LINE
  5
E147
  8
0
 10
4871.9651876131938479
 20
215.1648121965397991
 30
0.0
 11
4871.945502573765225
 21
215.1638445035582947
 31
0.0
  0
LINE
  5
E148
  8
0
 10
4871.945502573765225
 20
215.1638445035582947
 30
0.0
 11
4871.9356600541477746
 21
215.1535285717492911
 31
0.0
  0
LINE
  5
E149
  8
0
 10
4871.9356600541477746
 20
215.1535285717492911
 30
0.0
 11
4871.9455025737870528
 21
215.1442307349163912
 31
0.0
  0
LINE
  5
E14A
  8
0
 10
4871.9455025737870528
 20
215.1442307349163912
 30
0.0
 11
4871.9651876132038524
 21
215.1442307349163912
 31
0.0
  0
LINE
  5
E14B
  8
0
 10
4871.9651876132038524
 20
215.1442307349163912
 30
0.0
 11
4871.9750301328758724
 21
215.1554430808564859
 31
0.0
  0
LINE
  5
E14C
  8
0
 10
4872.0028689825048787
 20
215.1753181235322927
 30
0.0
 11
4871.9930264628210352
 21
215.1851881595511031
 31
0.0
  0
LINE
  5
E14D
  8
0
 10
4871.9930264628210352
 20
215.1851881595511031
 30
0.0
 11
4871.9733414234679003
 21
215.1832033519222875
 31
0.0
  0
LINE
  5
E14E
  8
0
 10
4871.9733414234679003
 20
215.1832033519222875
 30
0.0
 11
4871.9634989037840569
 21
215.171399795210192
 31
0.0
  0
LINE
  5
E14F
  8
0
 10
4871.9634989037840569
 20
215.171399795210192
 30
0.0
 11
4871.9733414234469819
 21
215.1616366515009986
 31
0.0
  0
LINE
  5
E150
  8
0
 10
4871.9733414234469819
 20
215.1616366515009986
 30
0.0
 11
4871.9930264628037548
 21
215.1635711217884932
 31
0.0
  0
LINE
  5
E151
  8
0
 10
4871.9930264628037548
 20
215.1635711217884932
 30
0.0
 11
4872.0028689825048787
 21
215.1753181235322927
 31
0.0
  0
LINE
  5
E152
  8
0
 10
4871.9750301329149806
 20
215.1906883738678005
 30
0.0
 11
4871.9651876132857069
 21
215.2020432596609112
 31
0.0
  0
LINE
  5
E153
  8
0
 10
4871.9651876132857069
 20
215.2020432596609112
 30
0.0
 11
4871.9455025738570839
 21
215.2010298864834112
 31
0.0
  0
LINE
  5
E154
  8
0
 10
4871.9455025738570839
 20
215.2010298864834112
 30
0.0
 11
4871.9356600541368607
 21
215.1886922511637863
 31
0.0
  0
LINE
  5
E155
  8
0
 10
4871.9356600541368607
 20
215.1886922511637863
 30
0.0
 11
4871.94550257384617
 21
215.1774675970075066
 31
0.0
  0
LINE
  5
E156
  8
0
 10
4871.94550257384617
 20
215.1774675970075066
 30
0.0
 11
4871.9651876132666075
 21
215.1784510177434981
 31
0.0
  0
LINE
  5
E157
  8
0
 10
4871.9651876132666075
 20
215.1784510177434981
 30
0.0
 11
4871.9750301328977002
 21
215.1906883738649015
 31
0.0
  0
LINE
  5
E158
  8
0
 10
4871.9275049447041965
 20
215.0606874677885116
 30
0.0
 11
4871.9373487635039055
 21
215.0606874677885116
 31
0.0
  0
LINE
  5
E159
  8
0
 10
4871.9373487635039055
 20
215.0606874677885116
 30
0.0
 11
4871.9471912826120388
 21
215.0599339785692905
 31
0.0
  0
LINE
  5
E15A
  8
0
 10
4871.9471912826120388
 20
215.0599339785692905
 30
0.0
 11
4871.937348763501177
 21
215.0591177075149858
 31
0.0
  0
LINE
  5
E15B
  8
0
 10
4871.937348763501177
 20
215.0591177075149858
 30
0.0
 11
4871.9275065376641578
 21
215.059036188989495
 31
0.0
  0
LINE
  5
E15C
  8
0
 10
4871.9356600540586442
 20
215.0616827795805079
 30
0.0
 11
4871.9455025738570839
 21
215.0605041152425088
 31
0.0
  0
LINE
  5
E15D
  8
0
 10
4871.9455025738570839
 20
215.0605041152425088
 30
0.0
 11
4871.9651876131592871
 21
215.0614206076043047
 31
0.0
  0
LINE
  5
E15E
  8
0
 10
4871.9651876131592871
 20
215.0614206076043047
 30
0.0
 11
4871.9750300131636322
 21
215.063508057076092
 31
0.0
  0
LINE
  5
E15F
  8
0
 10
4871.9750300131636322
 20
215.063508057076092
 30
0.0
 11
4871.9651887097261351
 21
215.0628903811526129
 31
0.0
  0
LINE
  5
E160
  8
0
 10
4871.9651887097261351
 20
215.0628903811526129
 30
0.0
 11
4871.9455025738043332
 21
215.0619782131279862
 31
0.0
  0
LINE
  5
E161
  8
0
 10
4871.9455025738043332
 20
215.0619782131279862
 30
0.0
 11
4871.9356600540586442
 21
215.0616827795805079
 31
0.0
  0
LINE
  5
E162
  8
0
 10
4871.9634989037340347
 20
215.0606957744734871
 30
0.0
 11
4871.9733414235042801
 21
215.0608872186128053
 31
0.0
  0
LINE
  5
E163
  8
0
 10
4871.9634989038131607
 20
215.0606957744849126
 30
0.0
 11
4871.9733414234660813
 21
215.0624415223981032
 31
0.0
  0
LINE
  5
E164
  8
0
 10
4871.9733414234660813
 20
215.0624415223981032
 30
0.0
 11
4871.993026462855596
 21
215.0642775166801925
 31
0.0
  0
LINE
  5
E165
  8
0
 10
4871.993026462855596
 20
215.0642775166801925
 30
0.0
 11
4872.0028689825821857
 21
215.0643886603550072
 31
0.0
  0
LINE
  5
E166
  8
0
 10
4872.0028689825821857
 20
215.0643886603550072
 30
0.0
 11
4871.9931810902271536
 21
215.0626470627956053
 31
0.0
  0
LINE
  5
E167
  8
0
 10
4871.9913377534694519
 20
215.0650246903063874
 30
0.0
 11
4872.0011802730978161
 21
215.064784833518388
 31
0.0
  0
LINE
  5
E168
  8
0
 10
4872.0011802730978161
 20
215.064784833518388
 30
0.0
 11
4872.0208653124436751
 21
215.0675599055306861
 31
0.0
  0
LINE
  5
E169
  8
0
 10
4872.0208653124436751
 20
215.0675599055306861
 30
0.0
 11
4872.0307078321447989
 21
215.0705512036878986
 31
0.0
  0
LINE
  5
E16A
  8
0
 10
4872.0307078321447989
 20
215.0705512036878986
 30
0.0
 11
4872.0208653125037017
 21
215.0689996872571896
 31
0.0
  0
LINE
  5
E16B
  8
0
 10
4872.0208653125037017
 20
215.0689996872571896
 30
0.0
 11
4872.0011802731041826
 21
215.0662381683625028
 31
0.0
  0
LINE
  5
E16C
  8
0
 10
4872.0011802731041826
 20
215.0662381683625028
 30
0.0
 11
4871.9913377534030587
 21
215.0650246902885101
 31
0.0
  0
LINE
  5
E16D
  8
0
 10
4872.0191766030920917
 20
215.066695465961601
 30
0.0
 11
4872.0290191224103182
 21
215.0693439943202065
 31
0.0
  0
LINE
  5
E16E
  8
0
 10
4872.0290191224103182
 20
215.0693439943202065
 30
0.0
 11
4872.0487041621036042
 21
215.0730677924364045
 31
0.0
  0
LINE
  5
E16F
  8
0
 10
4872.0487041621036042
 20
215.0730677924364045
 30
0.0
 11
4872.0585466816037297
 21
215.074186759923208
 31
0.0
  0
LINE
  5
E170
  8
0
 10
4872.0585466816037297
 20
215.074186759923208
 30
0.0
 11
4872.0487041621036042
 21
215.0715602104646109
 31
0.0
  0
LINE
  5
E171
  8
0
 10
4872.0487041621036042
 20
215.0715602104646109
 30
0.0
 11
4872.0290191227668402
 21
215.0677924566288084
 31
0.0
  0
LINE
  5
E172
  8
0
 10
4872.0290191227668402
 20
215.0677924566288084
 30
0.0
 11
4872.019176603114829
 21
215.0666954659118915
 31
0.0
  0
LINE
  5
E173
  8
0
 10
4872.0470154527847626
 20
215.0736269495216106
 30
0.0
 11
4872.0568579724567826
 21
215.074383779752992
 31
0.0
  0
LINE
  5
E174
  8
0
 10
4872.0568579724567826
 20
215.074383779752992
 30
0.0
 11
4872.0765430118035511
 21
215.0790979185248943
 31
0.0
  0
LINE
  5
E175
  8
0
 10
4872.0765430118035511
 20
215.0790979185248943
 30
0.0
 11
4872.0863887554342
 21
215.0830140770034973
 31
0.0
  0
LINE
  5
E176
  8
0
 10
4872.0863887554342
 20
215.0830140770034973
 30
0.0
 11
4872.0765430118035511
 21
215.0804822595885071
 31
0.0
  0
LINE
  5
E177
  8
0
 10
4872.0765430118035511
 20
215.0804822595885071
 30
0.0
 11
4872.0568579724031224
 21
215.0757918536885995
 31
0.0
  0
LINE
  5
E178
  8
0
 10
4872.0568579724031224
 20
215.0757918536885995
 30
0.0
 11
4872.0470154527847626
 21
215.0736269495216106
 31
0.0
  0
LINE
  5
E179
  8
0
 10
4872.0748543023719321
 20
215.0781059481307125
 30
0.0
 11
4872.0846968221030693
 21
215.0816740686732089
 31
0.0
  0
LINE
  5
E17A
  8
0
 10
4872.0846968221030693
 20
215.0816740686732089
 30
0.0
 11
4872.104381861487127
 21
215.0873969399320913
 31
0.0
  0
LINE
  5
E17B
  8
0
 10
4872.104381861487127
 20
215.0873969399320913
 30
0.0
 11
4872.1142243807571504
 21
215.0896225021016903
 31
0.0
  0
LINE
  5
E17C
  8
0
 10
4872.1142243807571504
 20
215.0896225021016903
 30
0.0
 11
4872.1116000650390561
 21
215.0884565300883082
 31
0.0
  0
LINE
  5
E17D
  8
0
 10
4872.0797045410399733
 20
215.0790291177968925
 30
0.0
 11
4872.0748543023719321
 21
215.0781059481307125
 31
0.0
  0
LINE
  5
E17E
  8
0
 10
4872.1026931520536891
 20
215.0877399141926958
 30
0.0
 11
4872.1125356717029717
 21
215.0909131237370104
 31
0.0
  0
LINE
  5
E17F
  8
0
 10
4872.1125356717029717
 20
215.0909131237370104
 30
0.0
 11
4872.1322207111043099
 21
215.0976804025885087
 31
0.0
  0
LINE
  5
E180
  8
0
 10
4872.1322207111043099
 20
215.0976804025885087
 30
0.0
 11
4872.1418209730400122
 21
215.1012221372776025
 31
0.0
  0
LINE
  5
E181
  8
0
 10
4872.1418209730400122
 20
215.1012221372776025
 30
0.0
 11
4872.1322207111043099
 21
215.0963874794884987
 31
0.0
  0
LINE
  5
E182
  8
0
 10
4872.1322207111043099
 20
215.0963874794884987
 30
0.0
 11
4872.1125356717102477
 21
215.0895864653506067
 31
0.0
  0
LINE
  5
E183
  8
0
 10
4872.1125356717102477
 20
215.0895864653506067
 30
0.0
 11
4872.1026931520927974
 21
215.0877399142302977
 31
0.0
  0
LINE
  5
E184
  8
0
 10
4872.169902080425345
 20
215.1112054240780935
 30
0.0
 11
4872.1679871980995813
 21
215.1101323902396132
 31
0.0
  0
LINE
  5
E185
  8
0
 10
4872.169902080425345
 20
215.1112054240780935
 30
0.0
 11
4872.1600595607087598
 21
215.1077230064011871
 31
0.0
  0
LINE
  5
E186
  8
0
 10
4872.1600595607087598
 20
215.1077230064011871
 30
0.0
 11
4872.1403745214265655
 21
215.0998122105220034
 31
0.0
  0
LINE
  5
E187
  8
0
 10
4872.1403745214265655
 20
215.0998122105220034
 30
0.0
 11
4872.1305320019482679
 21
215.0952778806156971
 31
0.0
  0
LINE
  5
E188
  8
0
 10
4872.1305320019482679
 20
215.0952778806156971
 30
0.0
 11
4872.1325643442251021
 21
215.0957175917010886
 31
0.0
  0
LINE
  5
E189
  8
0
 10
4871.9651876132857069
 20
215.2020432596609112
 30
0.0
 11
4871.9651876132666075
 21
215.1784510177434981
 31
0.0
  0
LINE
  5
E18A
  8
0
 10
4871.94550257384617
 20
215.1774675970075066
 30
0.0
 11
4871.9455025738570839
 21
215.2010298864834112
 31
0.0
  0
LINE
  5
E18B
  8
0
 10
4871.9733414234679003
 20
215.1832033519222875
 30
0.0
 11
4871.9733414234469819
 21
215.1616366515009986
 31
0.0
  0
LINE
  5
E18C
  8
0
 10
4871.9930264628037548
 20
215.1635711217884932
 30
0.0
 11
4871.9930264628210352
 21
215.1851881595511031
 31
0.0
  0
LINE
  5
E18D
  8
0
 10
4871.9651876131938479
 20
215.1648121965397991
 30
0.0
 11
4871.9651876131938479
 21
215.1442307349163912
 31
0.0
  0
LINE
  5
E18E
  8
0
 10
4871.9455025737870528
 20
215.1442307349163912
 30
0.0
 11
4871.945502573765225
 21
215.1638445035582947
 31
0.0
  0
LINE
  5
E18F
  8
0
 10
4871.9930264628301302
 20
215.1511106678605074
 30
0.0
 11
4871.9930264628028453
 21
215.1332501244835953
 31
0.0
  0
LINE
  5
E190
  8
0
 10
4871.97334142343243
 20
215.1313758782698073
 30
0.0
 11
4871.9733414235042801
 21
215.1492024808707981
 31
0.0
  0
LINE
  5
E191
  8
0
 10
4871.965187613271155
 20
215.1339022311354938
 30
0.0
 11
4871.9651876132038524
 21
215.1178262770625054
 31
0.0
  0
LINE
  5
E192
  8
0
 10
4871.9455025738043332
 20
215.1169031932257099
 30
0.0
 11
4871.9455025737552205
 21
215.1329657018069099
 31
0.0
  0
LINE
  5
E193
  8
0
 10
4871.9651876131347308
 20
215.1087144084029887
 30
0.0
 11
4871.9651876131347308
 21
215.1023282764255953
 31
0.0
  0
LINE
  5
E194
  8
0
 10
4871.9455025738716358
 20
215.1077979161121903
 30
0.0
 11
4871.9455025738716358
 21
215.1014156222757094
 31
0.0
  0
LINE
  5
E195
  8
0
 10
4871.9733414235934106
 20
215.1211960399851932
 30
0.0
 11
4871.9733414234797237
 21
215.1067929247217023
 31
0.0
  0
LINE
  5
E196
  8
0
 10
4871.9930264627228098
 20
215.1086289189659908
 30
0.0
 11
4871.9930264628037548
 21
215.1230530967885102
 31
0.0
  0
LINE
  5
E197
  8
0
 10
4872.0011802731496573
 20
215.112078634281005
 30
0.0
 11
4872.0020607245751307
 21
215.1058064262226139
 31
0.0
  0
LINE
  5
E198
  8
0
 10
4872.021185724022871
 20
215.1146795453362017
 30
0.0
 11
4872.0220376351953746
 21
215.1086106538973013
 31
0.0
  0
LINE
  5
E199
  8
0
 10
4872.0011802731041826
 20
215.1373405883884971
 30
0.0
 11
4872.0011802731041826
 21
215.121214885688488
 31
0.0
  0
LINE
  5
E19A
  8
0
 10
4872.0208653125037017
 20
215.1240102938884888
 30
0.0
 11
4872.0208653125037017
 21
215.1401775046307137
 31
0.0
  0
LINE
  5
E19B
  8
0
 10
4872.0208653125046112
 20
215.1712991831888928
 30
0.0
 11
4872.0208653124573175
 21
215.1515252359930059
 31
0.0
  0
LINE
  5
E19C
  8
0
 10
4872.0011802731360149
 20
215.1683659257913916
 30
0.0
 11
4872.0011802731041826
 21
215.1486555248758066
 31
0.0
  0
LINE
  5
E19D
  8
0
 10
4872.0011802731041826
 20
215.1820630089885071
 30
0.0
 11
4872.0011802731041826
 21
215.2049012130511016
 31
0.0
  0
LINE
  5
E19E
  8
0
 10
4872.0208653124864213
 20
215.1850449616455023
 30
0.0
 11
4872.0208653124864213
 21
215.2036070089706925
 31
0.0
  0
LINE
  5
E19F
  8
0
 10
4871.9930264628037548
 20
215.2001683617293111
 30
0.0
 11
4871.9930264628037548
 21
215.2053369768480877
 31
0.0
  0
LINE
  5
E1A0
  8
0
 10
4871.9733414235042801
 20
215.1981452135595134
 30
0.0
 11
4871.9733414235042801
 21
215.2061647622925875
 31
0.0
  0
LINE
  5
E1A1
  8
0
 10
4872.0487041621036042
 20
215.1947063282611907
 30
0.0
 11
4872.0487041621836397
 21
215.1728426743825082
 31
0.0
  0
LINE
  5
E1A2
  8
0
 10
4872.0290191226977186
 20
215.1906710171390102
 30
0.0
 11
4872.0290191228159529
 21
215.168912988068314
 31
0.0
  0
LINE
  5
E1A3
  8
0
 10
4872.0765430118035511
 20
215.1835136593884954
 30
0.0
 11
4872.0765430117799042
 21
215.1634675850588962
 31
0.0
  0
LINE
  5
E1A4
  8
0
 10
4872.0568579724031224
 20
215.1585860915525927
 30
0.0
 11
4872.0568579724031224
 21
215.1785194072398042
 31
0.0
  0
LINE
  5
E1A5
  8
0
 10
4872.0487041621772732
 20
215.1602536172613895
 30
0.0
 11
4872.0487041621572644
 21
215.1422271658987029
 31
0.0
  0
LINE
  5
E1A6
  8
0
 10
4872.0290191228032199
 20
215.1384235074058893
 30
0.0
 11
4872.0290191227586547
 21
215.1563789776284921
 31
0.0
  0
LINE
  5
E1A7
  8
0
 10
4872.0568579724031224
 20
215.1471561910250045
 30
0.0
 11
4872.0568579724031224
 21
215.1308850549885108
 31
0.0
  0
LINE
  5
E1A8
  8
0
 10
4872.0765430118526638
 20
215.1356350984551966
 30
0.0
 11
4872.0765430119090524
 21
215.1519796150699051
 31
0.0
  0
LINE
  5
E1A9
  8
0
 10
4872.0846968221030693
 20
215.1692168881884868
 30
0.0
 11
4872.0846968221321731
 21
215.1510223215080089
 31
0.0
  0
LINE
  5
E1AA
  8
0
 10
4872.1043818615398777
 20
215.1568742376578882
 30
0.0
 11
4872.1043818615044074
 21
215.1751838565662922
 31
0.0
  0
LINE
  5
E1AB
  8
0
 10
4872.1043818615044074
 20
215.1464502323310057
 30
0.0
 11
4872.1043818615107739
 21
215.1317483422986072
 31
0.0
  0
LINE
  5
E1AC
  8
0
 10
4872.0846968220666895
 20
215.1260254710817037
 30
0.0
 11
4872.0846968221030693
 21
215.1406563855477998
 31
0.0
  0
LINE
  5
E1AD
  8
0
 10
4872.076543011726244
 20
215.126391719386703
 30
0.0
 11
4872.076543011726244
 21
215.1199452078928971
 31
0.0
  0
LINE
  5
E1AE
  8
0
 10
4872.0568579724631491
 20
215.1216775803819985
 30
0.0
 11
4872.0568579724631491
 21
215.1152507127567048
 31
0.0
  0
LINE
  5
E1AF
  8
0
 10
4872.1125356717957402
 20
215.1368802660443009
 30
0.0
 11
4872.1125356717957402
 21
215.1304010503974098
 31
0.0
  0
LINE
  5
E1B0
  8
0
 10
4872.1322196277105832
 20
215.1436816654070014
 30
0.0
 11
4872.1322196277105832
 21
215.1371699189020887
 31
0.0
  0
LINE
  5
E1B1
  8
0
 10
4872.1403745213783623
 20
215.1590248752634977
 30
0.0
 11
4872.1403745213647198
 21
215.1441636126889136
 31
0.0
  0
LINE
  5
E1B2
  8
0
 10
4872.1600595607178548
 20
215.1520744086687102
 30
0.0
 11
4872.1600595608042568
 21
215.167041272686987
 31
0.0
  0
LINE
  5
E1B3
  8
0
 10
4872.1878984103777839
 20
215.1673118255237114
 30
0.0
 11
4872.1878984104241681
 21
215.1540039776099036
 31
0.0
  0
LINE
  5
E1B4
  8
0
 10
4872.1960522207036774
 20
215.1487413482884961
 30
0.0
 11
4872.1960522207036774
 21
215.1602884735885084
 31
0.0
  0
LINE
  5
E1B5
  8
0
 10
4872.2157372599785958
 20
215.1527892633164072
 30
0.0
 11
4872.2157372600795497
 21
215.1447719781895955
 31
0.0
  0
LINE
  5
E1B6
  8
0
 10
4872.1960522207036774
 20
215.1345370743867136
 30
0.0
 11
4872.1960522207036774
 21
215.1425421374459006
 31
0.0
  0
LINE
  5
E1B7
  8
0
 10
4872.215737260026799
 20
215.140831976863609
 30
0.0
 11
4872.2157372601031966
 21
215.1364175306885045
 31
0.0
  0
LINE
  5
E1B8
  8
0
 10
4872.1960522206791211
 20
215.1260868446775021
 30
0.0
 11
4872.1960522207509712
 21
215.130574289689406
 31
0.0
  0
LINE
  5
E1B9
  8
0
 10
4872.1682133710373819
 20
215.1676856503381998
 30
0.0
 11
4872.1682133710373819
 21
215.1806612808744887
 31
0.0
  0
LINE
  5
E1BA
  8
0
 10
4872.1418549618356337
 20
215.1701888258112945
 30
0.0
 11
4872.1418549618356337
 21
215.1871438797103053
 31
0.0
  0
LINE
  5
E1BB
  8
0
 10
4872.1600595608124422
 20
215.1776824458058002
 30
0.0
 11
4872.1600595608124422
 21
215.1828549508817048
 31
0.0
  0
LINE
  5
E1BC
  8
0
 10
4872.1125356717520845
 20
215.1743396253623928
 30
0.0
 11
4872.1125356717520845
 21
215.192874476223011
 31
0.0
  0
LINE
  5
E1BD
  8
0
 10
4872.1322207111261378
 20
215.1813978914150027
 30
0.0
 11
4872.1322207111261378
 21
215.1891830689482106
 31
0.0
  0
LINE
  5
E1BE
  8
0
 10
4872.1043818615498822
 20
215.1879929053017122
 30
0.0
 11
4872.1043818615498822
 21
215.1942187095285135
 31
0.0
  0
LINE
  5
E1BF
  8
0
 10
4872.0846968221030693
 20
215.1819364769885965
 30
0.0
 11
4872.0846968221030693
 21
215.1970395457981908
 31
0.0
  0
LINE
  5
E1C0
  8
0
 10
4872.0568579724513256
 20
215.1923874461955108
 30
0.0
 11
4872.0568579724513256
 21
215.20035145168859
 31
0.0
  0
LINE
  5
E1C1
  8
0
 10
4872.0487041621036042
 20
215.1319461830885018
 30
0.0
 11
4872.0487041621036042
 21
215.1174191947262102
 31
0.0
  0
LINE
  5
E1C2
  8
0
 10
4872.0290191228032199
 20
215.113695396688513
 30
0.0
 11
4872.0290191228032199
 21
215.128178429313806
 31
0.0
  0
ARC
  5
E1C3
  8
0
 10
4871.9279233976521937
 20
213.8517767613255103
 30
0.0
 40
1.456276216777989
 50
85.3881547690194651
 51
90.016400953354804
  0
ARC
  5
E1C4
  8
0
 10
4871.9646180046893278
 20
214.3066713866878104
 30
0.0
 40
0.9999039845277348
 50
77.3094596193441532
 51
85.3881547690194651
  0
ARC
  5
E1C5
  8
0
 10
4872.1162243716444209
 20
214.9799201528934134
 30
0.0
 40
0.3097964626888201
 50
65.0158688582344126
 51
77.3094596193441532
  0
ARC
  5
E1C6
  8
0
 10
4872.2069695713998954
 20
215.1746646635779996
 30
0.0
 40
0.0949474093504723
 50
43.611959795732929
 51
65.0158688582344126
  0
ARC
  5
E1C7
  8
0
 10
4872.2596105884676945
 20
215.2248367763222063
 30
0.0
 40
0.0222265972563359
 50
359.7375268796862997
 51
43.5712858773821878
  0
LINE
  5
E1C8
  8
0
 10
4872.2818369525039088
 20
215.224734956188513
 30
0.0
 11
4872.2818369525039088
 21
215.1678795831884941
 31
0.0
  0
ARC
  5
E1C9
  8
0
 10
4872.2246366824892903
 20
215.1678795831884941
 30
0.0
 40
0.0572002700141861
 50
343.121410187078709
 51
0.0
  0
ARC
  5
E1CA
  8
0
 10
4872.2184911083413681
 20
215.169744243209891
 30
0.0
 40
0.0636225000478887
 50
318.189991927738788
 51
343.1214101870803006
  0
ARC
  5
E1CB
  8
0
 10
4872.16122444908342
 20
215.2209645483893894
 30
0.0
 40
0.140453417817401
 50
304.5874477543310945
 51
318.1899919277411755
  0
ARC
  5
E1CC
  8
0
 10
4872.1948649331843626
 20
215.1721770271520882
 30
0.0
 40
0.081192094857019
 50
290.8501033317098177
 51
304.5874477543310945
  0
ARC
  5
E1CD
  8
0
 10
4872.0870395689407815
 20
215.4207593339949938
 30
0.0
 40
0.3520880945457473
 50
282.1732200080891744
 51
292.8501385448769838
  0
ARC
  5
E1CE
  8
0
 10
4871.8451513075451658
 20
217.8085023722858011
 30
0.0
 40
2.7562335142088599
 50
271.7123856202873071
 51
274.4878444454446935
  0
ARC
  5
E1CF
  8
0
 10
4871.9753584361678804
 20
215.9277302481420122
 30
0.0
 40
0.8712124611658374
 50
275.6294776535947904
 51
282.3222466630223266
  0
ARC
  5
E1D0
  8
0
 10
4872.1637918055403134
 20
215.5836929899980134
 30
0.0
 40
0.4368397400084885
 50
285.6498230878378877
 51
297.1649268212561878
  0
ARC
  5
E1D1
  8
0
 10
4872.2056006278144196
 20
215.5022191837479966
 30
0.0
 40
0.3452648595837748
 50
297.1649268212561878
 51
308.4833494941553909
  0
ARC
  5
E1D2
  8
0
 10
4872.278370712101605
 20
215.4106800590687953
 30
0.0
 40
0.2283251464221232
 50
308.4833494941553909
 51
317.684693509239878
  0
ARC
  5
E1D3
  8
0
 10
4871.0205442915475942
 20
216.5558284359103993
 30
0.0
 40
1.9293519272891
 50
317.684693509239878
 51
332.0858388685924751
  0
LINE
  5
E1D4
  8
0
 10
4872.7254160262600635
 20
215.6526057460303036
 30
0.0
 11
4872.7321261339120611
 21
215.877091169818101
 31
0.0
  0
ARC
  5
E1D5
  8
0
 10
4871.8508377197476875
 20
211.8797635078308019
 30
0.0
 40
3.465992671266354
 50
84.9617918760503841
 51
88.7323738219624261
  0
ARC
  5
E1D6
  8
0
 10
4872.1180261483368668
 20
214.7567831320934886
 30
0.0
 40
0.5767822462609989
 50
69.8636110368792203
 51
86.3025773874936846
  0
ARC
  5
E1D7
  8
0
 10
4872.2660855451740645
 20
215.1510267692740115
 30
0.0
 40
0.1557008261659444
 50
50.5117215888201017
 51
71.0738710312474922
  0
ARC
  5
E1D8
  8
0
 10
4872.335120853213084
 20
215.2348082104236084
 30
0.0
 40
0.0471411483970503
 50
23.1802526683201791
 51
50.5117215888201017
  0
ARC
  5
E1D9
  8
0
 10
4872.3555861125987576
 20
215.2435712838473876
 30
0.0
 40
0.0248786620678465
 50
326.0111070239860283
 51
23.1802526683231704
  0
ARC
  5
E1DA
  8
0
 10
4872.3006782365227991
 20
215.2805916291407016
 30
0.0
 40
0.0911008699799343
 50
318.0321699152395922
 51
326.0111070239860283
  0
ARC
  5
E1DB
  8
0
 10
4872.1599583942834215
 20
215.5866792285881957
 30
0.0
 40
0.426950826154494
 50
286.5865115344242895
 51
292.9622282989540736
  0
ARC
  5
E1DC
  8
0
 10
4872.2580310409557569
 20
215.3552104103108888
 30
0.0
 40
0.1755625649728374
 50
292.9622282989540736
 51
304.6277540541344138
  0
ARC
  5
E1DD
  8
0
 10
4872.3160113233807351
 20
215.27125024678611
 30
0.0
 40
0.073528148184749
 50
304.6277540541344138
 51
315.4536415672724843
  0
ARC
  5
E1DE
  8
0
 10
4872.5744086461618281
 20
215.0169126078787087
 30
0.0
 40
0.289041584397697
 50
131.0068491293268096
 51
135.4536415672725127
  0
ARC
  5
E1DF
  8
0
 10
4872.349161186274614
 20
215.2759676195713894
 30
0.0
 40
0.0542453469997692
 50
311.0068491292876161
 51
327.3712996755795075
  0
ARC
  5
E1E0
  8
0
 10
4872.3676171499082557
 20
215.264151508264689
 30
0.0
 40
0.0323308978847463
 50
327.3712996755808717
 51
0.4176849409378264
  0
ARC
  5
E1E1
  8
0
 10
4872.3756029835703885
 20
215.2642097258433864
 30
0.0
 40
0.024344852018686
 50
0.4176849409378264
 51
35.6048453583202971
  0
ARC
  5
E1E2
  8
0
 10
4872.3303905213751932
 20
215.2318349985035013
 30
0.0
 40
0.0799532120744611
 50
35.6048453583202971
 51
65.4032434039565658
  0
ARC
  5
E1E3
  8
0
 10
4872.0305450994028433
 20
215.5695967340178925
 30
0.0
 40
0.5175600726419285
 50
320.2367618205366284
 51
321.8402639270269106
  0
ARC
  5
E1E4
  8
0
 10
4872.4184755576352472
 20
215.2667678530696946
 30
0.0
 40
0.0254777312477094
 50
318.2995466701489136
 51
353.3414834970350853
  0
ARC
  5
E1E5
  8
0
 10
4871.9239077333768364
 20
213.6302707989576106
 30
0.0
 40
1.7333515615883679
 50
82.9925200807930565
 51
89.8807966108847438
  0
ARC
  5
E1E6
  8
0
 10
4871.9320933878007054
 20
213.6968618404482072
 30
0.0
 40
1.6662592986592819
 50
78.2434443938331157
 51
82.9925363952799842
  0
ARC
  5
E1E7
  8
0
 10
4872.0618915679233396
 20
214.3205327348146909
 30
0.0
 40
1.0292248003450799
 50
73.1585236487432695
 51
78.2434443938331157
  0
ARC
  5
E1E8
  8
0
 10
4872.8190883350252989
 20
216.8219437341182925
 30
0.0
 40
1.5842793476424739
 50
253.1585236487431985
 51
253.2939735635983141
  0
ARC
  5
E1E9
  8
0
 10
4872.0839599434420961
 20
214.3725692365414943
 30
0.0
 40
0.9730335353448346
 50
70.7967616255739642
 51
73.2939735635983425
  0
ARC
  5
E1EA
  8
0
 10
4872.3373924948200511
 20
215.1001959706987918
 30
0.0
 40
0.2025345266764623
 50
61.3337602443078467
 51
70.7967616255739642
  0
ARC
  5
E1EB
  8
0
 10
4872.4240261696995731
 20
215.2586572055259069
 30
0.0
 40
0.0219373047538143
 50
34.9795498978690986
 51
61.3337602443078467
  0
ARC
  5
E1EC
  8
0
 10
4872.4334649524889755
 20
215.2652612929919087
 30
0.0
 40
0.0104175568488933
 50
352.0123261045540062
 51
34.9795498978664412
  0
LINE
  5
E1ED
  8
0
 10
4871.9373493511211564
 20
215.1963025832490075
 30
0.0
 11
4871.9373493511211564
 21
215.206920272549894
 31
0.0
  0
LINE
  5
E1EE
  8
0
 10
4867.203097254655404
 20
215.877091169818101
 30
0.0
 11
4876.1794753354051863
 21
215.877091169818101
 31
0.0
  0
ARC
  5
E1EF
  8
0
 10
4874.8802627373888754
 20
214.8930475513604961
 30
0.0
 40
1.191006219259457
 50
235.7510014803266074
 51
304.2483842221861892
  0
ARC
  5
E1F0
  8
0
 10
4874.8802627369896072
 20
214.8930472130010116
 30
0.0
 40
1.1908838829171871
 50
55.6684961869126198
 51
124.3315038130873944
  0
ARC
  5
E1F1
  8
0
 10
4875.4117544599994289
 20
211.6651269572664091
 30
0.0
 40
3.7797678077027479
 50
184.1886670017370875
 51
203.2884861336553968
  0
ARC
  5
E1F2
  8
0
 10
4871.9273308118963541
 20
213.8221304964905869
 30
0.0
 40
1.388747821556906
 50
85.4798357607883048
 51
89.9924440712652256
  0
ARC
  5
E1F3
  8
0
 10
4871.9650059810173843
 20
214.2636233230118137
 30
0.0
 40
0.9456630494470569
 50
79.2285820938621157
 51
85.6472988996585656
  0
ARC
  5
E1F4
  8
0
 10
4872.0734000813281455
 20
214.8045687661686998
 30
0.0
 40
0.3940276429766695
 50
67.7082019057392301
 51
80.0118281480856837
  0
ARC
  5
E1F5
  8
0
 10
4872.1824651175429608
 20
215.070371313492501
 30
0.0
 40
0.1067191899003035
 50
49.1117497759856434
 51
67.7558481410889755
  0
ARC
  5
E1F6
  8
0
 10
4872.2283802274541813
 20
215.1249042748231943
 30
0.0
 40
0.0354512552373187
 50
26.9393697453668715
 51
47.5192107889405477
  0
ARC
  5
E1F7
  8
0
 10
4872.2412639215126546
 20
215.1318265289947078
 30
0.0
 40
0.0208321879964717
 50
4.379427868714564
 51
26.0202413572369693
  0
ARC
  5
E1F8
  8
0
 10
4872.238972601750902
 20
215.1331973903178891
 30
0.0
 40
0.023274097195206
 50
317.9877368368536281
 51
350.6074845157975801
  0
ARC
  5
E1F9
  8
0
 10
4872.248604591775802
 20
215.1317432388555062
 30
0.0
 40
0.0135346212612106
 50
350.0264306847038824
 51
7.1049413038520699
  0
LINE
  5
E1FA
  8
0
 10
4876.1794753354051863
 20
213.9087569237618993
 30
0.0
 11
4876.1794753354051863
 21
215.877091169818101
 31
0.0
  0
ARC
  5
E1FB
  8
0
 10
4875.0069960112250556
 20
246.4384302985909869
 30
0.0
 40
0.0945769115833745
 50
183.2956216892771977
 51
233.8887731189805947
  0
ARC
  5
E1FC
  8
0
 10
4875.0648378187343042
 20
246.517718576194909
 30
0.0
 40
0.1927212219702654
 50
233.8887731189805947
 51
249.5959041745813067
  0
ARC
  5
E1FD
  8
0
 10
4875.0369108718978168
 20
246.4657898139240046
 30
0.0
 40
0.1345564348014765
 50
253.0344150096827889
 51
320.5905378375387045
  0
ARC
  5
E1FE
  8
0
 10
4875.0583584611786137
 20
246.4571443190708067
 30
0.0
 40
0.1127103912008994
 50
317.0622136725004907
 51
358.3736838634620767
  0
ARC
  5
E1FF
  8
0
 10
4875.0778834278153226
 20
246.454677706220707
 30
0.0
 40
0.0931429010610233
 50
359.5495948639940025
 51
60.4324810411329878
  0
ARC
  5
E200
  8
0
 10
4875.0499337537512474
 20
246.407125371321996
 30
0.0
 40
0.1482968680058802
 50
60.1058994009014924
 51
118.1608143081162012
  0
ARC
  5
E201
  8
0
 10
4875.0440372834127629
 20
246.4151668106584907
 30
0.0
 40
0.1384316090014412
 50
117.5799712284200069
 51
147.744774448777008
  0
ARC
  5
E202
  8
0
 10
4875.0792761246293594
 20
246.4200634034253881
 30
0.0
 40
0.1672013063958065
 50
155.6332590099318054
 51
175.5648189629683884
  0
ARC
  5
E203
  8
0
 10
4875.032787454460049
 20
246.4342938436863051
 30
0.0
 40
0.108950425064008
 50
198.192422241821788
 51
221.5541429014820949
  0
ARC
  5
E204
  8
0
 10
4874.9997685323696714
 20
246.4234426133060083
 30
0.0
 40
0.0741941534469695
 50
152.0412261700637941
 51
198.192422241821788
  0
ARC
  5
E205
  8
0
 10
4875.0432033740889892
 20
246.4003879713793026
 30
0.0
 40
0.1233683538929919
 50
106.0461722685261066
 51
152.0412261700637941
  0
ARC
  5
E206
  8
0
 10
4875.0492205801438104
 20
246.3794671242370953
 30
0.0
 40
0.1451373367322628
 50
68.7540027997897312
 51
106.0461722685261066
  0
ARC
  5
E207
  8
0
 10
4875.0675049887850037
 20
246.4264951290190879
 30
0.0
 40
0.0946799008766993
 50
28.3092983593877285
 51
68.7540027997897312
  0
ARC
  5
E208
  8
0
 10
4875.082598396746107
 20
246.4346252517709956
 30
0.0
 40
0.0775361014188389
 50
346.3323038312875042
 51
28.3092983593877285
  0
ARC
  5
E209
  8
0
 10
4875.0528548003239848
 20
246.4418581952130012
 30
0.0
 40
0.1081465081289044
 50
327.9755421626246061
 51
346.3323038312875042
  0
ARC
  5
E20A
  8
0
 10
4875.0430336475428703
 20
246.4209662399721879
 30
0.0
 40
0.0595811846425356
 50
220.1489655096416982
 51
300.7099326844248139
  0
ARC
  5
E20B
  8
0
 10
4875.0444279622943213
 20
246.4186188733677056
 30
0.0
 40
0.056850938572897
 50
300.7099326844257234
 51
351.512390956585989
  0
ARC
  5
E20C
  8
0
 10
4875.0573719447547774
 20
246.4088933965327897
 30
0.0
 40
0.0433048817352876
 50
1.7659721626284011
 51
75.4015763368607281
  0
ARC
  5
E20D
  8
0
 10
4875.0490613745587325
 20
246.3911639135110931
 30
0.0
 40
0.0626586010366448
 50
72.1319812549523931
 51
148.969624177778087
  0
ARC
  5
E20E
  8
0
 10
4875.0278607570926397
 20
246.4046368770588913
 30
0.0
 40
0.0375517607630362
 50
149.9097695828928067
 51
216.0280108066417029
  0
ARC
  5
E20F
  8
0
 10
4874.4823834375629303
 20
247.230294439354509
 30
0.0
 40
0.177882960600706
 50
97.0528380313418353
 51
160.6470656535321098
  0
ARC
  5
E210
  8
0
 10
4874.4843757951457519
 20
247.2141907760887989
 30
0.0
 40
0.194109403813036
 50
39.3739457143251386
 51
97.0528380313418353
  0
ARC
  5
E211
  8
0
 10
4874.5532274925799356
 20
247.2706937837039902
 30
0.0
 40
0.1050411933834529
 50
358.082317125933514
 51
39.3739457143251386
  0
ARC
  5
E212
  8
0
 10
4874.4742782976109083
 20
247.2733371909494906
 30
0.0
 40
0.1840346297445655
 50
322.6823091168911901
 51
358.082317125933514
  0
ARC
  5
E213
  8
0
 10
4874.4829462145480647
 20
247.2865484768313138
 30
0.0
 40
0.1858199503913451
 50
282.1982907030562728
 51
317.8165442683928745
  0
ARC
  5
E214
  8
0
 10
4874.4790199664175816
 20
247.293732051796411
 30
0.0
 40
0.1936848272965836
 50
245.0779664027602962
 51
282.884532997165195
  0
ARC
  5
E215
  8
0
 10
4874.4604351489469991
 20
247.2576082722478077
 30
0.0
 40
0.1531021657744578
 50
197.4528249694731983
 51
245.6888122856940129
  0
ARC
  5
E216
  8
0
 10
4874.4874074352901516
 20
247.2500857596996013
 30
0.0
 40
0.1772352702222621
 50
167.2363207404374066
 51
192.5116637097858074
  0
ARC
  5
E217
  8
0
 10
4874.4518543272179159
 20
247.2397204695625987
 30
0.0
 40
0.0945769115833745
 50
183.2956216892771977
 51
233.8887731189805947
  0
ARC
  5
E218
  8
0
 10
4874.509696134726255
 20
247.3190087471666061
 30
0.0
 40
0.1927212219702654
 50
233.8887731189805947
 51
249.5959041745813067
  0
ARC
  5
E219
  8
0
 10
4874.4817691878906771
 20
247.267079984895588
 30
0.0
 40
0.1345564348014765
 50
253.0344150096827889
 51
320.5905378375387045
  0
ARC
  5
E21A
  8
0
 10
4874.5032167771723834
 20
247.2584344900425037
 30
0.0
 40
0.1127103912008994
 50
317.0622136725004907
 51
358.3736838634620767
  0
ARC
  5
E21B
  8
0
 10
4874.5227417438081829
 20
247.2559678771922904
 30
0.0
 40
0.0931429010610233
 50
359.5495948639940025
 51
60.4324810411329878
  0
ARC
  5
E21C
  8
0
 10
4874.4947920697441077
 20
247.2084155422936078
 30
0.0
 40
0.1482968680058802
 50
60.1058994009014924
 51
118.1608143081162012
  0
ARC
  5
E21D
  8
0
 10
4874.4888955994047137
 20
247.2164569816301025
 30
0.0
 40
0.1384316090014412
 50
117.5799712284200069
 51
147.744774448777008
  0
ARC
  5
E21E
  8
0
 10
4874.5241344406222197
 20
247.2213535743969999
 30
0.0
 40
0.1672013063958065
 50
155.6332590099318054
 51
175.5648189629683884
  0
ARC
  5
E21F
  8
0
 10
4874.4776457704510904
 20
247.2355840146578885
 30
0.0
 40
0.108950425064008
 50
198.192422241821788
 51
221.5541429014820949
  0
ARC
  5
E220
  8
0
 10
4874.4446268483616223
 20
247.2247327842775917
 30
0.0
 40
0.0741941534469695
 50
152.0412261700637941
 51
198.192422241821788
  0
ARC
  5
E221
  8
0
 10
4874.4880616900818495
 20
247.201678142350886
 30
0.0
 40
0.1233683538929919
 50
106.0461722685261066
 51
152.0412261700637941
  0
ARC
  5
E222
  8
0
 10
4874.4940788961366707
 20
247.1807572952087071
 30
0.0
 40
0.1451373367322628
 50
68.7540027997897312
 51
106.0461722685261066
  0
ARC
  5
E223
  8
0
 10
4874.512363304777864
 20
247.2277852999906997
 30
0.0
 40
0.0946799008766993
 50
28.3092983593877285
 51
68.7540027997897312
  0
ARC
  5
E224
  8
0
 10
4874.5274567127389673
 20
247.2359154227426927
 30
0.0
 40
0.0775361014188389
 50
346.3323038312875042
 51
28.3092983593877285
  0
ARC
  5
E225
  8
0
 10
4874.4977131163159356
 20
247.243148366184613
 30
0.0
 40
0.1081465081289044
 50
327.9755421626246061
 51
346.3323038312875042
  0
ARC
  5
E226
  8
0
 10
4874.4878919635357306
 20
247.2222564109439134
 30
0.0
 40
0.0595811846425356
 50
220.1489655096416982
 51
300.7099326844248139
  0
ARC
  5
E227
  8
0
 10
4874.4892862782862721
 20
247.219909044339289
 30
0.0
 40
0.056850938572897
 50
300.7099326844257234
 51
351.512390956585989
  0
ARC
  5
E228
  8
0
 10
4874.5022302607476377
 20
247.2101835675044015
 30
0.0
 40
0.0433048817352876
 50
1.7659721626284011
 51
75.4015763368607281
  0
ARC
  5
E229
  8
0
 10
4874.4939196905497738
 20
247.1924540844827902
 30
0.0
 40
0.0626586010366448
 50
72.1319812549523931
 51
148.969624177778087
  0
ARC
  5
E22A
  8
0
 10
4874.4727190730864095
 20
247.2059270480305031
 30
0.0
 40
0.0375517607630362
 50
149.9097695828928067
 51
216.0280108066417029
  0
ARC
  5
E22B
  8
0
 10
4874.4821016553660229
 20
245.6139783399088969
 30
0.0
 40
0.177882960600706
 50
97.0528380313418353
 51
160.6470656535321098
  0
ARC
  5
E22C
  8
0
 10
4874.4840940129506635
 20
245.5978746766431016
 30
0.0
 40
0.194109403813036
 50
39.3739457143251386
 51
97.0528380313418353
  0
ARC
  5
E22D
  8
0
 10
4874.5529457103848472
 20
245.6543776842584066
 30
0.0
 40
0.1050411933834529
 50
358.082317125933514
 51
39.3739457143251386
  0
ARC
  5
E22E
  8
0
 10
4874.4739965154158199
 20
245.6570210915037933
 30
0.0
 40
0.1840346297445655
 50
322.6823091168911901
 51
358.082317125933514
  0
ARC
  5
E22F
  8
0
 10
4874.4826644323529763
 20
245.6702323773855881
 30
0.0
 40
0.1858199503913451
 50
282.1982907030562728
 51
317.8165442683928745
  0
ARC
  5
E230
  8
0
 10
4874.4787381842215837
 20
245.6774159523507137
 30
0.0
 40
0.1936848272965836
 50
245.0779664027602962
 51
282.884532997165195
  0
ARC
  5
E231
  8
0
 10
4874.4601533667510012
 20
245.6412921728021956
 30
0.0
 40
0.1531021657744578
 50
197.4528249694731983
 51
245.6888122856940129
  0
ARC
  5
E232
  8
0
 10
4874.4871256530941537
 20
245.633769660253904
 30
0.0
 40
0.1772352702222621
 50
167.2363207404374066
 51
192.5116637097858074
  0
ARC
  5
E233
  8
0
 10
4874.4515725450219179
 20
245.6234043701169014
 30
0.0
 40
0.0945769115833745
 50
183.2956216892771977
 51
233.8887731189805947
  0
ARC
  5
E234
  8
0
 10
4874.5094143525311665
 20
245.7026926477209088
 30
0.0
 40
0.1927212219702654
 50
233.8887731189805947
 51
249.5959041745813067
  0
ARC
  5
E235
  8
0
 10
4874.4814874056946792
 20
245.6507638854498907
 30
0.0
 40
0.1345564348014765
 50
253.0344150096827889
 51
320.5905378375387045
  0
ARC
  5
E236
  8
0
 10
4874.5029349949745665
 20
245.6421183905968064
 30
0.0
 40
0.1127103912008994
 50
317.0622136725004907
 51
358.3736838634620767
  0
ARC
  5
E237
  8
0
 10
4874.522459961612185
 20
245.6396517777465931
 30
0.0
 40
0.0931429010610233
 50
359.5495948639940025
 51
60.4324810411329878
  0
ARC
  5
E238
  8
0
 10
4874.4945102875481098
 20
245.5920994428479105
 30
0.0
 40
0.1482968680058802
 50
60.1058994009014924
 51
118.1608143081162012
  0
ARC
  5
E239
  8
0
 10
4874.4886138172087158
 20
245.6001408821844052
 30
0.0
 40
0.1384316090014412
 50
117.5799712284200069
 51
147.744774448777008
  0
ARC
  5
E23A
  8
0
 10
4874.5238526584253123
 20
245.6050374749513878
 30
0.0
 40
0.1672013063958065
 50
155.6332590099318054
 51
175.5648189629683884
  0
ARC
  5
E23B
  8
0
 10
4874.4773639882560019
 20
245.6192679152121912
 30
0.0
 40
0.108950425064008
 50
198.192422241821788
 51
221.5541429014820949
  0
ARC
  5
E23C
  8
0
 10
4874.4443450661656243
 20
245.6084166848320081
 30
0.0
 40
0.0741941534469695
 50
152.0412261700637941
 51
198.192422241821788
  0
ARC
  5
E23D
  8
0
 10
4874.4877799078858516
 20
245.5853620429051887
 30
0.0
 40
0.1233683538929919
 50
106.0461722685261066
 51
152.0412261700637941
  0
ARC
  5
E23E
  8
0
 10
4874.4937971139406727
 20
245.5644411957630098
 30
0.0
 40
0.1451373367322628
 50
68.7540027997897312
 51
106.0461722685261066
  0
ARC
  5
E23F
  8
0
 10
4874.5120815225809565
 20
245.6114692005450024
 30
0.0
 40
0.0946799008766993
 50
28.3092983593877285
 51
68.7540027997897312
  0
ARC
  5
E240
  8
0
 10
4874.5271749305429694
 20
245.6195993232969954
 30
0.0
 40
0.0775361014188389
 50
346.3323038312875042
 51
28.3092983593877285
  0
ARC
  5
E241
  8
0
 10
4874.4974313341208472
 20
245.6268322667388873
 30
0.0
 40
0.1081465081289044
 50
327.9755421626246061
 51
346.3323038312875042
  0
ARC
  5
E242
  8
0
 10
4874.4876101813397327
 20
245.6059403114981876
 30
0.0
 40
0.0595811846425356
 50
220.1489655096416982
 51
300.7099326844248139
  0
ARC
  5
E243
  8
0
 10
4874.4890044960911837
 20
245.6035929448935917
 30
0.0
 40
0.056850938572897
 50
300.7099326844257234
 51
351.512390956585989
  0
ARC
  5
E244
  8
0
 10
4874.5019484785516397
 20
245.5938674680587894
 30
0.0
 40
0.0433048817352876
 50
1.7659721626284011
 51
75.4015763368607281
  0
ARC
  5
E245
  8
0
 10
4874.4936379083537759
 20
245.5761379850370929
 30
0.0
 40
0.0626586010366448
 50
72.1319812549523931
 51
148.969624177778087
  0
ARC
  5
E246
  8
0
 10
4874.4724372908904115
 20
245.5896109485848058
 30
0.0
 40
0.0375517607630362
 50
149.9097695828928067
 51
216.0280108066417029
  0
ARC
  5
E247
  8
0
 10
4873.3717443691339213
 20
245.6121259167838105
 30
0.0
 40
0.177882960600706
 50
97.0528380313418353
 51
160.6470656535321098
  0
ARC
  5
E248
  8
0
 10
4873.3737367267185618
 20
245.5960222535181003
 30
0.0
 40
0.194109403813036
 50
39.3739457143251386
 51
97.0528380313418353
  0
ARC
  5
E249
  8
0
 10
4873.4425884241527456
 20
245.6525252611332917
 30
0.0
 40
0.1050411933834529
 50
358.082317125933514
 51
39.3739457143251386
  0
ARC
  5
E24A
  8
0
 10
4873.3636392291828088
 20
245.6551686683787921
 30
0.0
 40
0.1840346297445655
 50
322.6823091168911901
 51
358.082317125933514
  0
ARC
  5
E24B
  8
0
 10
4873.3723071461190557
 20
245.6683799542605868
 30
0.0
 40
0.1858199503913451
 50
282.1982907030562728
 51
317.8165442683928745
  0
ARC
  5
E24C
  8
0
 10
4873.3683808979885725
 20
245.6755635292255988
 30
0.0
 40
0.1936848272965836
 50
245.0779664027602962
 51
282.884532997165195
  0
ARC
  5
E24D
  8
0
 10
4873.34979608051799
 20
245.6394397496771091
 30
0.0
 40
0.1531021657744578
 50
197.4528249694731983
 51
245.6888122856940129
  0
ARC
  5
E24E
  8
0
 10
4873.3767683668620521
 20
245.6319172371289028
 30
0.0
 40
0.1772352702222621
 50
167.2363207404374066
 51
192.5116637097858074
  0
ARC
  5
E24F
  8
0
 10
4873.3412152587898163
 20
245.6215519469919002
 30
0.0
 40
0.0945769115833745
 50
183.2956216892771977
 51
233.8887731189805947
  0
ARC
  5
E250
  8
0
 10
4873.3990570662990649
 20
245.7008402245957939
 30
0.0
 40
0.1927212219702654
 50
233.8887731189805947
 51
249.5959041745813067
  0
ARC
  5
E251
  8
0
 10
4873.3711301194643966
 20
245.6489114623248895
 30
0.0
 40
0.1345564348014765
 50
253.0344150096827889
 51
320.5905378375387045
  0
ARC
  5
E252
  8
0
 10
4873.3925777087433744
 20
245.6402659674716915
 30
0.0
 40
0.1127103912008994
 50
317.0622136725004907
 51
358.3736838634620767
  0
ARC
  5
E253
  8
0
 10
4873.4121026753809929
 20
245.6377993546215919
 30
0.0
 40
0.0931429010610233
 50
359.5495948639940025
 51
60.4324810411329878
  0
ARC
  5
E254
  8
0
 10
4873.3841530013160082
 20
245.5902470197227956
 30
0.0
 40
0.1482968680058802
 50
60.1058994009014924
 51
118.1608143081162012
  0
ARC
  5
E255
  8
0
 10
4873.3782565309766142
 20
245.598288459059404
 30
0.0
 40
0.1384316090014412
 50
117.5799712284200069
 51
147.744774448777008
  0
ARC
  5
E256
  8
0
 10
4873.4134953721941201
 20
245.6031850518263013
 30
0.0
 40
0.1672013063958065
 50
155.6332590099318054
 51
175.5648189629683884
  0
ARC
  5
E257
  8
0
 10
4873.3670067020239003
 20
245.6174154920871047
 30
0.0
 40
0.108950425064008
 50
198.192422241821788
 51
221.5541429014820949
  0
ARC
  5
E258
  8
0
 10
4873.3339877799344322
 20
245.6065642617068931
 30
0.0
 40
0.0741941534469695
 50
152.0412261700637941
 51
198.192422241821788
  0
ARC
  5
E259
  8
0
 10
4873.37742262165375
 20
245.5835096197801874
 30
0.0
 40
0.1233683538929919
 50
106.0461722685261066
 51
152.0412261700637941
  0
ARC
  5
E25A
  8
0
 10
4873.3834398277076616
 20
245.5625887726378949
 30
0.0
 40
0.1451373367322628
 50
68.7540027997897312
 51
106.0461722685261066
  0
ARC
  5
E25B
  8
0
 10
4873.4017242363497644
 20
245.6096167774198875
 30
0.0
 40
0.0946799008766993
 50
28.3092983593877285
 51
68.7540027997897312
  0
ARC
  5
E25C
  8
0
 10
4873.4168176443117773
 20
245.6177469001719089
 30
0.0
 40
0.0775361014188389
 50
346.3323038312875042
 51
28.3092983593877285
  0
ARC
  5
E25D
  8
0
 10
4873.3870740478887456
 20
245.624979843613886
 30
0.0
 40
0.1081465081289044
 50
327.9755421626246061
 51
346.3323038312875042
  0
ARC
  5
E25E
  8
0
 10
4873.377252895107631
 20
245.6040878883731011
 30
0.0
 40
0.0595811846425356
 50
220.1489655096416982
 51
300.7099326844248139
  0
ARC
  5
E25F
  8
0
 10
4873.3786472098581726
 20
245.6017405217685052
 30
0.0
 40
0.056850938572897
 50
300.7099326844257234
 51
351.512390956585989
  0
ARC
  5
E260
  8
0
 10
4873.3915911923186286
 20
245.5920150449337029
 30
0.0
 40
0.0433048817352876
 50
1.7659721626284011
 51
75.4015763368607281
  0
ARC
  5
E261
  8
0
 10
4873.3832806221225837
 20
245.5742855619120064
 30
0.0
 40
0.0626586010366448
 50
72.1319812549523931
 51
148.969624177778087
  0
ARC
  5
E262
  8
0
 10
4873.3620800046574004
 20
245.5877585254598046
 30
0.0
 40
0.0375517607630362
 50
149.9097695828928067
 51
216.0280108066417029
  0
ARC
  5
E263
  8
0
 10
4872.8192275259698363
 20
246.4287461278867113
 30
0.0
 40
0.177882960600706
 50
97.0528380313418353
 51
160.6470656535321098
  0
ARC
  5
E264
  8
0
 10
4872.8212198835535673
 20
246.4126424646208875
 30
0.0
 40
0.194109403813036
 50
39.3739457143251386
 51
97.0528380313418353
  0
ARC
  5
E265
  8
0
 10
4872.8900715809886606
 20
246.4691454722361925
 30
0.0
 40
0.1050411933834529
 50
358.082317125933514
 51
39.3739457143251386
  0
ARC
  5
E266
  8
0
 10
4872.8111223860187238
 20
246.4717888794816076
 30
0.0
 40
0.1840346297445655
 50
322.6823091168911901
 51
358.082317125933514
  0
ARC
  5
E267
  8
0
 10
4872.8197903029558802
 20
246.4850001653634877
 30
0.0
 40
0.1858199503913451
 50
282.1982907030562728
 51
317.8165442683928745
  0
ARC
  5
E268
  8
0
 10
4872.815864054825397
 20
246.4921837403284997
 30
0.0
 40
0.1936848272965836
 50
245.0779664027602962
 51
282.884532997165195
  0
ARC
  5
E269
  8
0
 10
4872.7972792373548145
 20
246.45605996078001
 30
0.0
 40
0.1531021657744578
 50
197.4528249694731983
 51
245.6888122856940129
  0
ARC
  5
E26A
  8
0
 10
4872.8242515236979671
 20
246.44853744823169
 30
0.0
 40
0.1772352702222621
 50
167.2363207404374066
 51
192.5116637097858074
  0
ARC
  5
E26B
  8
0
 10
4872.7886984156248218
 20
246.4381721580946873
 30
0.0
 40
0.0945769115833745
 50
183.2956216892771977
 51
233.8887731189805947
  0
ARC
  5
E26C
  8
0
 10
4872.8465402231340704
 20
246.5174604356986947
 30
0.0
 40
0.1927212219702654
 50
233.8887731189805947
 51
249.5959041745813067
  0
ARC
  5
E26D
  8
0
 10
4872.8186132762994021
 20
246.4655316734277051
 30
0.0
 40
0.1345564348014765
 50
253.0344150096827889
 51
320.5905378375387045
  0
ARC
  5
E26E
  8
0
 10
4872.8400608655801989
 20
246.4568861785745923
 30
0.0
 40
0.1127103912008994
 50
317.0622136725004907
 51
358.3736838634620767
  0
ARC
  5
E26F
  8
0
 10
4872.8595858322159984
 20
246.4544195657244927
 30
0.0
 40
0.0931429010610233
 50
359.5495948639940025
 51
60.4324810411329878
  0
ARC
  5
E270
  8
0
 10
4872.8316361581519232
 20
246.4068672308256964
 30
0.0
 40
0.1482968680058802
 50
60.1058994009014924
 51
118.1608143081162012
  0
ARC
  5
E271
  8
0
 10
4872.8257396878134386
 20
246.4149086701623048
 30
0.0
 40
0.1384316090014412
 50
117.5799712284200069
 51
147.744774448777008
  0
ARC
  5
E272
  8
0
 10
4872.8609785290282161
 20
246.4198052629292022
 30
0.0
 40
0.1672013063958065
 50
155.6332590099318054
 51
175.5648189629683884
  0
ARC
  5
E273
  8
0
 10
4872.8144898588598153
 20
246.4340357031900055
 30
0.0
 40
0.108950425064008
 50
198.192422241821788
 51
221.5541429014820949
  0
ARC
  5
E274
  8
0
 10
4872.7814709367712567
 20
246.4231844728097087
 30
0.0
 40
0.0741941534469695
 50
152.0412261700637941
 51
198.192422241821788
  0
ARC
  5
E275
  8
0
 10
4872.824905778489665
 20
246.4001298308830883
 30
0.0
 40
0.1233683538929919
 50
106.0461722685261066
 51
152.0412261700637941
  0
ARC
  5
E276
  8
0
 10
4872.8309229845435766
 20
246.3792089837407957
 30
0.0
 40
0.1451373367322628
 50
68.7540027997897312
 51
106.0461722685261066
  0
ARC
  5
E277
  8
0
 10
4872.8492073931838604
 20
246.4262369885227884
 30
0.0
 40
0.0946799008766993
 50
28.3092983593877285
 51
68.7540027997897312
  0
ARC
  5
E278
  8
0
 10
4872.8643008011467828
 20
246.4343671112748098
 30
0.0
 40
0.0775361014188389
 50
346.3323038312875042
 51
28.3092983593877285
  0
ARC
  5
E279
  8
0
 10
4872.8345572047246606
 20
246.4416000547167869
 30
0.0
 40
0.1081465081289044
 50
327.9755421626246061
 51
346.3323038312875042
  0
ARC
  5
E27A
  8
0
 10
4872.824736051943546
 20
246.420708099476002
 30
0.0
 40
0.0595811846425356
 50
220.1489655096416982
 51
300.7099326844248139
  0
ARC
  5
E27B
  8
0
 10
4872.8261303666940876
 20
246.4183607328714061
 30
0.0
 40
0.056850938572897
 50
300.7099326844257234
 51
351.512390956585989
  0
ARC
  5
E27C
  8
0
 10
4872.8390743491563626
 20
246.4086352560364901
 30
0.0
 40
0.0433048817352876
 50
1.7659721626284011
 51
75.4015763368607281
  0
ARC
  5
E27D
  8
0
 10
4872.8307637789575892
 20
246.3909057730149073
 30
0.0
 40
0.0626586010366448
 50
72.1319812549523931
 51
148.969624177778087
  0
ARC
  5
E27E
  8
0
 10
4872.8095631614924059
 20
246.4043787365627054
 30
0.0
 40
0.0375517607630362
 50
149.9097695828928067
 51
216.0280108066417029
  0
ARC
  5
E27F
  8
0
 10
4873.3710161010640149
 20
247.2303545927979087
 30
0.0
 40
0.177882960600706
 50
97.0528380313418353
 51
160.6470656535321098
  0
ARC
  5
E280
  8
0
 10
4873.3730084586486555
 20
247.2142509295321133
 30
0.0
 40
0.194109403813036
 50
39.3739457143251386
 51
97.0528380313418353
  0
ARC
  5
E281
  8
0
 10
4873.4418601560828392
 20
247.2707539371473899
 30
0.0
 40
0.1050411933834529
 50
358.082317125933514
 51
39.3739457143251386
  0
ARC
  5
E282
  8
0
 10
4873.3629109611129024
 20
247.2733973443928903
 30
0.0
 40
0.1840346297445655
 50
322.6823091168911901
 51
358.082317125933514
  0
ARC
  5
E283
  8
0
 10
4873.3715788780500588
 20
247.2866086302747135
 30
0.0
 40
0.1858199503913451
 50
282.1982907030562728
 51
317.8165442683928745
  0
ARC
  5
E284
  8
0
 10
4873.3676526299186662
 20
247.2937922052396971
 30
0.0
 40
0.1936848272965836
 50
245.0779664027602962
 51
282.884532997165195
  0
ARC
  5
E285
  8
0
 10
4873.3490678124489932
 20
247.2576684256912074
 30
0.0
 40
0.1531021657744578
 50
197.4528249694731983
 51
245.6888122856940129
  0
ARC
  5
E286
  8
0
 10
4873.3760400987930552
 20
247.2501459131430011
 30
0.0
 40
0.1772352702222621
 50
167.2363207404374066
 51
192.5116637097858074
  0
ARC
  5
E287
  8
0
 10
4873.34048699071991
 20
247.2397806230059985
 30
0.0
 40
0.0945769115833745
 50
183.2956216892771977
 51
233.8887731189805947
  0
ARC
  5
E288
  8
0
 10
4873.3983287982291586
 20
247.3190689006098921
 30
0.0
 40
0.1927212219702654
 50
233.8887731189805947
 51
249.5959041745813067
  0
ARC
  5
E289
  8
0
 10
4873.3704018513935807
 20
247.2671401383389878
 30
0.0
 40
0.1345564348014765
 50
253.0344150096827889
 51
320.5905378375387045
  0
ARC
  5
E28A
  8
0
 10
4873.3918494406743775
 20
247.2584946434857898
 30
0.0
 40
0.1127103912008994
 50
317.0622136725004907
 51
358.3736838634620767
  0
ARC
  5
E28B
  8
0
 10
4873.4113744073110865
 20
247.2560280306356901
 30
0.0
 40
0.0931429010610233
 50
359.5495948639940025
 51
60.4324810411329878
  0
ARC
  5
E28C
  8
0
 10
4873.3834247332461018
 20
247.2084756957368938
 30
0.0
 40
0.1482968680058802
 50
60.1058994009014924
 51
118.1608143081162012
  0
ARC
  5
E28D
  8
0
 10
4873.3775282629094363
 20
247.2165171350735022
 30
0.0
 40
0.1384316090014412
 50
117.5799712284200069
 51
147.744774448777008
  0
ARC
  5
E28E
  8
0
 10
4873.4127671041242138
 20
247.2214137278403996
 30
0.0
 40
0.1672013063958065
 50
155.6332590099318054
 51
175.5648189629683884
  0
ARC
  5
E28F
  8
0
 10
4873.366278433953994
 20
247.2356441681012029
 30
0.0
 40
0.108950425064008
 50
198.192422241821788
 51
221.5541429014820949
  0
ARC
  5
E290
  8
0
 10
4873.3332595118654353
 20
247.2247929377209914
 30
0.0
 40
0.0741941534469695
 50
152.0412261700637941
 51
198.192422241821788
  0
ARC
  5
E291
  8
0
 10
4873.3766943535838436
 20
247.2017382957943141
 30
0.0
 40
0.1233683538929919
 50
106.0461722685261066
 51
152.0412261700637941
  0
ARC
  5
E292
  8
0
 10
4873.3827115596386648
 20
247.1808174486521068
 30
0.0
 40
0.1451373367322628
 50
68.7540027997897312
 51
106.0461722685261066
  0
ARC
  5
E293
  8
0
 10
4873.4009959682798581
 20
247.2278454534340995
 30
0.0
 40
0.0946799008766993
 50
28.3092983593877285
 51
68.7540027997897312
  0
ARC
  5
E294
  8
0
 10
4873.4160893762409614
 20
247.2359755761860924
 30
0.0
 40
0.0775361014188389
 50
346.3323038312875042
 51
28.3092983593877285
  0
ARC
  5
E295
  8
0
 10
4873.3863457798179297
 20
247.2432085196280127
 30
0.0
 40
0.1081465081289044
 50
327.9755421626246061
 51
346.3323038312875042
  0
ARC
  5
E296
  8
0
 10
4873.3765246270377247
 20
247.2223165643871994
 30
0.0
 40
0.0595811846425356
 50
220.1489655096416982
 51
300.7099326844248139
  0
ARC
  5
E297
  8
0
 10
4873.3779189417882662
 20
247.2199691977826035
 30
0.0
 40
0.056850938572897
 50
300.7099326844257234
 51
351.512390956585989
  0
ARC
  5
E298
  8
0
 10
4873.3908629242487223
 20
247.2102437209478012
 30
0.0
 40
0.0433048817352876
 50
1.7659721626284011
 51
75.4015763368607281
  0
ARC
  5
E299
  8
0
 10
4873.3825523540526774
 20
247.1925142379261047
 30
0.0
 40
0.0626586010366448
 50
72.1319812549523931
 51
148.969624177778087
  0
ARC
  5
E29A
  8
0
 10
4873.3613517365865846
 20
247.2059872014739028
 30
0.0
 40
0.0375517607630362
 50
149.9097695828928067
 51
216.0280108066417029
  0
ARC
  5
E29B
  8
0
 10
4873.4575470796853551
 20
246.1808635623742134
 30
0.0
 40
0.1615246148499113
 50
84.0896544954623266
 51
126.5142130468795045
  0
ARC
  5
E29C
  8
0
 10
4873.4210149996988548
 20
246.2302082303600059
 30
0.0
 40
0.1001284494426123
 50
126.5142130468795045
 51
153.4264048516037917
  0
ARC
  5
E29D
  8
0
 10
4873.4230028334259259
 20
246.2292139429353028
 30
0.0
 40
0.1023510808586421
 50
153.4264048516037917
 51
204.9432064790354957
  0
ARC
  5
E29E
  8
0
 10
4873.4459424394390226
 20
246.2398831868310936
 30
0.0
 40
0.1276504541573414
 50
204.9432064790354957
 51
246.9691094401746909
  0
ARC
  5
E29F
  8
0
 10
4873.4714107513018462
 20
246.2997929448276011
 30
0.0
 40
0.1927489488582302
 50
246.9691094401746909
 51
287.1251286389576762
  0
ARC
  5
E2A0
  8
0
 10
4873.49427331523475
 20
246.2255928273823997
 30
0.0
 40
0.1151064717052715
 50
287.1251286389576762
 51
338.0566292607165906
  0
ARC
  5
E2A1
  8
0
 10
4873.5075469192306628
 20
246.2202451979026989
 30
0.0
 40
0.100796136135264
 50
338.0566292607165906
 51
31.1976469621229313
  0
ARC
  5
E2A2
  8
0
 10
4873.4792457425483008
 20
246.203106984602897
 30
0.0
 40
0.1338820085999631
 50
31.1976469621229313
 51
63.9984721503990883
  0
ARC
  5
E2A3
  8
0
 10
4873.4555831063153164
 20
246.1545946739535964
 30
0.0
 40
0.1878576015845608
 50
63.9984721503990883
 51
84.318838205239004
  0
ARC
  5
E2A4
  8
0
 10
4873.4608374322533564
 20
246.2635751684576064
 30
0.0
 40
0.0933689128342034
 50
134.8315354248157973
 51
252.6955893336630936
  0
ARC
  5
E2A5
  8
0
 10
4873.4608374322533564
 20
246.2635751684576064
 30
0.0
 40
0.0933689128342034
 50
317.8158279364943724
 51
43.2892718396965321
  0
ARC
  5
E2A6
  8
0
 10
4873.461500006006645
 20
246.2907815415732102
 30
0.0
 40
0.1454744011224272
 50
197.0459658415238948
 51
345.5358593766173954
  0
ARC
  5
E2A7
  8
0
 10
4873.4588100425144148
 20
246.6440146672557034
 30
0.0
 40
0.053340073914535
 50
86.5436946793946191
 51
198.4023246923673014
  0
ARC
  5
E2A8
  8
0
 10
4873.457151201941997
 20
246.6434627696897905
 30
0.0
 40
0.051591833952649
 50
198.4023246923673014
 51
275.4215915704174904
  0
ARC
  5
E2A9
  8
0
 10
4873.4634761533852725
 20
246.6484596376292018
 30
0.0
 40
0.0563765618802766
 50
268.525813511788499
 51
343.7903755362668221
  0
ARC
  5
E2AA
  8
0
 10
4873.4645638589572627
 20
246.6432374268100887
 30
0.0
 40
0.0540798839809999
 50
348.7878264914724014
 51
92.6900029226423641
  0
ARC
  5
E2AB
  8
0
 10
4873.4605555348225607
 20
246.654794644458093
 30
0.0
 40
0.087455636302521
 50
211.7766659779072995
 51
270.9632640099114838
  0
ARC
  5
E2AC
  8
0
 10
4873.4522208724729353
 20
246.6496316329026115
 30
0.0
 40
0.0776513879982672
 50
169.6510366562768866
 51
211.7766659779072995
  0
ARC
  5
E2AD
  8
0
 10
4873.4602353167001638
 20
246.639626852323488
 30
0.0
 40
0.0877360013887729
 50
95.5539989263951952
 51
164.1555240633765038
  0
ARC
  5
E2AE
  8
0
 10
4873.4633576010137404
 20
246.6547506836521961
 30
0.0
 40
0.087409462993095
 50
269.1269752902226173
 51
331.0644360775818882
  0
ARC
  5
E2AF
  8
0
 10
4873.4867133993411699
 20
246.6448499753184933
 30
0.0
 40
0.0622349069558286
 50
328.6374736489722181
 51
6.9540997524239421
  0
ARC
  5
E2B0
  8
0
 10
4873.4688599995915865
 20
246.6457691797002099
 30
0.0
 40
0.0799048281514303
 50
4.7493232466011301
 51
64.1234310398423446
  0
ARC
  5
E2B1
  8
0
 10
4873.4620460254500358
 20
246.6344732675071896
 30
0.0
 40
0.0930497691628509
 50
63.3839751870489394
 51
96.3566142337626559
  0
ARC
  5
E2B2
  8
0
 10
4873.4575470796853551
 20
246.5782032377842938
 30
0.0
 40
0.1615246148499113
 50
84.0896544954623266
 51
126.5142130468795045
  0
ARC
  5
E2B3
  8
0
 10
4873.4210149996988548
 20
246.6275479057700863
 30
0.0
 40
0.1001284494426123
 50
126.5142130468795045
 51
153.4264048516037917
  0
ARC
  5
E2B4
  8
0
 10
4873.4230028334259259
 20
246.6265536183454117
 30
0.0
 40
0.1023510808586421
 50
153.4264048516037917
 51
204.9432064790354957
  0
ARC
  5
E2B5
  8
0
 10
4873.4459424394390226
 20
246.6372228622412877
 30
0.0
 40
0.1276504541573414
 50
204.9432064790354957
 51
246.9691094401746909
  0
ARC
  5
E2B6
  8
0
 10
4873.4714107513018462
 20
246.6971326202377099
 30
0.0
 40
0.1927489488582302
 50
246.9691094401746909
 51
287.1251286389576762
  0
ARC
  5
E2B7
  8
0
 10
4873.49427331523475
 20
246.6229325027925086
 30
0.0
 40
0.1151064717052715
 50
287.1251286389576762
 51
338.0566292607165906
  0
ARC
  5
E2B8
  8
0
 10
4873.5075469192306628
 20
246.6175848733128078
 30
0.0
 40
0.100796136135264
 50
338.0566292607165906
 51
31.1976469621229313
  0
ARC
  5
E2B9
  8
0
 10
4873.4792457425483008
 20
246.6004466600128922
 30
0.0
 40
0.1338820085999631
 50
31.1976469621229313
 51
63.9984721503990883
  0
ARC
  5
E2BA
  8
0
 10
4873.4555831063153164
 20
246.5519343493637052
 30
0.0
 40
0.1878576015845608
 50
63.9984721503990883
 51
84.318838205239004
  0
ARC
  5
E2BB
  8
0
 10
4873.4608374322533564
 20
246.6609148438676016
 30
0.0
 40
0.0933689128342034
 50
134.8315354248157973
 51
252.6955893336630936
  0
ARC
  5
E2BC
  8
0
 10
4873.4608374322533564
 20
246.6609148438676016
 30
0.0
 40
0.0933689128342034
 50
317.8158279364943724
 51
43.2892718396965321
  0
ARC
  5
E2BD
  8
0
 10
4873.461500006006645
 20
246.6881212169832907
 30
0.0
 40
0.1454744011224272
 50
197.0459658415238948
 51
345.5358593766173954
  0
ARC
  5
E2BE
  8
0
 10
4873.9265918043338388
 20
246.2466749918455093
 30
0.0
 40
0.053340073914535
 50
86.5436946793946191
 51
198.4023246923673014
  0
ARC
  5
E2BF
  8
0
 10
4873.9249329637623305
 20
246.2461230942797954
 30
0.0
 40
0.051591833952649
 50
198.4023246923673014
 51
275.4215915704174904
  0
ARC
  5
E2C0
  8
0
 10
4873.9312579152046965
 20
246.2511199622190929
 30
0.0
 40
0.0563765618802766
 50
268.525813511788499
 51
343.7903755362668221
  0
ARC
  5
E2C1
  8
0
 10
4873.9323456207775962
 20
246.2458977514000082
 30
0.0
 40
0.0540798839809999
 50
348.7878264914724014
 51
92.6900029226423641
  0
ARC
  5
E2C2
  8
0
 10
4873.9283372966438037
 20
246.2574549690478989
 30
0.0
 40
0.087455636302521
 50
211.7766659779072995
 51
270.9632640099114838
  0
ARC
  5
E2C3
  8
0
 10
4873.9200026342932688
 20
246.2522919574925027
 30
0.0
 40
0.0776513879982672
 50
169.6510366562768866
 51
211.7766659779072995
  0
ARC
  5
E2C4
  8
0
 10
4873.9280170785214068
 20
246.2422871769132939
 30
0.0
 40
0.0877360013887729
 50
95.5539989263951952
 51
164.1555240633765038
  0
ARC
  5
E2C5
  8
0
 10
4873.9311393628340738
 20
246.2574110082420873
 30
0.0
 40
0.087409462993095
 50
269.1269752902226173
 51
331.0644360775818882
  0
ARC
  5
E2C6
  8
0
 10
4873.9544951611605939
 20
246.2475102999084129
 30
0.0
 40
0.0622349069558286
 50
328.6374736489722181
 51
6.9540997524239421
  0
ARC
  5
E2C7
  8
0
 10
4873.93664176141192
 20
246.2484295042901863
 30
0.0
 40
0.0799048281514303
 50
4.7493232466011301
 51
64.1234310398423446
  0
ARC
  5
E2C8
  8
0
 10
4873.9298277872721883
 20
246.2371335920971092
 30
0.0
 40
0.0930497691628509
 50
63.3839751870489394
 51
96.3566142337626559
  0
ARC
  5
E2C9
  8
0
 10
4873.9253288415047791
 20
246.1808635623742134
 30
0.0
 40
0.1615246148499113
 50
84.0896544954623266
 51
126.5142130468795045
  0
ARC
  5
E2CA
  8
0
 10
4873.8887967615191883
 20
246.2302082303600059
 30
0.0
 40
0.1001284494426123
 50
126.5142130468795045
 51
153.4264048516037917
  0
ARC
  5
E2CB
  8
0
 10
4873.8907845952471689
 20
246.2292139429353028
 30
0.0
 40
0.1023510808586421
 50
153.4264048516037917
 51
204.9432064790354957
  0
ARC
  5
E2CC
  8
0
 10
4873.9137242012593561
 20
246.2398831868310936
 30
0.0
 40
0.1276504541573414
 50
204.9432064790354957
 51
246.9691094401746909
  0
ARC
  5
E2CD
  8
0
 10
4873.9391925131221797
 20
246.2997929448276011
 30
0.0
 40
0.1927489488582302
 50
246.9691094401746909
 51
287.1251286389576762
  0
ARC
  5
E2CE
  8
0
 10
4873.9620550770550835
 20
246.2255928273823997
 30
0.0
 40
0.1151064717052715
 50
287.1251286389576762
 51
338.0566292607165906
  0
ARC
  5
E2CF
  8
0
 10
4873.9753286810509962
 20
246.2202451979026989
 30
0.0
 40
0.100796136135264
 50
338.0566292607165906
 51
31.1976469621229313
  0
ARC
  5
E2D0
  8
0
 10
4873.9470275043686343
 20
246.203106984602897
 30
0.0
 40
0.1338820085999631
 50
31.1976469621229313
 51
63.9984721503990883
  0
ARC
  5
E2D1
  8
0
 10
4873.9233648681356499
 20
246.1545946739535964
 30
0.0
 40
0.1878576015845608
 50
63.9984721503990883
 51
84.318838205239004
  0
ARC
  5
E2D2
  8
0
 10
4873.9286191940736899
 20
246.2635751684576064
 30
0.0
 40
0.0933689128342034
 50
134.8315354248157973
 51
252.6955893336630936
  0
ARC
  5
E2D3
  8
0
 10
4873.9286191940736899
 20
246.2635751684576064
 30
0.0
 40
0.0933689128342034
 50
317.8158279364943724
 51
43.2892718396965321
  0
ARC
  5
E2D4
  8
0
 10
4873.9292817678287975
 20
246.2907815415732102
 30
0.0
 40
0.1454744011224272
 50
197.0459658415238948
 51
345.5358593766173954
  0
ARC
  5
E2D5
  8
0
 10
4873.9265918043338388
 20
246.6440146672557034
 30
0.0
 40
0.053340073914535
 50
86.5436946793946191
 51
198.4023246923673014
  0
ARC
  5
E2D6
  8
0
 10
4873.9249329637623305
 20
246.6434627696897905
 30
0.0
 40
0.051591833952649
 50
198.4023246923673014
 51
275.4215915704174904
  0
ARC
  5
E2D7
  8
0
 10
4873.9312579152046965
 20
246.6484596376292018
 30
0.0
 40
0.0563765618802766
 50
268.525813511788499
 51
343.7903755362668221
  0
ARC
  5
E2D8
  8
0
 10
4873.9323456207775962
 20
246.6432374268100887
 30
0.0
 40
0.0540798839809999
 50
348.7878264914724014
 51
92.6900029226423641
  0
ARC
  5
E2D9
  8
0
 10
4873.9283372966438037
 20
246.654794644458093
 30
0.0
 40
0.087455636302521
 50
211.7766659779072995
 51
270.9632640099114838
  0
ARC
  5
E2DA
  8
0
 10
4873.9200026342932688
 20
246.6496316329026115
 30
0.0
 40
0.0776513879982672
 50
169.6510366562768866
 51
211.7766659779072995
  0
ARC
  5
E2DB
  8
0
 10
4873.9280170785214068
 20
246.639626852323488
 30
0.0
 40
0.0877360013887729
 50
95.5539989263951952
 51
164.1555240633765038
  0
ARC
  5
E2DC
  8
0
 10
4873.9311393628340738
 20
246.6547506836521961
 30
0.0
 40
0.087409462993095
 50
269.1269752902226173
 51
331.0644360775818882
  0
ARC
  5
E2DD
  8
0
 10
4873.9544951611605939
 20
246.6448499753184933
 30
0.0
 40
0.0622349069558286
 50
328.6374736489722181
 51
6.9540997524239421
  0
ARC
  5
E2DE
  8
0
 10
4873.93664176141192
 20
246.6457691797002099
 30
0.0
 40
0.0799048281514303
 50
4.7493232466011301
 51
64.1234310398423446
  0
ARC
  5
E2DF
  8
0
 10
4873.9298277872721883
 20
246.6344732675071896
 30
0.0
 40
0.0930497691628509
 50
63.3839751870489394
 51
96.3566142337626559
  0
ARC
  5
E2E0
  8
0
 10
4873.9253288415047791
 20
246.5782032377842938
 30
0.0
 40
0.1615246148499113
 50
84.0896544954623266
 51
126.5142130468795045
  0
ARC
  5
E2E1
  8
0
 10
4873.8887967615191883
 20
246.6275479057700863
 30
0.0
 40
0.1001284494426123
 50
126.5142130468795045
 51
153.4264048516037917
  0
ARC
  5
E2E2
  8
0
 10
4873.8907845952471689
 20
246.6265536183454117
 30
0.0
 40
0.1023510808586421
 50
153.4264048516037917
 51
204.9432064790354957
  0
ARC
  5
E2E3
  8
0
 10
4873.9137242012593561
 20
246.6372228622412877
 30
0.0
 40
0.1276504541573414
 50
204.9432064790354957
 51
246.9691094401746909
  0
ARC
  5
E2E4
  8
0
 10
4873.9391925131221797
 20
246.6971326202377099
 30
0.0
 40
0.1927489488582302
 50
246.9691094401746909
 51
287.1251286389576762
  0
ARC
  5
E2E5
  8
0
 10
4873.9620550770550835
 20
246.6229325027925086
 30
0.0
 40
0.1151064717052715
 50
287.1251286389576762
 51
338.0566292607165906
  0
ARC
  5
E2E6
  8
0
 10
4873.9753286810509962
 20
246.6175848733128078
 30
0.0
 40
0.100796136135264
 50
338.0566292607165906
 51
31.1976469621229313
  0
ARC
  5
E2E7
  8
0
 10
4873.9470275043686343
 20
246.6004466600128922
 30
0.0
 40
0.1338820085999631
 50
31.1976469621229313
 51
63.9984721503990883
  0
ARC
  5
E2E8
  8
0
 10
4873.9233648681356499
 20
246.5519343493637052
 30
0.0
 40
0.1878576015845608
 50
63.9984721503990883
 51
84.318838205239004
  0
ARC
  5
E2E9
  8
0
 10
4873.9286191940736899
 20
246.6609148438676016
 30
0.0
 40
0.0933689128342034
 50
134.8315354248157973
 51
252.6955893336630936
  0
ARC
  5
E2EA
  8
0
 10
4873.9286191940736899
 20
246.6609148438676016
 30
0.0
 40
0.0933689128342034
 50
317.8158279364943724
 51
43.2892718396965321
  0
ARC
  5
E2EB
  8
0
 10
4873.9292817678287975
 20
246.6881212169832907
 30
0.0
 40
0.1454744011224272
 50
197.0459658415238948
 51
345.5358593766173954
  0
ARC
  5
E2EC
  8
0
 10
4874.4046596084990597
 20
246.2466749918455093
 30
0.0
 40
0.053340073914535
 50
86.5436946793946191
 51
198.4023246923673014
  0
ARC
  5
E2ED
  8
0
 10
4874.4030007679266419
 20
246.2461230942797954
 30
0.0
 40
0.051591833952649
 50
198.4023246923673014
 51
275.4215915704174904
  0
ARC
  5
E2EE
  8
0
 10
4874.4093257193690079
 20
246.2511199622190929
 30
0.0
 40
0.0563765618802766
 50
268.525813511788499
 51
343.7903755362668221
  0
ARC
  5
E2EF
  8
0
 10
4874.4104134249428171
 20
246.2458977514000082
 30
0.0
 40
0.0540798839809999
 50
348.7878264914724014
 51
92.6900029226423641
  0
ARC
  5
E2F0
  8
0
 10
4874.4064051008090246
 20
246.2574549690478989
 30
0.0
 40
0.087455636302521
 50
211.7766659779072995
 51
270.9632640099114838
  0
ARC
  5
E2F1
  8
0
 10
4874.3980704384575802
 20
246.2522919574925027
 30
0.0
 40
0.0776513879982672
 50
169.6510366562768866
 51
211.7766659779072995
  0
ARC
  5
E2F2
  8
0
 10
4874.4060848826866277
 20
246.2422871769132939
 30
0.0
 40
0.0877360013887729
 50
95.5539989263951952
 51
164.1555240633765038
  0
ARC
  5
E2F3
  8
0
 10
4874.4092071670002042
 20
246.2574110082420873
 30
0.0
 40
0.087409462993095
 50
269.1269752902226173
 51
331.0644360775818882
  0
ARC
  5
E2F4
  8
0
 10
4874.4325629653267242
 20
246.2475102999084129
 30
0.0
 40
0.0622349069558286
 50
328.6374736489722181
 51
6.9540997524239421
  0
ARC
  5
E2F5
  8
0
 10
4874.4147095655771409
 20
246.2484295042901863
 30
0.0
 40
0.0799048281514303
 50
4.7493232466011301
 51
64.1234310398423446
  0
ARC
  5
E2F6
  8
0
 10
4874.4078955914374092
 20
246.2371335920971092
 30
0.0
 40
0.0930497691628509
 50
63.3839751870489394
 51
96.3566142337626559
  0
ARC
  5
E2F7
  8
0
 10
4874.4033966456709095
 20
246.1808635623742134
 30
0.0
 40
0.1615246148499113
 50
84.0896544954623266
 51
126.5142130468795045
  0
ARC
  5
E2F8
  8
0
 10
4874.3668645656853187
 20
246.2302082303600059
 30
0.0
 40
0.1001284494426123
 50
126.5142130468795045
 51
153.4264048516037917
  0
ARC
  5
E2F9
  8
0
 10
4874.3688523994123898
 20
246.2292139429353028
 30
0.0
 40
0.1023510808586421
 50
153.4264048516037917
 51
204.9432064790354957
  0
ARC
  5
E2FA
  8
0
 10
4874.3917920054236674
 20
246.2398831868310936
 30
0.0
 40
0.1276504541573414
 50
204.9432064790354957
 51
246.9691094401746909
  0
ARC
  5
E2FB
  8
0
 10
4874.4172603172874005
 20
246.2997929448276011
 30
0.0
 40
0.1927489488582302
 50
246.9691094401746909
 51
287.1251286389576762
  0
ARC
  5
E2FC
  8
0
 10
4874.4401228812203044
 20
246.2255928273823997
 30
0.0
 40
0.1151064717052715
 50
287.1251286389576762
 51
338.0566292607165906
  0
ARC
  5
E2FD
  8
0
 10
4874.4533964852171266
 20
246.2202451979026989
 30
0.0
 40
0.100796136135264
 50
338.0566292607165906
 51
31.1976469621229313
  0
ARC
  5
E2FE
  8
0
 10
4874.4250953085338551
 20
246.203106984602897
 30
0.0
 40
0.1338820085999631
 50
31.1976469621229313
 51
63.9984721503990883
  0
ARC
  5
E2FF
  8
0
 10
4874.4014326723008708
 20
246.1545946739535964
 30
0.0
 40
0.1878576015845608
 50
63.9984721503990883
 51
84.318838205239004
  0
ARC
  5
E300
  8
0
 10
4874.4066869982398202
 20
246.2635751684576064
 30
0.0
 40
0.0933689128342034
 50
134.8315354248157973
 51
252.6955893336630936
  0
ARC
  5
E301
  8
0
 10
4874.4066869982398202
 20
246.2635751684576064
 30
0.0
 40
0.0933689128342034
 50
317.8158279364943724
 51
43.2892718396965321
  0
ARC
  5
E302
  8
0
 10
4874.4073495719940183
 20
246.2907815415732102
 30
0.0
 40
0.1454744011224272
 50
197.0459658415238948
 51
345.5358593766173954
  0
ARC
  5
E303
  8
0
 10
4874.4046596084990597
 20
246.6440146672557034
 30
0.0
 40
0.053340073914535
 50
86.5436946793946191
 51
198.4023246923673014
  0
ARC
  5
E304
  8
0
 10
4874.4030007679266419
 20
246.6434627696897905
 30
0.0
 40
0.051591833952649
 50
198.4023246923673014
 51
275.4215915704174904
  0
ARC
  5
E305
  8
0
 10
4874.4093257193690079
 20
246.6484596376292018
 30
0.0
 40
0.0563765618802766
 50
268.525813511788499
 51
343.7903755362668221
  0
ARC
  5
E306
  8
0
 10
4874.4104134249428171
 20
246.6432374268100887
 30
0.0
 40
0.0540798839809999
 50
348.7878264914724014
 51
92.6900029226423641
  0
ARC
  5
E307
  8
0
 10
4874.4064051008090246
 20
246.654794644458093
 30
0.0
 40
0.087455636302521
 50
211.7766659779072995
 51
270.9632640099114838
  0
ARC
  5
E308
  8
0
 10
4874.3980704384575802
 20
246.6496316329026115
 30
0.0
 40
0.0776513879982672
 50
169.6510366562768866
 51
211.7766659779072995
  0
ARC
  5
E309
  8
0
 10
4874.4060848826866277
 20
246.639626852323488
 30
0.0
 40
0.0877360013887729
 50
95.5539989263951952
 51
164.1555240633765038
  0
ARC
  5
E30A
  8
0
 10
4874.4092071670002042
 20
246.6547506836521961
 30
0.0
 40
0.087409462993095
 50
269.1269752902226173
 51
331.0644360775818882
  0
ARC
  5
E30B
  8
0
 10
4874.4147095655771409
 20
246.6457691797002099
 30
0.0
 40
0.0799048281514303
 50
4.7493232466011301
 51
64.1234310398423446
  0
ARC
  5
E30C
  8
0
 10
4874.4325629653267242
 20
246.6448499753184933
 30
0.0
 40
0.0622349069558286
 50
328.6374736489722181
 51
6.9540997524239421
  0
ARC
  5
E30D
  8
0
 10
4874.4033966456709095
 20
246.5782032377842938
 30
0.0
 40
0.1615246148499113
 50
84.0896544954623266
 51
126.5142130468795045
  0
ARC
  5
E30E
  8
0
 10
4874.4014326723008708
 20
246.5519343493637052
 30
0.0
 40
0.1878576015845608
 50
63.9984721503990883
 51
84.318838205239004
  0
ARC
  5
E30F
  8
0
 10
4874.4078955914374092
 20
246.6344732675071896
 30
0.0
 40
0.0930497691628509
 50
63.3839751870489394
 51
96.3566142337626559
  0
ARC
  5
E310
  8
0
 10
4874.4066869982398202
 20
246.6609148438676016
 30
0.0
 40
0.0933689128342034
 50
134.8315354248157973
 51
252.6955893336630936
  0
ARC
  5
E311
  8
0
 10
4874.3668645656853187
 20
246.6275479057700863
 30
0.0
 40
0.1001284494426123
 50
126.5142130468795045
 51
153.4264048516037917
  0
ARC
  5
E312
  8
0
 10
4874.3688523994123898
 20
246.6265536183454117
 30
0.0
 40
0.1023510808586421
 50
153.4264048516037917
 51
204.9432064790354957
  0
ARC
  5
E313
  8
0
 10
4874.3917920054236674
 20
246.6372228622412877
 30
0.0
 40
0.1276504541573414
 50
204.9432064790354957
 51
246.9691094401746909
  0
ARC
  5
E314
  8
0
 10
4874.4172603172874005
 20
246.6971326202377099
 30
0.0
 40
0.1927489488582302
 50
246.9691094401746909
 51
287.1251286389576762
  0
ARC
  5
E315
  8
0
 10
4874.4401228812203044
 20
246.6229325027925086
 30
0.0
 40
0.1151064717052715
 50
287.1251286389576762
 51
338.0566292607165906
  0
ARC
  5
E316
  8
0
 10
4874.4533964852171266
 20
246.6175848733128078
 30
0.0
 40
0.100796136135264
 50
338.0566292607165906
 51
31.1976469621229313
  0
ARC
  5
E317
  8
0
 10
4874.4250953085338551
 20
246.6004466600128922
 30
0.0
 40
0.1338820085999631
 50
31.1976469621229313
 51
63.9984721503990883
  0
ARC
  5
E318
  8
0
 10
4873.9352210115102935
 20
241.7617611527473969
 30
0.0
 40
1.1001346060971151
 50
253.6434246820253122
 51
285.9796844510008782
  0
ARC
  5
E319
  8
0
 10
4874.4066869982398202
 20
246.6609148438676016
 30
0.0
 40
0.0933689128342034
 50
317.8158279364943724
 51
43.2892718396965321
  0
ARC
  5
E31A
  8
0
 10
4874.4073495719940183
 20
246.6881212169832907
 30
0.0
 40
0.1454744011224272
 50
197.0459658415238948
 51
345.5358593766173954
  0
LINE
  5
E31B
  8
0
 10
4866.933406831355569
 20
260.4991384138181729
 30
0.0
 11
4876.9216068313562573
 21
260.4991384138181729
 31
0.0
  0
LINE
  5
E31C
  8
0
 10
4866.933406831355569
 20
260.5936266028181763
 30
0.0
 11
4876.9216068313562573
 21
260.5936266028181763
 31
0.0
  0
LINE
  5
E31D
  8
0
 10
4866.9275068313545489
 20
260.5050384138182267
 30
0.0
 11
4866.9275068313545489
 21
260.5877266028181225
 31
0.0
  0
ARC
  5
E31E
  8
0
 10
4866.933406831355569
 20
260.5050384138182267
 30
0.0
 40
0.0059
 50
180.0
 51
270.0
  0
ARC
  5
E31F
  8
0
 10
4866.933406831355569
 20
260.5877266028181793
 30
0.0
 40
0.0059
 50
90.0
 51
180.0000000000684111
  0
LINE
  5
E320
  8
0
 10
4867.758375726380109
 20
260.7667819855179232
 30
0.0
 11
4867.3178052033454151
 21
260.6147352836558753
 31
0.0
  0
LINE
  5
E321
  8
0
 10
4867.8996667911442273
 20
260.7904769965181231
 30
0.0
 11
4875.9553468715666895
 21
260.7904769965181231
 31
0.0
  0
ARC
  5
E322
  8
0
 10
4867.8996667911442273
 20
260.3573769965180986
 30
0.0
 40
0.4331
 50
90.0
 51
109.0402300286475992
  0
ARC
  5
E323
  8
0
 10
4867.1919361756235958
 20
260.9794533781478094
 30
0.0
 40
0.3858267753657201
 50
270.0
 51
289.0402299274365987
  0
LINE
  5
E324
  8
0
 10
4871.2090028943548532
 20
261.3967762091181157
 30
0.0
 11
4871.2090028943548532
 21
260.7904769965181231
 31
0.0
  0
LINE
  5
E325
  8
0
 10
4871.2385304534564057
 20
261.3967762091181157
 30
0.0
 11
4871.2385304534564057
 21
261.869217154018088
 31
0.0
  0
LINE
  5
E326
  8
0
 10
4871.2385304534564057
 20
261.869217154018088
 30
0.0
 11
4872.6164832092563302
 21
261.869217154018088
 31
0.0
  0
LINE
  5
E327
  8
0
 10
4871.2090028943548532
 20
261.3967762091181157
 30
0.0
 11
4871.2385304534564057
 21
261.3967762091181157
 31
0.0
  0
LINE
  5
E328
  8
0
 10
4867.6168262834089546
 20
260.4487475496626985
 30
0.0
 11
4867.6114090266355561
 21
260.4991384138181729
 31
0.0
  0
LINE
  5
E329
  8
0
 10
4867.7165122991709723
 20
260.4384802495259805
 30
0.0
 11
4867.6244053105829153
 21
260.4416967842539066
 31
0.0
  0
ARC
  5
E32A
  8
0
 10
4867.7167880127126409
 20
260.4463754367969273
 30
0.0
 40
0.0079
 50
267.999945443172976
 51
308.168419390877375
  0
ARC
  5
E32B
  8
0
 10
4867.6246810241245839
 20
260.4495919715247965
 30
0.0
 40
0.0079
 50
186.1360018459870105
 51
267.9999454432251014
  0
LINE
  5
E32C
  8
0
 10
4867.6815636208775686
 20
260.4482787625001947
 30
0.0
 11
4867.6760175768522458
 21
260.4991384138181729
 31
0.0
  0
LINE
  5
E32D
  8
0
 10
4867.7892037819929101
 20
260.4447175945419986
 30
0.0
 11
4867.7988267344517226
 21
260.4991384138181729
 31
0.0
  0
LINE
  5
E32E
  8
0
 10
4867.6891560163203394
 20
260.4412394639430204
 30
0.0
 11
4867.7811634142417461
 21
260.4381974854547934
 31
0.0
  0
ARC
  5
E32F
  8
0
 10
4867.6894170660470991
 20
260.4491351496661764
 30
0.0
 40
0.0079
 50
186.2232889821740969
 51
268.1063581092283812
  0
ARC
  5
E330
  8
0
 10
4867.7814244639703247
 20
260.4460931711780063
 30
0.0
 40
0.0079
 50
268.1063581091763126
 51
349.9723374683476891
  0
LINE
  5
E331
  8
0
 10
4867.8742891132278601
 20
260.4483803185593729
 30
0.0
 11
4867.8686010458141027
 21
260.4991384138181729
 31
0.0
  0
LINE
  5
E332
  8
0
 10
4867.9820314861308361
 20
260.4452377257763942
 30
0.0
 11
4867.9913984103141047
 21
260.4991384138181729
 31
0.0
  0
ARC
  5
E333
  8
0
 10
4867.9690845133009134
 20
261.8586582005759169
 30
0.0
 40
1.4199773169778891
 50
266.4699466363309739
 51
270.2095173370809107
  0
ARC
  5
E334
  8
0
 10
4867.974248140054442
 20
260.4465903246994003
 30
0.0
 40
0.0079
 50
270.2095173373414809
 51
350.1415276551520037
  0
ARC
  5
E335
  8
0
 10
4867.8821399716716769
 20
260.4492601035839812
 30
0.0
 40
0.0079
 50
186.3940189406660011
 51
266.4699466360178235
  0
LINE
  5
E336
  8
0
 10
4868.3480384287931884
 20
260.4479338124485253
 30
0.0
 11
4868.3415097102160871
 21
260.4991384138181729
 31
0.0
  0
ARC
  5
E337
  8
0
 10
4868.3559741834360466
 20
260.4489456416080202
 30
0.0
 40
0.008
 50
187.2661536802831108
 51
268.986485163689224
  0
LINE
  5
E338
  8
0
 10
4868.5018659539664441
 20
260.4481054628492984
 30
0.0
 11
4868.4959239848576544
 21
260.4991384138181729
 31
0.0
  0
LINE
  5
E339
  8
0
 10
4868.6095879231479557
 20
260.4453062494225151
 30
0.0
 11
4868.6122492022223014
 21
260.4610163651078096
 31
0.0
  0
ARC
  5
E33A
  8
0
 10
4868.5856459833557892
 20
261.5978343221938758
 30
0.0
 40
1.1592219349779671
 50
266.2184312893131164
 51
270.8038791846857976
  0
ARC
  5
E33B
  8
0
 10
4868.6017988899329794
 20
260.4466257044487065
 30
0.0
 40
0.0079
 50
270.8038791843732156
 51
350.3854213467167256
  0
ARC
  5
E33C
  8
0
 10
4868.5097129427267646
 20
260.4490191189073016
 30
0.0
 40
0.0079
 50
186.6412712198913084
 51
266.2184312895741982
  0
LINE
  5
E33D
  8
0
 10
4868.3558326774482339
 20
260.4409468932024083
 30
0.0
 11
4868.4477684323210269
 21
260.4393204562770734
 31
0.0
  0
ARC
  5
E33E
  8
0
 10
4868.735410527006934
 20
264.5318496184182209
 30
0.0
 40
4.0925514156548433
 50
268.4073264183837182
 51
269.6982161533692874
  0
ARC
  5
E33F
  8
0
 10
4869.2121820820493667
 20
261.3681620739084224
 30
0.0
 40
0.9295587501399172
 50
266.015811709899026
 51
271.734716871598323
  0
ARC
  5
E340
  8
0
 10
4871.2006347812866807
 20
260.9725880967944249
 30
0.0
 40
0.534673195740621
 50
264.5044934792330764
 51
274.857358781701123
  0
ARC
  5
E341
  8
0
 10
4870.4986265778379675
 20
261.1841851890109751
 30
0.0
 40
0.7456204072450252
 50
265.7768694741338891
 51
272.9262404259603159
  0
LINE
  5
E342
  8
0
 10
4868.6139512728914269
 20
260.4478504640827055
 30
0.0
 11
4868.6073208330362831
 21
260.4991384138181729
 31
0.0
  0
LINE
  5
E343
  8
0
 10
4868.7217961434698736
 20
260.4460898217625981
 30
0.0
 11
4868.7302915967356967
 21
260.4991384138181729
 31
0.0
  0
LINE
  5
E344
  8
0
 10
4869.1320287301277858
 20
260.4475247679346239
 30
0.0
 11
4869.1244733517060013
 21
260.4991384138181729
 31
0.0
  0
LINE
  5
E345
  8
0
 10
4869.1402099186852865
 20
260.447862134286197
 30
0.0
 11
4869.1339572389579189
 21
260.4991384138181729
 31
0.0
  0
LINE
  5
E346
  8
0
 10
4869.2479741645192917
 20
260.4457322713117264
 30
0.0
 11
4869.2567237234570712
 21
260.4991384138181729
 31
0.0
  0
LINE
  5
E347
  8
0
 10
4869.3468409679298929
 20
260.4461455539222925
 30
0.0
 11
4869.3551771214833934
 21
260.4991384138181729
 31
0.0
  0
LINE
  5
E348
  8
0
 10
4869.3388782175661618
 20
260.4393889478416213
 30
0.0
 11
4869.2440822996004499
 21
260.4400991376130037
 31
0.0
  0
LINE
  5
E349
  8
0
 10
4869.51830133772728
 20
260.4400832957181251
 30
0.0
 11
4869.4262635783989026
 21
260.4400832957181251
 31
0.0
  0
LINE
  5
E34A
  8
0
 10
4869.526216978726552
 20
260.4469245776559205
 30
0.0
 11
4869.5338602150823135
 21
260.4991384138181729
 31
0.0
  0
LINE
  5
E34B
  8
0
 10
4869.4183479373959926
 20
260.4469245776734851
 30
0.0
 11
4869.4107047011630129
 21
260.4991384138181729
 31
0.0
  0
ARC
  5
E34C
  8
0
 10
4869.51830133772728
 20
260.4480832957181065
 30
0.0
 40
0.008
 50
270.0
 51
351.6719999699882919
  0
ARC
  5
E34D
  8
0
 10
4869.4262635783989026
 20
260.4480832957181065
 30
0.0
 40
0.008
 50
188.327999902384505
 51
270.0
  0
ARC
  5
E34E
  8
0
 10
4869.3389381500910531
 20
260.4473887233443179
 30
0.0
 40
0.008
 50
269.5707608917181801
 51
351.0602260216197124
  0
ARC
  5
E34F
  8
0
 10
4869.2400794123468586
 20
260.4470256730850792
 30
0.0
 40
0.008
 50
271.7347168717025738
 51
350.6958545352946999
  0
ARC
  5
E350
  8
0
 10
4869.1399443711306958
 20
260.4486834859868054
 30
0.0
 40
0.008
 50
188.3279999568767096
 51
269.5707608917704192
  0
ARC
  5
E351
  8
0
 10
4869.1481510954772602
 20
260.4488304891589792
 30
0.0
 40
0.008
 50
186.9523793303715138
 51
266.0158117097424224
  0
LINE
  5
E352
  8
0
 10
4869.139884438604895
 20
260.4406837104842225
 30
0.0
 11
4869.1500261865812718
 21
260.4406837104842225
 31
0.0
  0
ARC
  5
E353
  8
0
 10
4868.7138967968694487
 20
260.447354860612279
 30
0.0
 40
0.008
 50
269.6982161532130249
 51
350.901636972673316
  0
ARC
  5
E354
  8
0
 10
4868.6218852474221421
 20
260.4488761580557821
 30
0.0
 40
0.008
 50
187.3662681935242915
 51
268.4073264185922767
  0
LINE
  5
E355
  8
0
 10
4870.4363727311374532
 20
260.4475488957585867
 30
0.0
 11
4870.4297498566338618
 21
260.4991384138181729
 31
0.0
  0
LINE
  5
E356
  8
0
 10
4870.5441850928864369
 20
260.4462829765059269
 30
0.0
 11
4870.5525025932338394
 21
260.4991384138181729
 31
0.0
  0
LINE
  5
E357
  8
0
 10
4870.5666968051100412
 20
260.4468686567631153
 30
0.0
 11
4870.5747260008338344
 21
260.4991384138181729
 31
0.0
  0
LINE
  5
E358
  8
0
 10
4870.6141069726982096
 20
260.4469245776587059
 30
0.0
 11
4870.6217502090339622
 21
260.4991384138181729
 31
0.0
  0
LINE
  5
E359
  8
0
 10
4870.6456680438850526
 20
260.4469245776587059
 30
0.0
 11
4870.638024807551119
 21
260.4991384138181729
 31
0.0
  0
LINE
  5
E35A
  8
0
 10
4870.7535370851146581
 20
260.4469245776559205
 30
0.0
 11
4870.7611803214686006
 21
260.4991384138181729
 31
0.0
  0
LINE
  5
E35B
  8
0
 10
4870.6061913316980281
 20
260.4400832957181819
 30
0.0
 11
4870.539214499694026
 21
260.4400832957181819
 31
0.0
  0
ARC
  5
E35C
  8
0
 10
4870.44430761296735
 20
260.4485675469987882
 30
0.0
 40
0.008
 50
187.3154114914765103
 51
265.7768694744474942
  0
ARC
  5
E35D
  8
0
 10
4870.5362823430959907
 20
260.4475265784407725
 30
0.0
 40
0.008
 50
272.9262404256472792
 51
351.0570902695155269
  0
ARC
  5
E35E
  8
0
 10
4870.558789551971131
 20
260.4480832957181065
 30
0.0
 40
0.008
 50
270.0
 51
351.2670149183132935
  0
ARC
  5
E35F
  8
0
 10
4870.6061913316980281
 20
260.4480832957181065
 30
0.0
 40
0.008
 50
270.0
 51
351.6719999903547773
  0
LINE
  5
E360
  8
0
 10
4870.6535836848861436
 20
260.4400832957181251
 30
0.0
 11
4870.7456214441153861
 21
260.4400832957181251
 31
0.0
  0
ARC
  5
E361
  8
0
 10
4870.6535836848861436
 20
260.4480832957181065
 30
0.0
 40
0.008
 50
188.3280000096902995
 51
269.9999999999478746
  0
ARC
  5
E362
  8
0
 10
4870.7456214441153861
 20
260.4480832957181065
 30
0.0
 40
0.008
 50
269.9999999999478746
 51
351.6719999700392805
  0
LINE
  5
E363
  8
0
 10
4871.2500553913187105
 20
260.4463644261520017
 30
0.0
 11
4871.2579856073898554
 21
260.4991384138181729
 31
0.0
  0
LINE
  5
E364
  8
0
 10
4871.2531433309386557
 20
260.4466250268797012
 30
0.0
 11
4871.2609840335899207
 21
260.4991384138181729
 31
0.0
  0
LINE
  5
E365
  8
0
 10
4871.2596068159573406
 20
260.4469245776734851
 30
0.0
 11
4871.2672500521903203
 21
260.4991384138181729
 31
0.0
  0
LINE
  5
E366
  8
0
 10
4871.2765563553539323
 20
260.4469245776587059
 30
0.0
 11
4871.2841995916896849
 21
260.4991384138181729
 31
0.0
  0
LINE
  5
E367
  8
0
 10
4871.363692588854974
 20
260.4469245776559205
 30
0.0
 11
4871.3713358252089165
 21
260.4991384138181729
 31
0.0
  0
LINE
  5
E368
  8
0
 10
4871.1422688999091406
 20
260.4472618457982094
 30
0.0
 11
4871.1352422026902786
 21
260.4991384138181729
 31
0.0
  0
ARC
  5
E369
  8
0
 10
4871.1501965073812244
 20
260.4483356426875957
 30
0.0
 40
0.008
 50
187.7137853115659141
 51
264.5044934791285982
  0
ARC
  5
E36A
  8
0
 10
4871.2421442112372461
 20
260.4475532195369283
 30
0.0
 40
0.008
 50
274.5204204566571775
 51
351.4542446847460724
  0
ARC
  5
E36B
  8
0
 10
4871.2452310394510278
 20
260.4478064004010776
 30
0.0
 40
0.008
 50
274.8573587818057149
 51
351.5079783834091813
  0
LINE
  5
E36C
  8
0
 10
4871.2473175806208019
 20
260.4400832957181251
 30
0.0
 11
4871.355776947853883
 21
260.4400832957181251
 31
0.0
  0
ARC
  5
E36D
  8
0
 10
4871.2516911749544306
 20
260.4480832957181065
 30
0.0
 40
0.008
 50
270.0
 51
351.672000097536511
  0
ARC
  5
E36E
  8
0
 10
4871.2686407143537508
 20
260.4480832957181065
 30
0.0
 40
0.008
 50
270.0
 51
351.6719999903580174
  0
ARC
  5
E36F
  8
0
 10
4871.355776947853883
 20
260.4480832957181065
 30
0.0
 40
0.008
 50
269.9999999999478746
 51
351.6719999699835171
  0
LINE
  5
E370
  8
0
 10
4871.8736277816533402
 20
260.4468283776620865
 30
0.0
 11
4871.8654601496291434
 21
260.4991384138181729
 31
0.0
  0
LINE
  5
E371
  8
0
 10
4871.9814019807981822
 20
260.4466556179585268
 30
0.0
 11
4871.9890845883555812
 21
260.4991384138181729
 31
0.0
  0
ARC
  5
E372
  8
0
 10
4871.9291238265941502
 20
261.0461431620965982
 30
0.0
 40
0.6079711798865365
 50
265.450318349442
 51
274.2403813490977882
  0
ARC
  5
E373
  8
0
 10
4871.9734863397970912
 20
260.4478143360179843
 30
0.0
 40
0.008
 50
274.2403813493588132
 51
351.6719999901903861
  0
ARC
  5
E374
  8
0
 10
4871.8815320118083037
 20
260.4480625355423058
 30
0.0
 40
0.008
 50
188.8744457458128068
 51
265.4503183491808045
  0
ARC
  5
E375
  8
0
 10
4871.9325943927551634
 20
261.5656848921016149
 30
0.0
 40
0.5342121359462583
 50
129.135639356060409
 51
145.3761205380606896
  0
ARC
  5
E376
  8
0
 10
4871.5475363678806389
 20
262.0322900431381186
 30
0.0
 40
0.0708674003674274
 50
312.5090184903203863
 51
65.7287636912618325
  0
ARC
  5
E377
  8
0
 10
4871.6571930316958969
 20
262.3077942378988041
 30
0.0
 40
0.2257511878866306
 50
179.7590966091962912
 51
249.1021428255330079
  0
LINE
  5
E378
  8
0
 10
4871.451443839255262
 20
262.8455951067181786
 30
0.0
 11
4872.4035698234556548
 21
262.8455951067181786
 31
0.0
  0
LINE
  5
E379
  8
0
 10
4871.4314438392548254
 20
262.3087434189333749
 30
0.0
 11
4871.4314438392548254
 21
262.8255951067180831
 31
0.0
  0
ARC
  5
E37A
  8
0
 10
4871.451443839255262
 20
262.8255951067180831
 30
0.0
 40
0.02
 50
90.0
 51
179.9999999999901945
  0
LINE
  5
E37B
  8
0
 10
4871.5338060440553818
 20
261.9211429896786854
 30
0.0
 11
4871.5338060440553818
 21
262.1187459633412118
 31
0.0
  0
ARC
  5
E37C
  8
0
 10
4871.9224192699548439
 20
261.5656848921016149
 30
0.0
 40
0.5342121359462583
 50
34.6238794619392323
 51
50.8643606439395981
  0
ARC
  5
E37D
  8
0
 10
4872.3074772948293685
 20
262.0322900431381186
 30
0.0
 40
0.0708674003674274
 50
114.2712363087380965
 51
227.4909815096795
  0
ARC
  5
E37E
  8
0
 10
4872.1978206310141104
 20
262.3077942378988041
 30
0.0
 40
0.2257511878866306
 50
290.8978571744668784
 51
0.2409033908036876
  0
LINE
  5
E37F
  8
0
 10
4872.4235698234551819
 20
262.3087434189333749
 30
0.0
 11
4872.4235698234551819
 21
262.8255951067180831
 31
0.0
  0
ARC
  5
E380
  8
0
 10
4872.4035698234556548
 20
262.8255951067180831
 30
0.0
 40
0.02
 50
0.0000000000097707
 51
90.0
  0
LINE
  5
E381
  8
0
 10
4872.3212076186546255
 20
261.9211429896786854
 30
0.0
 11
4872.3212076186546255
 21
262.1187459633412118
 31
0.0
  0
LINE
  5
E382
  8
0
 10
4871.7292539534546449
 20
262.3087434189168903
 30
0.0
 11
4871.7292539534546449
 21
262.6763037681091078
 31
0.0
  0
LINE
  5
E383
  8
0
 10
4872.1257597093554068
 20
262.3087434189187093
 30
0.0
 11
4872.1257597093554068
 21
262.6763037681527067
 31
0.0
  0
LINE
  5
E384
  8
0
 10
4872.1257597092062497
 20
262.6763037682180766
 30
0.0
 11
4871.7292539537056655
 21
262.6763037682180766
 31
0.0
  0
ARC
  5
E385
  8
0
 10
4871.8616289360652445
 20
262.3245368825113246
 30
0.0
 40
0.1333138009104397
 50
186.803713893341893
 51
250.9076555940827973
  0
ARC
  5
E386
  8
0
 10
4871.9441210283966939
 20
262.5628628138480849
 30
0.0
 40
0.3855125218527126
 50
250.9076555940827973
 51
267.5299938893643912
  0
ARC
  5
E387
  8
0
 10
4871.938027922661604
 20
262.421610957366795
 30
0.0
 40
0.244129308927921
 50
267.5299938893643912
 51
295.7312406502629756
  0
ARC
  5
E388
  8
0
 10
4871.9794016423029461
 20
262.3357625389667191
 30
0.0
 40
0.148831168238889
 50
295.7312406502629756
 51
349.5404054234247155
  0
ARC
  5
E389
  8
0
 10
4871.9275068314564123
 20
262.2215793587180883
 30
0.0
 40
0.4960629921000234
 50
66.4435357125962724
 51
113.5564642874036991
  0
LINE
  5
E38A
  8
0
 10
4872.6460107683551541
 20
261.3967762091181157
 30
0.0
 11
4872.6460107683551541
 21
260.7904769965181231
 31
0.0
  0
LINE
  5
E38B
  8
0
 10
4872.6164832092563302
 20
261.3967762091181157
 30
0.0
 11
4872.6164832092563302
 21
261.869217154018088
 31
0.0
  0
LINE
  5
E38C
  8
0
 10
4872.6460107683551541
 20
261.3967762091181157
 30
0.0
 11
4872.6164832092563302
 21
261.3967762091181157
 31
0.0
  0
LINE
  5
E38D
  8
0
 10
4871.5338060440553818
 20
262.8455951067181786
 30
0.0
 11
4871.5338060440553818
 21
265.640245215564903
 31
0.0
  0
LINE
  5
E38E
  8
0
 10
4872.3212076186546255
 20
262.8455951067181786
 30
0.0
 11
4872.3212076186546255
 21
265.6402326639633884
 31
0.0
  0
ARC
  5
E38F
  8
0
 10
4871.9275068314564123
 20
265.640245215564903
 30
0.0
 40
0.3937007873999967
 50
359.9981733493619913
 51
180.0
  0
LINE
  5
E390
  8
0
 10
4872.3212076186546255
 20
262.8849651855181264
 30
0.0
 11
4871.5338060440553818
 21
262.8849651855181264
 31
0.0
  0
LINE
  5
E391
  8
0
 10
4871.5633336030550709
 20
262.8455951067181786
 30
0.0
 11
4871.5633336030550709
 21
262.8849651855181264
 31
0.0
  0
LINE
  5
E392
  8
0
 10
4872.2916800597549809
 20
262.8455951067181786
 30
0.0
 11
4872.2916800597549809
 21
262.8849651855181264
 31
0.0
  0
ARC
  5
E393
  8
0
 10
4869.8069781067906661
 20
261.1841851890109751
 30
0.0
 40
0.7456204072450252
 50
265.7768694741338891
 51
272.9262404259603159
  0
LINE
  5
E394
  8
0
 10
4869.7447242600901518
 20
260.4475488957585867
 30
0.0
 11
4869.7381013855865604
 21
260.4991384138181729
 31
0.0
  0
LINE
  5
E395
  8
0
 10
4869.8525366218409545
 20
260.4462829765059269
 30
0.0
 11
4869.8608541221874475
 21
260.4991384138181729
 31
0.0
  0
LINE
  5
E396
  8
0
 10
4869.9300092220009901
 20
260.4468686567631153
 30
0.0
 11
4869.9380384177238739
 21
260.4991384138181729
 31
0.0
  0
LINE
  5
E397
  8
0
 10
4869.9774193895891585
 20
260.4469245776587059
 30
0.0
 11
4869.9850626259240016
 21
260.4991384138181729
 31
0.0
  0
LINE
  5
E398
  8
0
 10
4870.0323832001877236
 20
260.4469245776587059
 30
0.0
 11
4870.024739963851971
 21
260.4991384138181729
 31
0.0
  0
LINE
  5
E399
  8
0
 10
4870.1402522414182386
 20
260.4469245776559205
 30
0.0
 11
4870.147895477772181
 21
260.4991384138181729
 31
0.0
  0
LINE
  5
E39A
  8
0
 10
4869.9695037485880675
 20
260.4400832957181819
 30
0.0
 11
4869.8475660286467246
 21
260.4400832957181819
 31
0.0
  0
ARC
  5
E39B
  8
0
 10
4869.7526591419200486
 20
260.4485675469987882
 30
0.0
 40
0.008
 50
187.3154114914765103
 51
265.7768694744474942
  0
ARC
  5
E39C
  8
0
 10
4869.8446338720514177
 20
260.4475265784407725
 30
0.0
 40
0.008
 50
272.9262404256472792
 51
351.0570902695155269
  0
ARC
  5
E39D
  8
0
 10
4869.9221019688611705
 20
260.4480832957181065
 30
0.0
 40
0.008
 50
270.0
 51
351.2670149183132935
  0
ARC
  5
E39E
  8
0
 10
4869.9695037485880675
 20
260.4480832957181065
 30
0.0
 40
0.008
 50
270.0
 51
351.6719999903547773
  0
LINE
  5
E39F
  8
0
 10
4870.0402988411888145
 20
260.4400832957181251
 30
0.0
 11
4870.1323366004171476
 21
260.4400832957181251
 31
0.0
  0
ARC
  5
E3A0
  8
0
 10
4870.0402988411888145
 20
260.4480832957181065
 30
0.0
 40
0.008
 50
188.3280000096902995
 51
269.9999999999478746
  0
ARC
  5
E3A1
  8
0
 10
4870.1323366004171476
 20
260.4480832957181065
 30
0.0
 40
0.008
 50
269.9999999999478746
 51
351.6719999700392805
  0
LINE
  5
E3A2
  8
0
 10
4868.904143365037271
 20
260.4400832957181251
 30
0.0
 11
4868.8121056057088936
 21
260.4400832957181251
 31
0.0
  0
LINE
  5
E3A3
  8
0
 10
4868.912059006038362
 20
260.4469245776559205
 30
0.0
 11
4868.919702242393214
 21
260.4991384138181729
 31
0.0
  0
LINE
  5
E3A4
  8
0
 10
4868.8041899647059836
 20
260.4469245776734851
 30
0.0
 11
4868.7965467284730039
 21
260.4991384138181729
 31
0.0
  0
ARC
  5
E3A5
  8
0
 10
4868.904143365037271
 20
260.4480832957181065
 30
0.0
 40
0.008
 50
270.0
 51
351.6719999699882919
  0
ARC
  5
E3A6
  8
0
 10
4868.8121056057088936
 20
260.4480832957181065
 30
0.0
 40
0.008
 50
188.327999902384505
 51
270.0
  0
LINE
  5
E3A7
  8
0
 10
4869.0468422824060326
 20
260.4400832957181819
 30
0.0
 11
4869.1597487774188266
 21
260.4400832957181819
 31
0.0
  0
LINE
  5
E3A8
  8
0
 10
4869.0389266414031226
 20
260.4469245776713251
 30
0.0
 11
4869.0312834051546815
 21
260.4991384138181729
 31
0.0
  0
ARC
  5
E3A9
  8
0
 10
4869.0468422824060326
 20
260.4480832957181065
 30
0.0
 40
0.008
 50
188.3279999181283983
 51
270.0
  0
LINE
  5
E3AA
  8
0
 10
4868.455806435183149
 20
260.4460364977413747
 30
0.0
 11
4868.4644323103539136
 21
260.4991384138181729
 31
0.0
  0
ARC
  5
E3AB
  8
0
 10
4868.4479099383079301
 20
260.4473192046825716
 30
0.0
 40
0.008
 50
268.9864851636370986
 51
350.7734631715886167
  0
LINE
  5
E3AC
  8
0
 10
4868.2895740489084346
 20
260.4400832957181251
 30
0.0
 11
4868.1975362895800572
 21
260.4400832957181251
 31
0.0
  0
LINE
  5
E3AD
  8
0
 10
4868.2974896899086161
 20
260.4469245776559205
 30
0.0
 11
4868.3051329262643776
 21
260.4991384138181729
 31
0.0
  0
LINE
  5
E3AE
  8
0
 10
4868.1896206485771472
 20
260.4469245776734851
 30
0.0
 11
4868.1819774123441675
 21
260.4991384138181729
 31
0.0
  0
ARC
  5
E3AF
  8
0
 10
4868.2895740489084346
 20
260.4480832957181065
 30
0.0
 40
0.008
 50
270.0
 51
351.6719999699882919
  0
ARC
  5
E3B0
  8
0
 10
4868.1975362895800572
 20
260.4480832957181065
 30
0.0
 40
0.008
 50
188.327999902384505
 51
270.0
  0
LINE
  5
E3B1
  8
0
 10
4876.9275068313545489
 20
260.5050384138182267
 30
0.0
 11
4876.9275068313545489
 21
260.5877266028181225
 31
0.0
  0
ARC
  5
E3B2
  8
0
 10
4876.9216068313562573
 20
260.5050384138182267
 30
0.0
 40
0.0059
 50
270.0
 51
0.0
  0
ARC
  5
E3B3
  8
0
 10
4876.9216068313562573
 20
260.5877266028181793
 30
0.0
 40
0.0059
 50
359.9999999999316174
 51
90.0
  0
LINE
  5
E3B4
  8
0
 10
4876.0966379363298984
 20
260.7667819855179232
 30
0.0
 11
4876.5372084593673208
 21
260.6147352836558753
 31
0.0
  0
ARC
  5
E3B5
  8
0
 10
4875.9553468715666895
 20
260.3573769965180986
 30
0.0
 40
0.4331
 50
70.9597699713523866
 51
90.0
  0
ARC
  5
E3B6
  8
0
 10
4876.6630774870873211
 20
260.9794533781478094
 30
0.0
 40
0.3858267753657201
 50
250.9597700725634866
 51
270.0
  0
LINE
  5
E3B7
  8
0
 10
4876.2381873793019622
 20
260.4487475496626985
 30
0.0
 11
4876.2436046360753608
 21
260.4991384138181729
 31
0.0
  0
LINE
  5
E3B8
  8
0
 10
4876.1385013635390351
 20
260.4384802495259805
 30
0.0
 11
4876.2306083521270921
 21
260.4416967842539066
 31
0.0
  0
ARC
  5
E3B9
  8
0
 10
4876.1382256499982759
 20
260.4463754367969273
 30
0.0
 40
0.0079
 50
231.8315806091225113
 51
272.000054556827024
  0
ARC
  5
E3BA
  8
0
 10
4876.2303326385854234
 20
260.4495919715247965
 30
0.0
 40
0.0079
 50
272.0000545567748986
 51
353.8639981540129043
  0
LINE
  5
E3BB
  8
0
 10
4876.1734500418324387
 20
260.4482787625001947
 30
0.0
 11
4876.1789960858577615
 21
260.4991384138181729
 31
0.0
  0
LINE
  5
E3BC
  8
0
 10
4876.0658098807170973
 20
260.4447175945419986
 30
0.0
 11
4876.0561869282573753
 21
260.4991384138181729
 31
0.0
  0
LINE
  5
E3BD
  8
0
 10
4876.1658576463905774
 20
260.4412394639430204
 30
0.0
 11
4876.0738502484682613
 21
260.4381974854547934
 31
0.0
  0
ARC
  5
E3BE
  8
0
 10
4876.1655965966629083
 20
260.4491351496661764
 30
0.0
 40
0.0079
 50
271.8936418907716188
 51
353.7767110178259031
  0
ARC
  5
E3BF
  8
0
 10
4876.0735891987424111
 20
260.4460931711780063
 30
0.0
 40
0.0079
 50
190.0276625316523109
 51
271.8936418908235737
  0
LINE
  5
E3C0
  8
0
 10
4875.9807245494830568
 20
260.4483803185593729
 30
0.0
 11
4875.9864126168968141
 21
260.4991384138181729
 31
0.0
  0
LINE
  5
E3C1
  8
0
 10
4875.8729821765809902
 20
260.4452377257763942
 30
0.0
 11
4875.8636152523968121
 21
260.4991384138181729
 31
0.0
  0
ARC
  5
E3C2
  8
0
 10
4875.885929149409094
 20
261.8586582005759169
 30
0.0
 40
1.4199773169778891
 50
269.7904826628670207
 51
273.5300533636690261
  0
ARC
  5
E3C3
  8
0
 10
4875.8807655226573843
 20
260.4465903246994003
 30
0.0
 40
0.0079
 50
189.858472344847911
 51
269.7904826626585191
  0
ARC
  5
E3C4
  8
0
 10
4875.9728736910401494
 20
260.4492601035839812
 30
0.0
 40
0.0079
 50
273.5300533639821765
 51
353.6059810593338852
  0
LINE
  5
E3C5
  8
0
 10
4875.5069752339177285
 20
260.4479338124485253
 30
0.0
 11
4875.5135039524957392
 21
260.4991384138181729
 31
0.0
  0
ARC
  5
E3C6
  8
0
 10
4875.4990394792748702
 20
260.4489456416080202
 30
0.0
 40
0.008
 50
271.013514836310776
 51
352.7338463197168039
  0
LINE
  5
E3C7
  8
0
 10
4875.3531477087426538
 20
260.4481054628492984
 30
0.0
 11
4875.3590896778532624
 21
260.4991384138181729
 31
0.0
  0
LINE
  5
E3C8
  8
0
 10
4875.2454257395620516
 20
260.4453062494225151
 30
0.0
 11
4875.2427644604867965
 21
260.4610163651078096
 31
0.0
  0
ARC
  5
E3C9
  8
0
 10
4875.2693676793551276
 20
261.5978343221938758
 30
0.0
 40
1.1592219349779671
 50
269.1961208153140888
 51
273.7815687106348719
  0
ARC
  5
E3CA
  8
0
 10
4875.2532147727779375
 20
260.4466257044487065
 30
0.0
 40
0.0079
 50
189.6145786532833029
 51
269.1961208155747158
  0
ARC
  5
E3CB
  8
0
 10
4875.3453007199832427
 20
260.4490191189073016
 30
0.0
 40
0.0079
 50
273.7815687104256881
 51
353.35872878010872
  0
LINE
  5
E3CC
  8
0
 10
4875.499180985260864
 20
260.4409468932024083
 30
0.0
 11
4875.4072452303898899
 21
260.4393204562770734
 31
0.0
  0
ARC
  5
E3CD
  8
0
 10
4875.1196031357030733
 20
264.5318496184182209
 30
0.0
 40
4.0925514156548433
 50
270.3017838466307126
 51
271.5926735816162818
  0
ARC
  5
E3CE
  8
0
 10
4874.6428315806606406
 20
261.3681620739084224
 30
0.0
 40
0.9295587501399172
 50
268.265283128401677
 51
273.9841882901009171
  0
ARC
  5
E3CF
  8
0
 10
4872.6543788814233267
 20
260.9725880967944249
 30
0.0
 40
0.534673195740621
 50
265.142641218298877
 51
275.4955065207669236
  0
ARC
  5
E3D0
  8
0
 10
4873.3563870848711304
 20
261.1841851890109751
 30
0.0
 40
0.7456204072450252
 50
267.0737595740396841
 51
274.2231305258662246
  0
LINE
  5
E3D1
  8
0
 10
4875.2410623898185804
 20
260.4478504640827055
 30
0.0
 11
4875.2476928296737242
 21
260.4991384138181729
 31
0.0
  0
LINE
  5
E3D2
  8
0
 10
4875.1332175192410432
 20
260.4460898217625981
 30
0.0
 11
4875.1247220659743107
 21
260.4991384138181729
 31
0.0
  0
LINE
  5
E3D3
  8
0
 10
4874.7229849325822215
 20
260.4475247679346239
 30
0.0
 11
4874.7305403110040061
 21
260.4991384138181729
 31
0.0
  0
LINE
  5
E3D4
  8
0
 10
4874.7148037440247208
 20
260.447862134286197
 30
0.0
 11
4874.7210564237539074
 21
260.4991384138181729
 31
0.0
  0
LINE
  5
E3D5
  8
0
 10
4874.6070394981916252
 20
260.4457322713117264
 30
0.0
 11
4874.5982899392529362
 21
260.4991384138181729
 31
0.0
  0
LINE
  5
E3D6
  8
0
 10
4874.5081726947810239
 20
260.4461455539222925
 30
0.0
 11
4874.4998365412284329
 21
260.4991384138181729
 31
0.0
  0
LINE
  5
E3D7
  8
0
 10
4874.5161354451438456
 20
260.4393889478416213
 30
0.0
 11
4874.6109313631113764
 21
260.4400991376130037
 31
0.0
  0
LINE
  5
E3D8
  8
0
 10
4874.3367123249836368
 20
260.4400832957181251
 30
0.0
 11
4874.4287500843111047
 21
260.4400832957181251
 31
0.0
  0
LINE
  5
E3D9
  8
0
 10
4874.3287966839825458
 20
260.4469245776559205
 30
0.0
 11
4874.3211534476276938
 21
260.4991384138181729
 31
0.0
  0
LINE
  5
E3DA
  8
0
 10
4874.4366657253140147
 20
260.4469245776734851
 30
0.0
 11
4874.4443089615469944
 21
260.4991384138181729
 31
0.0
  0
ARC
  5
E3DB
  8
0
 10
4874.3367123249836368
 20
260.4480832957181065
 30
0.0
 40
0.008
 50
188.3280000300115944
 51
270.0
  0
ARC
  5
E3DC
  8
0
 10
4874.4287500843111047
 20
260.4480832957181065
 30
0.0
 40
0.008
 50
270.0
 51
351.6720000976154097
  0
ARC
  5
E3DD
  8
0
 10
4874.5160755126198637
 20
260.4473887233443179
 30
0.0
 40
0.008
 50
188.9397739783802876
 51
270.4292391082818199
  0
ARC
  5
E3DE
  8
0
 10
4874.6149342503631487
 20
260.4470256730850792
 30
0.0
 40
0.008
 50
189.3041454647053001
 51
268.2652831282974262
  0
ARC
  5
E3DF
  8
0
 10
4874.715069291580221
 20
260.4486834859868054
 30
0.0
 40
0.008
 50
270.4292391082295808
 51
351.6720000431233188
  0
ARC
  5
E3E0
  8
0
 10
4874.7068625672336566
 20
260.4488304891589792
 30
0.0
 40
0.008
 50
273.9841882902056227
 51
353.0476206696284862
  0
LINE
  5
E3E1
  8
0
 10
4874.7151292241051124
 20
260.4406837104842225
 30
0.0
 11
4874.7049874761287356
 21
260.4406837104842225
 31
0.0
  0
ARC
  5
E3E2
  8
0
 10
4875.1411168658405586
 20
260.447354860612279
 30
0.0
 40
0.008
 50
189.0983630273267124
 51
270.3017838467869751
  0
ARC
  5
E3E3
  8
0
 10
4875.2331284152878652
 20
260.4488761580557821
 30
0.0
 40
0.008
 50
271.5926735814077233
 51
352.6337318064756801
  0
LINE
  5
E3E4
  8
0
 10
4873.4186409315725541
 20
260.4475488957585867
 30
0.0
 11
4873.4252638060770551
 21
260.4991384138181729
 31
0.0
  0
LINE
  5
E3E5
  8
0
 10
4873.3108285698235704
 20
260.4462829765059269
 30
0.0
 11
4873.3025110694770774
 21
260.4991384138181729
 31
0.0
  0
LINE
  5
E3E6
  8
0
 10
4873.2883168575999662
 20
260.4468686567631153
 30
0.0
 11
4873.2802876618770824
 21
260.4991384138181729
 31
0.0
  0
LINE
  5
E3E7
  8
0
 10
4873.2409066900108883
 20
260.4469245776587059
 30
0.0
 11
4873.2332634536769547
 21
260.4991384138181729
 31
0.0
  0
LINE
  5
E3E8
  8
0
 10
4873.2093456188249547
 20
260.4469245776587059
 30
0.0
 11
4873.2169888551588883
 21
260.4991384138181729
 31
0.0
  0
LINE
  5
E3E9
  8
0
 10
4873.1014765775953492
 20
260.4469245776559205
 30
0.0
 11
4873.0938333412395878
 21
260.4991384138181729
 31
0.0
  0
LINE
  5
E3EA
  8
0
 10
4873.2488223310128888
 20
260.4400832957181819
 30
0.0
 11
4873.3157991630159813
 21
260.4400832957181819
 31
0.0
  0
ARC
  5
E3EB
  8
0
 10
4873.4107060497435668
 20
260.4485675469987882
 30
0.0
 40
0.008
 50
274.2231305255525058
 51
352.6845885085235182
  0
ARC
  5
E3EC
  8
0
 10
4873.3187313196140167
 20
260.4475265784407725
 30
0.0
 40
0.008
 50
188.9429097304845016
 51
267.0737595743527208
  0
ARC
  5
E3ED
  8
0
 10
4873.2962241107397858
 20
260.4480832957181065
 30
0.0
 40
0.008
 50
188.7329850816865928
 51
270.0
  0
ARC
  5
E3EE
  8
0
 10
4873.2488223310128888
 20
260.4480832957181065
 30
0.0
 40
0.008
 50
188.3280000096451943
 51
270.0
  0
LINE
  5
E3EF
  8
0
 10
4873.2014299778238637
 20
260.4400832957181251
 30
0.0
 11
4873.1093922185946212
 21
260.4400832957181251
 31
0.0
  0
ARC
  5
E3F0
  8
0
 10
4873.2014299778238637
 20
260.4480832957181065
 30
0.0
 40
0.008
 50
270.0
 51
351.6719999903095868
  0
ARC
  5
E3F1
  8
0
 10
4873.1093922185946212
 20
260.4480832957181065
 30
0.0
 40
0.008
 50
188.3280000299606058
 51
270.0
  0
LINE
  5
E3F2
  8
0
 10
4872.6049582713912969
 20
260.4463644261520017
 30
0.0
 11
4872.5970280553201519
 21
260.4991384138181729
 31
0.0
  0
LINE
  5
E3F3
  8
0
 10
4872.6018703317704421
 20
260.4466250268797012
 30
0.0
 11
4872.5940296291191771
 21
260.4991384138181729
 31
0.0
  0
LINE
  5
E3F4
  8
0
 10
4872.5954068467535762
 20
260.4469245776734851
 30
0.0
 11
4872.5877636105205966
 21
260.4991384138181729
 31
0.0
  0
LINE
  5
E3F5
  8
0
 10
4872.5784573073551655
 20
260.4469245776587059
 30
0.0
 11
4872.5708140710203224
 21
260.4991384138181729
 31
0.0
  0
LINE
  5
E3F6
  8
0
 10
4872.4913210738559428
 20
260.4469245776559205
 30
0.0
 11
4872.4836778375010908
 21
260.4991384138181729
 31
0.0
  0
LINE
  5
E3F7
  8
0
 10
4872.7127447628026857
 20
260.4472618457982094
 30
0.0
 11
4872.7197714600206382
 21
260.4991384138181729
 31
0.0
  0
ARC
  5
E3F8
  8
0
 10
4872.7048171553296925
 20
260.4483356426875957
 30
0.0
 40
0.008
 50
275.4955065208714018
 51
352.2862146884340859
  0
ARC
  5
E3F9
  8
0
 10
4872.6128694514718518
 20
260.4475532195369283
 30
0.0
 40
0.008
 50
188.5457553152538992
 51
265.4795795433428225
  0
ARC
  5
E3FA
  8
0
 10
4872.6097826232589796
 20
260.4478064004010776
 30
0.0
 40
0.008
 50
188.4920216165907902
 51
265.1426412181942851
  0
LINE
  5
E3FB
  8
0
 10
4872.6076960820892054
 20
260.4400832957181251
 30
0.0
 11
4872.4992367148561243
 21
260.4400832957181251
 31
0.0
  0
ARC
  5
E3FC
  8
0
 10
4872.6033224877573957
 20
260.4480832957181065
 30
0.0
 40
0.008
 50
188.327999902463489
 51
270.0
  0
ARC
  5
E3FD
  8
0
 10
4872.5863729483562565
 20
260.4480832957181065
 30
0.0
 40
0.008
 50
188.3280000096418973
 51
270.0
  0
ARC
  5
E3FE
  8
0
 10
4872.4992367148561243
 20
260.4480832957181065
 30
0.0
 40
0.008
 50
188.3280000300165113
 51
270.0
  0
ARC
  5
E3FF
  8
0
 10
4874.0480355559193413
 20
261.1841851890109751
 30
0.0
 40
0.7456204072450252
 50
267.0737595740396841
 51
274.2231305258662246
  0
LINE
  5
E400
  8
0
 10
4874.1102894026198555
 20
260.4475488957585867
 30
0.0
 11
4874.116912277123447
 21
260.4991384138181729
 31
0.0
  0
LINE
  5
E401
  8
0
 10
4874.0024770408708719
 20
260.4462829765059269
 30
0.0
 11
4873.9941595405225598
 21
260.4991384138181729
 31
0.0
  0
LINE
  5
E402
  8
0
 10
4873.9250044407099267
 20
260.4468686567631153
 30
0.0
 11
4873.9169752449861335
 21
260.4991384138181729
 31
0.0
  0
LINE
  5
E403
  8
0
 10
4873.8775942731208488
 20
260.4469245776587059
 30
0.0
 11
4873.8699510367860057
 21
260.4991384138181729
 31
0.0
  0
LINE
  5
E404
  8
0
 10
4873.8226304625222838
 20
260.4469245776587059
 30
0.0
 11
4873.8302736988571269
 21
260.4991384138181729
 31
0.0
  0
LINE
  5
E405
  8
0
 10
4873.7147614212926783
 20
260.4469245776559205
 30
0.0
 11
4873.7071181849378263
 21
260.4991384138181729
 31
0.0
  0
LINE
  5
E406
  8
0
 10
4873.8855099141219398
 20
260.4400832957181819
 30
0.0
 11
4874.0074476340623733
 21
260.4400832957181819
 31
0.0
  0
ARC
  5
E407
  8
0
 10
4874.1023545207908683
 20
260.4485675469987882
 30
0.0
 40
0.008
 50
274.2231305255525058
 51
352.6845885085235182
  0
ARC
  5
E408
  8
0
 10
4874.0103797906604086
 20
260.4475265784407725
 30
0.0
 40
0.008
 50
188.9429097304845016
 51
267.0737595743527208
  0
ARC
  5
E409
  8
0
 10
4873.9329116938488369
 20
260.4480832957181065
 30
0.0
 40
0.008
 50
188.7329850816865928
 51
270.0
  0
ARC
  5
E40A
  8
0
 10
4873.8855099141219398
 20
260.4480832957181065
 30
0.0
 40
0.008
 50
188.3280000096451943
 51
270.0
  0
LINE
  5
E40B
  8
0
 10
4873.8147148215211928
 20
260.4400832957181251
 30
0.0
 11
4873.7226770622928598
 21
260.4400832957181251
 31
0.0
  0
ARC
  5
E40C
  8
0
 10
4873.8147148215211928
 20
260.4480832957181065
 30
0.0
 40
0.008
 50
270.0
 51
351.6719999903095868
  0
ARC
  5
E40D
  8
0
 10
4873.7226770622928598
 20
260.4480832957181065
 30
0.0
 40
0.008
 50
188.3280000299606058
 51
270.0
  0
LINE
  5
E40E
  8
0
 10
4874.9508702976736458
 20
260.4400832957181251
 30
0.0
 11
4875.0429080570011138
 21
260.4400832957181251
 31
0.0
  0
LINE
  5
E40F
  8
0
 10
4874.9429546566716454
 20
260.4469245776559205
 30
0.0
 11
4874.9353114203186124
 21
260.4991384138181729
 31
0.0
  0
LINE
  5
E410
  8
0
 10
4875.0508236980049332
 20
260.4469245776734851
 30
0.0
 11
4875.0584669342379129
 21
260.4991384138181729
 31
0.0
  0
ARC
  5
E411
  8
0
 10
4874.9508702976736458
 20
260.4480832957181065
 30
0.0
 40
0.008
 50
188.3280000300115944
 51
270.0
  0
ARC
  5
E412
  8
0
 10
4875.0429080570011138
 20
260.4480832957181065
 30
0.0
 40
0.008
 50
270.0
 51
351.6720000976154097
  0
LINE
  5
E413
  8
0
 10
4874.8081713803048842
 20
260.4400832957181819
 30
0.0
 11
4874.6952648852929997
 21
260.4400832957181819
 31
0.0
  0
LINE
  5
E414
  8
0
 10
4874.8160870213077942
 20
260.4469245776713251
 30
0.0
 11
4874.8237302575553258
 21
260.4991384138181729
 31
0.0
  0
ARC
  5
E415
  8
0
 10
4874.8081713803048842
 20
260.4480832957181065
 30
0.0
 40
0.008
 50
270.0
 51
351.6720000818716017
  0
LINE
  5
E416
  8
0
 10
4875.3992072275277678
 20
260.4460364977413747
 30
0.0
 11
4875.3905813523551842
 21
260.4991384138181729
 31
0.0
  0
ARC
  5
E417
  8
0
 10
4875.4071037244029867
 20
260.4473192046825716
 30
0.0
 40
0.008
 50
189.2265368284114118
 51
271.0135148363629014
  0
LINE
  5
E418
  8
0
 10
4875.5654396138033917
 20
260.4400832957181251
 30
0.0
 11
4875.6574773731299501
 21
260.4400832957181251
 31
0.0
  0
LINE
  5
E419
  8
0
 10
4875.5575239728013912
 20
260.4469245776559205
 30
0.0
 11
4875.5498807364474487
 21
260.4991384138181729
 31
0.0
  0
LINE
  5
E41A
  8
0
 10
4875.6653930141337696
 20
260.4469245776734851
 30
0.0
 11
4875.6730362503667493
 21
260.4991384138181729
 31
0.0
  0
ARC
  5
E41B
  8
0
 10
4875.5654396138033917
 20
260.4480832957181065
 30
0.0
 40
0.008
 50
188.3280000300115944
 51
270.0
  0
ARC
  5
E41C
  8
0
 10
4875.6574773731299501
 20
260.4480832957181065
 30
0.0
 40
0.008
 50
270.0
 51
351.6720000976154097
  0
LINE
  5
E41D
  8
0
 10
4867.203097254655404
 20
215.877091169818101
 30
0.0
 11
4867.203097254655404
 21
213.9087195069853067
 31
0.0
  0
LINE
  5
E41E
  8
0
 10
4871.552712634584168
 20
212.2707919572181083
 30
0.0
 11
4872.3023010281267489
 21
212.2707919572181083
 31
0.0
  0
LINE
  5
E41F
  8
0
 10
4871.4829972778834417
 20
213.6881147918180943
 30
0.0
 11
4872.3720163848283846
 21
213.6881147918180943
 31
0.0
  0
LINE
  5
E420
  8
0
 10
4871.4648980753554497
 20
213.7786659729181054
 30
0.0
 11
4872.3901155873545576
 21
213.7786659729181054
 31
0.0
  0
LINE
  5
E421
  8
0
 10
4871.4751041266063112
 20
213.6798859105151109
 30
0.0
 11
4871.5330297130440158
 21
212.28967183548761
 31
0.0
  0
ARC
  5
E422
  8
0
 10
4871.552712634584168
 20
212.2904919572181086
 30
0.0
 40
0.0197
 50
182.3859440295090906
 51
270.0
  0
LINE
  5
E423
  8
0
 10
4872.3901155873545576
 20
213.7786659729181054
 30
0.0
 11
4872.3901155873545576
 21
213.9166002457224067
 31
0.0
  0
ARC
  5
E424
  8
0
 10
4872.3074177604548822
 20
213.758980933518103
 30
0.0
 40
0.0196850394000094
 50
90.0000330747137269
 51
180.0000000000212026
  0
LINE
  5
E425
  8
0
 10
4872.2877327210553631
 20
213.758980933518103
 30
0.0
 11
4872.2877327210553631
 21
213.7196258154181123
 31
0.0
  0
LINE
  5
E426
  8
0
 10
4872.3799095361064246
 20
213.6798859105149972
 30
0.0
 11
4872.3219839496659915
 21
212.28967183548761
 31
0.0
  0
ARC
  5
E427
  8
0
 10
4872.3720163848283846
 20
213.6802147918182015
 30
0.0
 40
0.0079
 50
357.6140559704110728
 51
90.0000000000521254
  0
ARC
  5
E428
  8
0
 10
4872.3023010281267489
 20
212.2904919572181086
 30
0.0
 40
0.0197
 50
270.0
 51
357.614055970490881
  0
LINE
  5
E429
  8
0
 10
4871.514976815555201
 20
213.6999258154181121
 30
0.0
 11
4872.3400368471548063
 21
213.6999258154181121
 31
0.0
  0
ARC
  5
E42A
  8
0
 10
4872.3074327210551928
 20
213.7196258154181123
 30
0.0
 40
0.0197
 50
180.0000000000048885
 51
269.9999999999478746
  0
LINE
  5
E42B
  8
0
 10
4872.3400368471548063
 20
213.6881147918180943
 30
0.0
 11
4872.3400368471548063
 21
213.6999258154181121
 31
0.0
  0
ARC
  5
E42C
  8
0
 10
4871.5475959022560346
 20
213.758980933518103
 30
0.0
 40
0.0196850394000094
 50
359.9999999999789111
 51
89.9999669252862731
  0
LINE
  5
E42D
  8
0
 10
4871.5672809416555538
 20
213.758980933518103
 30
0.0
 11
4871.5672809416555538
 21
213.7196258154181123
 31
0.0
  0
ARC
  5
E42E
  8
0
 10
4871.5475809416548145
 20
213.7196258154181123
 30
0.0
 40
0.0197
 50
270.0000000000521254
 51
359.9999999999951115
  0
LINE
  5
E42F
  8
0
 10
4871.514976815555201
 20
213.6881147918180943
 30
0.0
 11
4871.514976815555201
 21
213.6999258154181121
 31
0.0
  0
ARC
  5
E430
  8
0
 10
4871.4829972778834417
 20
213.6802147918182015
 30
0.0
 40
0.0079
 50
89.9999999999478888
 51
182.3859440295888135
  0
LINE
  5
E431
  8
0
 10
4871.4648980753554497
 20
213.7786659729181054
 30
0.0
 11
4871.4648980753554497
 21
213.9166002574453955
 31
0.0
  0
ARC
  5
E432
  8
0
 10
4871.9275068203660339
 20
213.0493007171895101
 30
0.0
 40
0.9829625341225199
 50
61.0217424459244313
 51
118.9875357287450015
  0
LINE
  5
E433
  8
0
 10
4877.6301772148499367
 20
212.2240359493987114
 30
0.0
 11
4877.6301772148499367
 21
215.7001497383425885
 31
0.0
  0
LINE
  5
E434
  8
0
 10
4876.6228852903750521
 20
215.8611676239470114
 30
0.0
 11
4877.6046574950969443
 21
215.8611676239470114
 31
0.0
  0
LINE
  5
E435
  8
0
 10
4876.2916801876554018
 20
215.4626874703924955
 30
0.0
 11
4876.2916801876554018
 21
213.8878110433182087
 31
0.0
  0
ARC
  5
E436
  8
0
 10
4876.6457125949100373
 20
215.4542856629880134
 30
0.0
 40
0.3541320880031961
 50
172.6862525443652885
 51
178.6405262532242944
  0
ARC
  5
E437
  8
0
 10
4876.6139499738119412
 20
215.4583622949658093
 30
0.0
 40
0.322108924086844
 50
165.9151764965149027
 51
172.6862525443652885
  0
ARC
  5
E438
  8
0
 10
4876.5879369951499029
 20
215.4648889790258011
 30
0.0
 40
0.2952896648937027
 50
146.4831021483637983
 51
165.9151764965149027
  0
ARC
  5
E439
  8
0
 10
4876.9112680045918751
 20
215.2507436922763873
 30
0.0
 40
0.6831055303545707
 50
136.7095450207623912
 51
146.4831021483637983
  0
ARC
  5
E43A
  8
0
 10
4877.5107353052899271
 20
214.6860228066043135
 30
0.0
 40
1.5066774600127231
 50
132.2951243759609952
 51
136.7095450207623912
  0
ARC
  5
E43B
  8
0
 10
4876.661125390342022
 20
215.6198915442473947
 30
0.0
 40
0.2441609940911577
 50
117.3267759819214007
 51
132.2951243759609952
  0
ARC
  5
E43C
  8
0
 10
4876.6622839335514072
 20
215.617649479364502
 30
0.0
 40
0.2466846971845686
 50
99.190212264283133
 51
117.3267759819214007
  0
LINE
  5
E43D
  8
0
 10
4876.3639467056937065
 20
213.8878110433182087
 30
0.0
 11
4876.2916801876554018
 21
213.8878110433182087
 31
0.0
  0
ARC
  5
E43E
  8
0
 10
4877.0060393249668778
 20
202.7766908477736081
 30
0.0
 40
11.1296574489767295
 50
91.7148598104604815
 51
93.3073466954956672
  0
ARC
  5
E43F
  8
0
 10
4876.750204756634048
 20
211.3219163574179902
 30
0.0
 40
2.580603095597517
 50
86.5968025590013184
 51
91.7148598104604815
  0
ARC
  5
E440
  8
0
 10
4876.8297647998833781
 20
212.6598030846764971
 30
0.0
 40
1.2403528594638791
 50
78.2658948409519724
 51
86.5968025590013184
  0
ARC
  5
E441
  8
0
 10
4876.9872580091077907
 20
213.4180358593239077
 30
0.0
 40
0.4659362716369986
 50
57.499818419228113
 51
78.2658948409519724
  0
ARC
  5
E442
  8
0
 10
4877.1119028047796746
 20
213.6136876290372015
 30
0.0
 40
0.2339536428047223
 50
10.0422752319897803
 51
57.4998184192272532
  0
ARC
  5
E443
  8
0
 10
4874.7542938655706166
 20
213.1961837020309076
 30
0.0
 40
2.6282446525417229
 50
2.6871966798910099
 51
10.0422752319897803
  0
ARC
  5
E444
  8
0
 10
4853.5013315317128217
 20
212.1986791415571929
 30
0.0
 40
23.9046029714020598
 50
0.9716690522088891
 51
2.6871966798910099
  0
ARC
  5
E445
  8
0
 10
4878.781102896129596
 20
212.6274354444333881
 30
0.0
 40
1.3788040815335989
 50
180.9716690522089095
 51
188.8699347795368908
  0
ARC
  5
E446
  8
0
 10
4881.3284321452256336
 20
213.0249672154718041
 30
0.0
 40
3.956965793352464
 50
188.8699347795368908
 51
192.41349924975151
  0
ARC
  5
E447
  8
0
 10
4877.8167714926748886
 20
212.2520111369809115
 30
0.0
 40
0.361243106888865
 50
192.41349924975151
 51
210.7943959502352129
  0
ARC
  5
E448
  8
0
 10
4878.2200425335204272
 20
212.4923554677430957
 30
0.0
 40
0.8307033604926674
 50
210.7943959502352129
 51
213.3664760612913085
  0
ARC
  5
E449
  8
0
 10
4877.5929554154563448
 20
212.0793939313134047
 30
0.0
 40
0.0798535191716658
 50
213.3664760612913085
 51
235.8864789811950118
  0
ARC
  5
E44A
  8
0
 10
4877.6045481749488317
 20
212.0965076648014076
 30
0.0
 40
0.1005240766518155
 50
235.8864789811950118
 51
244.4315315944340057
  0
ARC
  5
E44B
  8
0
 10
4877.7235253978260516
 20
212.4348389972022062
 30
0.0
 40
0.4587069425930865
 50
249.2704900754422965
 51
255.0001403447664927
  0
ARC
  5
E44C
  8
0
 10
4877.6020229670057233
 20
212.0138037693758974
 30
0.0
 40
0.0222167431917786
 50
277.1920119827212261
 51
349.9085452472779139
  0
ARC
  5
E44D
  8
0
 10
4876.3644512202818078
 20
212.1105379390124028
 30
0.0
 40
1.263458328832729
 50
355.4318918577121167
 51
359.4764499343272064
  0
ARC
  5
E44E
  8
0
 10
4929.3544433522811232
 20
211.2016492846937865
 30
0.0
 40
51.734369445735453
 50
178.8676337385807074
 51
179.0061425626028893
  0
ARC
  5
E44F
  8
0
 10
4870.3745066359579141
 20
215.5103896918961937
 30
0.0
 40
7.2581515845714266
 50
1.498134703216855
 51
2.3408436719219199
  0
ARC
  5
E450
  8
0
 10
4877.2244140502598384
 20
215.7904014130091923
 30
0.0
 40
0.402523374956202
 50
2.3408436719219199
 51
7.43952911963573
  0
ARC
  5
E451
  8
0
 10
4877.601554712550751
 20
215.839648039987992
 30
0.0
 40
0.0221810167812562
 50
7.43952911963573
 51
44.4774026827580826
  0
ARC
  5
E452
  8
0
 10
4877.6029612093798278
 20
215.8410291105861916
 30
0.0
 40
0.0202098269567163
 50
44.4774026827580826
 51
85.185288271263758
  0
ARC
  5
E453
  8
0
 10
4876.829194852100045
 20
214.2806442527640058
 30
0.0
 40
0.1972798127043828
 50
227.8165805621353002
 51
283.9613447393538195
  0
ARC
  5
E454
  8
0
 10
4876.8550070765086275
 20
214.1768187171182944
 30
0.0
 40
0.0902937725818752
 50
283.9613447393538195
 51
309.6413186905767247
  0
ARC
  5
E455
  8
0
 10
4876.8799376398701497
 20
214.1467270528711992
 30
0.0
 40
0.0512163974569254
 50
309.6413186905767247
 51
27.972290962920809
  0
ARC
  5
E456
  8
0
 10
4876.7667892355366348
 20
214.0877999170976125
 30
0.0
 40
0.1787885950311529
 50
27.6426278765609403
 51
81.3740241041341363
  0
ARC
  5
E457
  8
0
 10
4876.7813187650253894
 20
214.1462852364782066
 30
0.0
 40
0.1189172579032157
 50
84.0699579537754431
 51
135.3297760186327139
  0
ARC
  5
E458
  8
0
 10
4876.7457845476128568
 20
214.1821588180530114
 30
0.0
 40
0.0684285935791474
 50
135.7740409510967083
 51
224.1914421473337882
  0
LINE
  5
E459
  8
0
 10
4871.1401052565552163
 20
216.642839201318111
 30
0.0
 11
4872.7149084062548354
 21
216.642839201318111
 31
0.0
  0
LINE
  5
E45A
  8
0
 10
4871.1598052565550461
 20
217.861343138318091
 30
0.0
 11
4872.6952084062559152
 21
217.861343138318091
 31
0.0
  0
LINE
  5
E45B
  8
0
 10
4871.1401052565552163
 20
217.2333903824180936
 30
0.0
 11
4872.7149084062548354
 21
217.2333903824180936
 31
0.0
  0
LINE
  5
E45C
  8
0
 10
4871.1401052565552163
 20
217.2629179414180953
 30
0.0
 11
4872.7149084062548354
 21
217.2629179414180953
 31
0.0
  0
LINE
  5
E45D
  8
0
 10
4871.1401052565552163
 20
216.6133117082165995
 30
0.0
 11
4871.1401052565552163
 21
216.642839201318111
 31
0.0
  0
LINE
  5
E45E
  8
0
 10
4871.1401052565552163
 20
216.652639201318209
 30
0.0
 11
4871.1401052565552163
 21
217.2235903824181094
 31
0.0
  0
LINE
  5
E45F
  8
0
 10
4871.1401052565552163
 20
217.2333903824180936
 30
0.0
 11
4871.1401052565552163
 21
217.2629179414180953
 31
0.0
  0
LINE
  5
E460
  8
0
 10
4871.1401052565552163
 20
217.2826179414180956
 30
0.0
 11
4871.1401052565552163
 21
217.8416431383180907
 31
0.0
  0
ARC
  5
E461
  8
0
 10
4869.6993651720549678
 20
216.6102876784300975
 30
0.0
 40
1.440743258128685
 50
346.3603403886706928
 51
0.1202574866145477
  0
ARC
  5
E462
  8
0
 10
4870.102355566852566
 20
216.5124987195152073
 30
0.0
 40
1.026057908996558
 50
335.2881647902675013
 51
346.3603403886706928
  0
ARC
  5
E463
  8
0
 10
4870.5998115602287726
 20
216.2835700202473106
 30
0.0
 40
0.4784532936990093
 50
317.7923484035792967
 51
335.2881647902660802
  0
ARC
  5
E464
  8
0
 10
4870.7573162449325537
 20
216.1407151606541959
 30
0.0
 40
0.2658145469644398
 50
291.5103414185043107
 51
317.7923484035792967
  0
ARC
  5
E465
  8
0
 10
4870.7717910295177717
 20
216.1039882202773867
 30
0.0
 40
0.2263381294692031
 50
278.2599925889696806
 51
291.5103414185043107
  0
ARC
  5
E466
  8
0
 10
4870.7520181047748338
 20
216.2401924279701007
 30
0.0
 40
0.363970083411888
 50
273.9596557904762903
 51
278.2599925889696806
  0
ARC
  5
E467
  8
0
 10
4871.1598052565550461
 20
217.2826179414180956
 30
0.0
 40
0.0197
 50
180.0
 51
270.0
  0
ARC
  5
E468
  8
0
 10
4871.1499052565550301
 20
217.2235903824181094
 30
0.0
 40
0.0098
 50
90.0
 51
180.0
  0
ARC
  5
E469
  8
0
 10
4871.1499052565550301
 20
216.652639201318209
 30
0.0
 40
0.0098
 50
180.0000000000098055
 51
270.0
  0
ARC
  5
E46A
  8
0
 10
4871.1598052565550461
 20
217.8416431383180907
 30
0.0
 40
0.0197
 50
90.0
 51
180.0
  0
LINE
  5
E46B
  8
0
 10
4872.7149084062548354
 20
216.6133117082165995
 30
0.0
 11
4872.7149084062548354
 21
216.642839201318111
 31
0.0
  0
LINE
  5
E46C
  8
0
 10
4872.7149084062548354
 20
216.652639201318209
 30
0.0
 11
4872.7149084062548354
 21
217.2235903824181094
 31
0.0
  0
LINE
  5
E46D
  8
0
 10
4872.7149084062548354
 20
217.2333903824180936
 30
0.0
 11
4872.7149084062548354
 21
217.2629179414180953
 31
0.0
  0
LINE
  5
E46E
  8
0
 10
4872.7149084062548354
 20
217.2826179414180956
 30
0.0
 11
4872.7149084062548354
 21
217.8416431383180907
 31
0.0
  0
ARC
  5
E46F
  8
0
 10
4874.1556484907559934
 20
216.6102876784300975
 30
0.0
 40
1.440743258128685
 50
179.8797425133853949
 51
193.6396596113293072
  0
ARC
  5
E470
  8
0
 10
4873.7526580959583953
 20
216.5124987195152073
 30
0.0
 40
1.026057908996558
 50
193.6396596113293072
 51
204.7118352097324134
  0
ARC
  5
E471
  8
0
 10
4873.2552021025812792
 20
216.2835700202473106
 30
0.0
 40
0.4784532936990093
 50
204.7118352097338914
 51
222.2076515964207886
  0
ARC
  5
E472
  8
0
 10
4873.0976974178765886
 20
216.1407151606541959
 30
0.0
 40
0.2658145469644398
 50
222.2076515964207886
 51
248.4896585814956893
  0
ARC
  5
E473
  8
0
 10
4873.0832226332922801
 20
216.1039882202773867
 30
0.0
 40
0.2263381294692031
 50
248.4896585814956893
 51
261.7400074110303194
  0
ARC
  5
E474
  8
0
 10
4873.102995558035218
 20
216.2401924279701007
 30
0.0
 40
0.363970083411888
 50
261.7400074110303194
 51
266.040344209523596
  0
ARC
  5
E475
  8
0
 10
4872.6952084062559152
 20
217.2826179414180956
 30
0.0
 40
0.0197
 50
270.0
 51
0.0
  0
ARC
  5
E476
  8
0
 10
4872.7051084062550217
 20
217.2235903824181094
 30
0.0
 40
0.0098
 50
0.0
 51
90.0
  0
ARC
  5
E477
  8
0
 10
4872.7051084062550217
 20
216.652639201318209
 30
0.0
 40
0.0098
 50
270.0
 51
359.9999999999885745
  0
ARC
  5
E478
  8
0
 10
4872.6952084062559152
 20
217.8416431383180907
 30
0.0
 40
0.0197
 50
0.0
 51
90.0
  0
LINE
  5
E479
  8
0
 10
4871.4353808471551019
 20
218.562130539818213
 30
0.0
 11
4872.4196328156549498
 21
218.562130539818213
 31
0.0
  0
LINE
  5
E47A
  8
0
 10
4871.4550658864545767
 20
217.9440203036182027
 30
0.0
 11
4872.3999477763545656
 21
217.9440203036182027
 31
0.0
  0
LINE
  5
E47B
  8
0
 10
4871.4550658864545767
 20
218.4164612485182033
 30
0.0
 11
4871.4353808471551019
 21
218.4361462879182056
 31
0.0
  0
LINE
  5
E47C
  8
0
 10
4871.4550658864545767
 20
217.9440203036182027
 30
0.0
 11
4871.4550658864545767
 21
218.4164612485182033
 31
0.0
  0
LINE
  5
E47D
  8
0
 10
4871.5633336030550709
 20
217.861343138318091
 30
0.0
 11
4871.5633336030550709
 21
217.9440203036182027
 31
0.0
  0
LINE
  5
E47E
  8
0
 10
4871.4353808471551019
 20
218.4361462879182056
 30
0.0
 11
4871.4353808471551019
 21
218.5423305398180958
 31
0.0
  0
ARC
  5
E47F
  8
0
 10
4871.4551808471560435
 20
218.5423305398180958
 30
0.0
 40
0.0198
 50
90.0
 51
180.0000000000048885
  0
LINE
  5
E480
  8
0
 10
4872.3999477763545656
 20
218.4164612485182033
 30
0.0
 11
4872.4196328156549498
 21
218.4361462879182056
 31
0.0
  0
LINE
  5
E481
  8
0
 10
4872.3999477763545656
 20
217.9440203036182027
 30
0.0
 11
4872.3999477763545656
 21
218.4164612485182033
 31
0.0
  0
LINE
  5
E482
  8
0
 10
4872.2916800597549809
 20
217.861343138318091
 30
0.0
 11
4872.2916800597549809
 21
217.9440203036182027
 31
0.0
  0
LINE
  5
E483
  8
0
 10
4872.4196328156549498
 20
218.4361462879182056
 30
0.0
 11
4872.4196328156549498
 21
218.5423305398180958
 31
0.0
  0
ARC
  5
E484
  8
0
 10
4872.3998328156549178
 20
218.5423305398180958
 30
0.0
 40
0.0198
 50
359.9999999999951115
 51
90.0
  0
LINE
  5
E485
  8
0
 10
4871.79955407545458
 20
216.652639201318209
 30
0.0
 11
4871.79955407545458
 21
217.2235903824181094
 31
0.0
  0
LINE
  5
E486
  8
0
 10
4872.0554595872554273
 20
216.652639201318209
 30
0.0
 11
4872.0554595872554273
 21
217.2235903824181094
 31
0.0
  0
ARC
  5
E487
  8
0
 10
4871.8093540754553032
 20
216.652639201318209
 30
0.0
 40
0.0098
 50
180.0000000000098055
 51
270.0
  0
ARC
  5
E488
  8
0
 10
4872.0456595872547041
 20
216.652639201318209
 30
0.0
 40
0.0098
 50
270.0
 51
359.9999999999885745
  0
ARC
  5
E489
  8
0
 10
4871.8093540754553032
 20
217.2235903824181094
 30
0.0
 40
0.0098
 50
90.0
 51
179.9999999999886029
  0
ARC
  5
E48A
  8
0
 10
4872.0456595872547041
 20
217.2235903824181094
 30
0.0
 40
0.0098
 50
0.0
 51
90.0
  0
ARC
  5
E48B
  8
0
 10
4873.5944471280317885
 20
210.8750067300871933
 30
0.0
 40
1.7981560101462351
 50
203.05736141113141
 51
248.0461188363626945
  0
ARC
  5
E48C
  8
0
 10
4873.7001161540802059
 20
211.8542113972453933
 30
0.0
 40
2.758914466681214
 50
253.622253462343906
 51
267.9167210382286157
  0
ARC
  5
E48D
  8
0
 10
4873.575655625926629
 20
212.7549444530052938
 30
0.0
 40
3.6579038472497492
 50
270.3785640631667206
 51
292.3982849748563808
  0
ARC
  5
E48E
  8
0
 10
4871.2872424668948952
 20
215.9236287843883986
 30
0.0
 40
7.5146211658689372
 50
299.3411619370899075
 51
335.5167543171472744
  0
ARC
  5
E48F
  8
0
 10
4866.2945048663323178
 20
217.9363209382177047
 30
0.0
 40
12.8947242186718807
 50
336.5717099724739114
 51
5.3628221265607783
  0
ARC
  5
E490
  8
0
 10
4843.3909428062343068
 20
216.2193350453443088
 30
0.0
 40
35.8610985968613178
 50
4.673952441167593
 51
15.2537968219058495
  0
ARC
  5
E491
  8
0
 10
4780.012086105569324
 20
199.076375390147092
 30
0.0
 40
101.517431432958702
 50
15.1772321202454492
 51
19.4066667212371797
  0
ARC
  5
E492
  8
0
 10
4949.7897378035759175
 20
257.6134405965141809
 30
0.0
 40
78.0735329463929588
 50
196.0022904425009926
 51
198.5252942624182992
  0
ARC
  5
E493
  8
0
 10
4887.641633437739074
 20
239.9397890409742899
 30
0.0
 40
13.4621971631794999
 50
184.4891074954213082
 51
196.6148234425405121
  0
ARC
  5
E494
  8
0
 10
4884.1136432150688051
 20
239.3705500467634977
 30
0.0
 40
10.4752984085561405
 50
182.688253715402908
 51
196.3751684626728888
  0
ARC
  5
E495
  8
0
 10
4651.790362711839407
 20
171.1034850145802011
 30
0.0
 40
231.6703165257029866
 50
15.8695265055805397
 51
16.3751684626728995
  0
ARC
  5
E496
  8
0
 10
4924.547247023185264
 20
248.6435104061635002
 30
0.0
 40
51.8940914611956998
 50
195.8695265055804953
 51
200.3612944609382964
  0
ARC
  5
E497
  8
0
 10
4840.1563665612320619
 20
217.3237011397260119
 30
0.0
 40
38.1211914502616125
 50
14.4141505119488507
 51
20.3612944609382893
  0
ARC
  5
E498
  8
0
 10
4702.3120677837787298
 20
181.8950102636754025
 30
0.0
 40
180.4456195806363894
 50
13.0844063637024099
 51
14.4141505119488507
  0
ARC
  5
E499
  8
0
 10
4858.4603502256259162
 20
218.187057966399891
 30
0.0
 40
20.1352991518031104
 50
0.737602850231867
 51
13.0844063637024099
  0
ARC
  5
E49A
  8
0
 10
4862.513456239329571
 20
218.2392389077955102
 30
0.0
 40
16.0818572552197097
 50
346.3299222638863171
 51
0.737602850231867
  0
ARC
  5
E49B
  8
0
 10
4869.3073365384270801
 20
217.028290801695988
 30
0.0
 40
9.2042462327777823
 50
327.3759383393623921
 51
331.5725037842298093
  0
ARC
  5
E49C
  8
0
 10
4869.3073365384270801
 20
217.028290801695988
 30
0.0
 40
9.2042462327777823
 50
334.7210164423880769
 51
343.6587246831696234
  0
ARC
  5
E49D
  8
0
 10
4871.4608631655119098
 20
215.6154228905529067
 30
0.0
 40
6.6288413834203244
 50
306.2402327407847906
 51
327.6260374217167168
  0
ARC
  5
E49E
  8
0
 10
4873.18475472103637
 20
213.3203612141398082
 30
0.0
 40
3.758803617264447
 50
285.7595178852046729
 51
305.7277499758602062
  0
ARC
  5
E49F
  8
0
 10
4873.7299809422202088
 20
211.2895676050110012
 30
0.0
 40
1.6564809966276519
 50
244.0318689210160983
 51
286.6876801722733035
  0
ARC
  5
E4A0
  8
0
 10
4873.8061922711722218
 20
211.0904396356883126
 30
0.0
 40
1.5188308537148809
 50
190.1075949775774063
 51
238.1476157840388055
  0
ARC
  5
E4A1
  8
0
 10
4875.7877900113962824
 20
211.6586030710080024
 30
0.0
 40
3.5756505338340272
 50
178.784501334764002
 51
193.4999175973960917
  0
ARC
  5
E4A2
  8
0
 10
4876.1748384236780112
 20
215.4292078359927132
 30
0.0
 40
0.3771955414657574
 50
75.4044899472423396
 51
89.2956381114499038
  0
ARC
  5
E4A3
  8
0
 10
4875.906422946614839
 20
214.3984138049862054
 30
0.0
 40
1.442363698465273
 50
68.5177341741210455
 51
75.4044899472423396
  0
ARC
  5
E4A4
  8
0
 10
4876.1808454703550524
 20
214.2944140044187122
 30
0.0
 40
0.3149606299005696
 50
269.7507523475978815
 51
281.2910180742155148
  0
ARC
  5
E4A5
  8
0
 10
4876.0613717705682575
 20
214.8928096514075037
 30
0.0
 40
0.9251665912579968
 50
281.2910180742155148
 51
284.4146323999946162
  0
LINE
  5
E4A6
  8
0
 10
4876.1794753354051863
 20
214.9715793587180883
 30
0.0
 11
4876.2188455419563979
 21
214.9715793587180883
 31
0.0
  0
LINE
  5
E4A7
  8
0
 10
4876.2188455419563979
 20
214.9715793587180883
 30
0.0
 11
4876.2188455419563979
 21
214.8140990438180893
 31
0.0
  0
LINE
  5
E4A8
  8
0
 10
4876.2188455419563979
 20
214.8140990438180893
 30
0.0
 11
4876.1794753354051863
 21
214.8140990438180893
 31
0.0
  0
ENDSEC
  0
EOF
