  0
SECTION
  2
HEADER
  9
$ACADVER
  1
AC1009
  9
$INSBASE
 10
3456.8105815228650499
 20
150.9869369147351961
 30
0.0
  9
$EXTMIN
 10
3449.9606524667619851
 20
129.5648789294909875
 30
-0.0000000000000058
  9
$EXTMAX
 10
3465.2078151915889066
 20
184.0597064201679984
 30
0.0000000000000104
  9
$LIMMIN
 10
0.0
 20
0.0
  9
$LIMMAX
 10
11.6929133858000007
 20
8.2677165353999982
  9
$ORTHOMODE
 70
     0
  9
$REGENMODE
 70
     1
  9
$FILLMODE
 70
     1
  9
$QTEXTMODE
 70
     0
  9
$MIRRTEXT
 70
     0
  9
$DRAGMODE
 70
     2
  9
$LTSCALE
 40
0.6431102362
  9
$OSMODE
 70
  4095
  9
$ATTMODE
 70
     1
  9
$TEXTSIZE
 40
0.2
  9
$TRACEWID
 40
0.05
  9
$TEXTSTYLE
  7
STANDARD
  9
$CLAYER
  8
0
  9
$CELTYPE
  6
BYLAYER
  9
$CECOLOR
 62
   256
  9
$DIMSCALE
 40
1.0
  9
$DIMASZ
 40
0.1875
  9
$DIMEXO
 40
0.0625
  9
$DIMDLI
 40
0.4443307087
  9
$DIMRND
 40
0.0
  9
$DIMDLE
 40
0.0
  9
$DIMEXE
 40
0.125
  9
$DIMTP
 40
0.01
  9
$DIMTM
 40
0.01
  9
$DIMTXT
 40
2.0
  9
$DIMCEN
 40
0.1052362205
  9
$DIMTSZ
 40
0.0
  9
$DIMTOL
 70
     1
  9
$DIMLIM
 70
     0
  9
$DIMTIH
 70
     1
  9
$DIMTOH
 70
     1
  9
$DIMSE1
 70
     0
  9
$DIMSE2
 70
     0
  9
$DIMTAD
 70
     0
  9
$DIMZIN
 70
     0
  9
$DIMBLK
  1

  9
$DIMASO
 70
     1
  9
$DIMSHO
 70
     1
  9
$DIMPOST
  1
\X
  9
$DIMAPOST
  1

  9
$DIMALT
 70
     1
  9
$DIMALTD
 70
     2
  9
$DIMALTF
 40
25.3999999999999986
  9
$DIMLFAC
 40
1.0
  9
$DIMTOFL
 70
     0
  9
$DIMTVP
 40
0.0
  9
$DIMTIX
 70
     0
  9
$DIMSOXD
 70
     0
  9
$DIMSAH
 70
     0
  9
$DIMBLK1
  1

  9
$DIMBLK2
  1

  9
$DIMSTYLE
  2
STANDARD
  9
$DIMCLRD
 70
     0
  9
$DIMCLRE
 70
     0
  9
$DIMCLRT
 70
     0
  9
$DIMTFAC
 40
1.0
  9
$DIMGAP
 40
0.09
  9
$LUNITS
 70
     2
  9
$LUPREC
 70
     4
  9
$SKETCHINC
 40
0.1
  9
$FILLETRAD
 40
0.0
  9
$AUNITS
 70
     0
  9
$AUPREC
 70
     0
  9
$MENU
  1
.
  9
$ELEVATION
 40
0.0
  9
$PELEVATION
 40
0.0
  9
$THICKNESS
 40
0.0
  9
$LIMCHECK
 70
     0
  9
$BLIPMODE
 70
     0
  9
$CHAMFERA
 40
0.0
  9
$CHAMFERB
 40
0.0
  9
$SKPOLY
 70
     0
  9
$TDCREATE
 40
2458060.468368056230247
  9
$TDUPDATE
 40
2459675.7345949080772698
  9
$TDINDWG
 40
0.6818704861
  9
$TDUSRTIMER
 40
0.6818704861
  9
$USRTIMER
 70
     1
  9
$ANGBASE
 50
0.0
  9
$ANGDIR
 70
     0
  9
$PDMODE
 70
     0
  9
$PDSIZE
 40
0.3125
  9
$PLINEWID
 40
0.0
  9
$COORDS
 70
     1
  9
$SPLFRAME
 70
     0
  9
$SPLINETYPE
 70
     6
  9
$SPLINESEGS
 70
     8
  9
$ATTDIA
 70
     1
  9
$ATTREQ
 70
     1
  9
$HANDLING
 70
     1
  9
$HANDSEED
  5
2FCC0
  9
$SURFTAB1
 70
     6
  9
$SURFTAB2
 70
     6
  9
$SURFTYPE
 70
     6
  9
$SURFU
 70
     6
  9
$SURFV
 70
     6
  9
$UCSNAME
  2

  9
$UCSORG
 10
0.0
 20
0.0
 30
0.0
  9
$UCSXDIR
 10
1.0
 20
0.0
 30
0.0
  9
$UCSYDIR
 10
0.0
 20
1.0
 30
0.0
  9
$PUCSNAME
  2

  9
$PUCSORG
 10
0.0
 20
0.0
 30
0.0
  9
$PUCSXDIR
 10
1.0
 20
0.0
 30
0.0
  9
$PUCSYDIR
 10
0.0
 20
1.0
 30
0.0
  9
$USERI1
 70
     0
  9
$USERI2
 70
     0
  9
$USERI3
 70
     0
  9
$USERI4
 70
     0
  9
$USERI5
 70
     0
  9
$USERR1
 40
0.0
  9
$USERR2
 40
0.0
  9
$USERR3
 40
0.0
  9
$USERR4
 40
0.0
  9
$USERR5
 40
0.0
  9
$WORLDVIEW
 70
     1
  9
$SHADEDGE
 70
     3
  9
$SHADEDIF
 70
    70
  9
$TILEMODE
 70
     1
  9
$MAXACTVP
 70
    64
  9
$PLIMCHECK
 70
     0
  9
$PEXTMIN
 10
1.0000000000000000E+20
 20
1.0000000000000000E+20
 30
1.0000000000000000E+20
  9
$PEXTMAX
 10
-1.0000000000000000E+20
 20
-1.0000000000000000E+20
 30
-1.0000000000000000E+20
  9
$PLIMMIN
 10
0.0
 20
0.0
  9
$PLIMMAX
 10
12.0
 20
9.0
  9
$UNITMODE
 70
     0
  9
$VISRETAIN
 70
     1
  9
$PLINEGEN
 70
     0
  9
$PSLTSCALE
 70
     1
  0
ENDSEC
  0
SECTION
  2
TABLES
  0
TABLE
  2
VPORT
 70
     1
  0
VPORT
  2
*ACTIVE
 70
     0
 10
0.0
 20
0.0
 11
1.0
 21
1.0
 12
153.8911185947999911
 22
-38.4492189010582592
 13
0.0
 23
0.0
 14
1.0
 24
1.0
 15
0.0
 25
0.0
 16
0.0
 26
0.0
 36
96.5995694866707311
 17
3303.693115234375
 27
195.2615115758877096
 37
0.0
 40
54.9267547891500314
 41
2.0410052910052912
 42
50.0
 43
0.0
 44
0.0
 50
0.0
 51
0.0
 71
     0
 72
   100
 73
     1
 74
     1
 75
     0
 76
     0
 77
     0
 78
     0
  0
ENDTAB
  0
TABLE
  2
LTYPE
 70
     2
  0
LTYPE
  2
CONTINUOUS
 70
     0
  3
Solid line
 72
    65
 73
     0
 40
0.0
  0
LTYPE
  2
PHANTOM2
 70
     0
  3
___ _ _ ___ _ _ ___ _ _ ___ _ _
 72
    65
 73
     6
 40
1.25
 49
0.625
 49
-0.125
 49
0.125
 49
-0.125
 49
0.125
 49
-0.125
  0
ENDTAB
  0
TABLE
  2
LAYER
 70
     2
  0
LAYER
  2
0
 70
     0
 62
   255
  6
CONTINUOUS
  0
LAYER
  2
DEFPOINTS
 70
     0
 62
     7
  6
CONTINUOUS
  0
ENDTAB
  0
TABLE
  2
STYLE
 70
     1
  0
STYLE
  2
STANDARD
 70
     0
 40
0.0
 41
0.8
 50
0.0
 71
     0
 42
0.2
  3
txt
  4

  0
ENDTAB
  0
TABLE
  2
VIEW
 70
     0
  0
ENDTAB
  0
TABLE
  2
UCS
 70
     0
  0
ENDTAB
  0
TABLE
  2
APPID
 70
     9
  0
APPID
  2
ACAD
 70
     0
  0
APPID
  2
ACAD_MLEADERVER
 70
     0
  0
APPID
  2
ACAD_EXEMPT_FROM_CAD_STANDARDS
 70
     0
  0
APPID
  2
ACAD_NAV_VCDISPLAY
 70
     0
  0
APPID
  2
ACAECLAYERSTANDARD
 70
     0
  0
APPID
  2
ACCMTRANSPARENCY
 70
     0
  0
APPID
  2
ACAD_DSTYLE_DIMJAG
 70
     0
  0
APPID
  2
ACAD_DSTYLE_DIMTALN
 70
     0
  0
APPID
  2
ACDBATTR
 70
     0
  0
ENDTAB
  0
TABLE
  2
DIMSTYLE
 70
     1
  0
DIMSTYLE
  2
STANDARD
 70
     0
  3

  4

  5

  6

  7

 40
1.0
 41
0.1875
 42
0.0625
 43
0.38
 44
0.125
 45
0.0
 46
0.0
 47
0.01
 48
0.01
140
0.15625
141
0.09
142
0.0
143
25.3999999999999986
144
1.0
145
0.0
146
1.0
147
0.09
 71
     1
 72
     0
 73
     1
 74
     1
 75
     0
 76
     0
 77
     0
 78
     4
170
     0
171
     2
172
     0
173
     0
174
     0
175
     0
176
     0
177
     0
178
     0
  0
ENDTAB
  0
ENDSEC
  0
SECTION
  2
BLOCKS
  0
BLOCK
  8
0
  2
$MODEL_SPACE
 70
     0
 10
0.0
 20
0.0
 30
0.0
  3
$MODEL_SPACE
  1

  0
ENDBLK
  5
21
  8
0
  0
BLOCK
 67
     1
  8
0
  2
$PAPER_SPACE
 70
     0
 10
0.0
 20
0.0
 30
0.0
  3
$PAPER_SPACE
  1

  0
ENDBLK
  5
1D
 67
     1
  8
0
  0
ENDSEC
  0
SECTION
  2
ENTITIES
  0
ATTDEF
  5
27B3E
  8
DEFPOINTS
 10
3456.8067028708569524
 20
150.9909003425755998
 30
0.0
 40
0.001
  1
K-26243T-9
  3

  2
MODELNUMBER
 70
     0
1001
ACDBATTR
1070
     0
1070
     1
  0
ATTDEF
  5
27B3F
  8
DEFPOINTS
 10
3456.8067028708569524
 20
150.9892336759089062
 30
0.0
 40
0.001
  1
ALEO
  3

  2
TRADENAME
 70
     0
1001
ACDBATTR
1070
     0
1070
     1
  0
ATTDEF
  5
27B40
  8
DEFPOINTS
 10
3456.8067028708569524
 20
150.9875670092422979
 30
0.0
 40
0.001
  1
SHOWER COLUMN KIT
  3

  2
PRODUCT
 70
     0
1001
ACDBATTR
1070
     0
1070
     1
  0
LINE
  5
2F435
  8
0
 10
3456.1806681009479689
 20
165.9376955327686005
 30
0.0
 11
3457.0382749712871373
 21
165.9376955327686005
 31
0.0
  0
ARC
  5
2F436
  8
0
 10
3456.1806681009479689
 20
165.9573955327686008
 30
0.0
 40
0.0197
 50
180.0
 51
270.0
  0
LINE
  5
2F437
  8
0
 10
3456.1609681009467749
 20
167.1582255409018956
 30
0.0
 11
3456.1609681009467749
 21
165.9573955327686008
 31
0.0
  0
LINE
  5
2F438
  8
0
 10
3456.2200381797470072
 20
167.7290341154686075
 30
0.0
 11
3457.4011106206471595
 21
167.7290341154686075
 31
0.0
  0
LINE
  5
2F439
  8
0
 10
3456.2200381797470072
 20
167.256593170533904
 30
0.0
 11
3457.4011106206471595
 21
167.256593170533904
 31
0.0
  0
LINE
  5
2F43A
  8
0
 10
3456.1806681009479689
 20
167.1779105802019103
 30
0.0
 11
3457.4404806993479724
 21
167.1779105802019103
 31
0.0
  0
LINE
  5
2F43B
  8
0
 10
3456.2593932978470548
 20
167.2565931706687081
 30
0.0
 11
3456.2593932978470548
 21
167.1779105802019103
 31
0.0
  0
LINE
  5
2F43C
  8
0
 10
3457.3617555025480215
 20
167.1779105802019103
 30
0.0
 11
3457.3617555025480215
 21
167.2565931706687081
 31
0.0
  0
ARC
  5
2F43D
  8
0
 10
3456.1806681009479689
 20
167.1582105802017963
 30
0.0
 40
0.0197
 50
90.0000000000260485
 51
180.0000000000098055
  0
ARC
  5
2F43E
  8
0
 10
3457.4404806993479724
 20
167.1582105802017963
 30
0.0
 40
0.0197
 50
0.0000000000097707
 51
90.0
  0
LINE
  5
2F43F
  8
0
 10
3456.200338179748087
 20
167.2762931705337905
 30
0.0
 11
3456.200338179748087
 21
167.7093341154339043
 31
0.0
  0
LINE
  5
2F440
  8
0
 10
3457.4208106206478988
 20
167.7093341154339043
 30
0.0
 11
3457.4208106206478988
 21
167.2762931705337905
 31
0.0
  0
ARC
  5
2F441
  8
0
 10
3456.2200381797470072
 20
167.2762931705337905
 30
0.0
 40
0.0197
 50
180.0000000000098055
 51
269.9999999999478746
  0
ARC
  5
2F442
  8
0
 10
3456.2200381798070339
 20
167.7093341154092059
 30
0.0
 40
0.0197000000594514
 50
90.0000001729537473
 51
179.9999999283973011
  0
ARC
  5
2F443
  8
0
 10
3457.4011106205880424
 20
167.7093341154092059
 30
0.0
 40
0.0197000000594514
 50
0.0000000716385083
 51
89.999999827072287
  0
ARC
  5
2F444
  8
0
 10
3457.4011106206471595
 20
167.2762931705337905
 30
0.0
 40
0.0197
 50
269.9999999999739089
 51
359.9999999999902229
  0
LINE
  5
2F445
  8
0
 10
3457.4601806993878199
 20
166.2132876272318072
 30
0.0
 11
3457.4601806993491664
 21
167.1582255409026914
 31
0.0
  0
LINE
  5
2F446
  8
0
 10
3456.4168736127471675
 20
180.8274593122690987
 30
0.0
 11
3456.4168736127471675
 21
183.6621049815686035
 31
0.0
  0
LINE
  5
2F447
  8
0
 10
3457.2042751875469548
 20
183.6621049815686035
 30
0.0
 11
3457.2042751875469548
 21
180.8274593122685872
 31
0.0
  0
ARC
  5
2F448
  8
0
 10
3456.4365586520520992
 20
179.9695019011388126
 30
0.0
 40
0.019685039496224
 50
0.0000000882877197
 51
69.9999997456681058
  0
ARC
  5
2F449
  8
0
 10
3456.4365586521480509
 20
179.8419553536691069
 30
0.0
 40
0.0196850393999891
 50
316.4847259471940788
 51
0.0000000000097707
  0
ARC
  5
2F44A
  8
0
 10
3456.8105743962642009
 20
179.4868381193957987
 30
0.0
 40
0.4960629871997393
 50
136.4847257043716979
 51
151.553172140254901
  0
ARC
  5
2F44B
  8
0
 10
3453.5851648121429207
 20
179.9057286296701079
 30
0.0
 40
2.8717870676497839
 50
358.7275379892876117
 51
1.2724619208715631
  0
ARC
  5
2F44C
  8
0
 10
3457.1845901482438421
 20
179.9695019011388126
 30
0.0
 40
0.0196850394962488
 50
110.000000254385796
 51
179.999999911669903
  0
ARC
  5
2F44D
  8
0
 10
3457.1845901481469809
 20
179.8419553536691069
 30
0.0
 40
0.0196850393999891
 50
179.9999999999901945
 51
223.5152740528058928
  0
ARC
  5
2F44E
  8
0
 10
3456.810574400148198
 20
179.4868381163691993
 30
0.0
 40
0.496062992099808
 50
28.4368901582449709
 51
43.5152742403062334
  0
ARC
  5
2F44F
  8
0
 10
3460.0359839881521111
 20
179.9057286296701079
 30
0.0
 40
2.8717870676497839
 50
178.7275380791284078
 51
181.2724620107157136
  0
LINE
  5
2F450
  8
0
 10
3456.3381334552468616
 20
180.8274593122690987
 30
0.0
 11
3457.2830153450481703
 21
180.8274593122692124
 31
0.0
  0
LINE
  5
2F451
  8
0
 10
3456.4432913321629712
 20
179.9879997874633091
 30
0.0
 11
3457.1778574681320606
 21
179.9879997874633091
 31
0.0
  0
LINE
  5
2F452
  8
0
 10
3456.4562436914479804
 20
179.8419553536691069
 30
0.0
 11
3457.1649051087479165
 21
179.8419553536691069
 31
0.0
  0
LINE
  5
2F453
  8
0
 10
3456.3381339776478853
 20
180.8274593122690987
 30
0.0
 11
3456.3381334552468616
 21
180.5124986823691131
 31
0.0
  0
LINE
  5
2F454
  8
0
 10
3456.3381334552468616
 20
180.5124986823691131
 30
0.0
 11
3456.3775035340481736
 21
180.5124986823691131
 31
0.0
  0
LINE
  5
2F455
  8
0
 10
3456.3775035340481736
 20
180.5124986823691131
 30
0.0
 11
3456.3775035340481736
 21
180.0119445877691078
 31
0.0
  0
LINE
  5
2F456
  8
0
 10
3456.3775035340481736
 20
180.0119445877691078
 30
0.0
 11
3456.4432913321629712
 21
179.9879997874633091
 31
0.0
  0
LINE
  5
2F457
  8
0
 10
3457.283014822648056
 20
180.8274593122690987
 30
0.0
 11
3457.283014822648056
 21
180.5124986823691131
 31
0.0
  0
LINE
  5
2F458
  8
0
 10
3457.283014822648056
 20
180.5124986823691131
 30
0.0
 11
3457.2436452662482225
 21
180.5124986823691131
 31
0.0
  0
LINE
  5
2F459
  8
0
 10
3457.2436452662482225
 20
180.5124986823691131
 30
0.0
 11
3457.2436452662482225
 21
180.0119504542689981
 31
0.0
  0
LINE
  5
2F45A
  8
0
 10
3457.2436452662482225
 20
180.0119504542689981
 30
0.0
 11
3457.1778574681320606
 21
179.9879997874633091
 31
0.0
  0
LINE
  5
2F45B
  8
0
 10
3456.3775035340481736
 20
180.0215598512691031
 30
0.0
 11
3457.2436452662482225
 21
180.0215598512691031
 31
0.0
  0
ARC
  5
2F45C
  8
0
 10
3456.1564295485441107
 20
179.656129455060892
 30
0.0
 40
0.0590551180082231
 50
89.9999993829890883
 51
175.5518357766094084
  0
ARC
  5
2F45D
  8
0
 10
3468.2223407992742068
 20
178.717543148742493
 30
0.0
 40
12.1614168116983699
 50
175.5520169845063094
 51
179.1297030443263054
  0
LINE
  5
2F45E
  8
0
 10
3456.0116367989799073
 20
178.8907264356714109
 30
0.0
 11
3456.0231728250801098
 21
178.9022624618685882
 31
0.0
  0
ARC
  5
2F45F
  8
0
 10
3457.464719251214774
 20
179.656129455060892
 30
0.0
 40
0.0590551180082231
 50
4.4481642233905276
 51
90.0000006169848632
  0
ARC
  5
2F460
  8
0
 10
3445.3988080004860421
 20
178.717543148742493
 30
0.0
 40
12.1614168116983699
 50
0.8702969556737066
 51
4.4479830154936861
  0
LINE
  5
2F461
  8
0
 10
3457.6095120007789774
 20
178.8907264356714109
 30
0.0
 11
3457.5979759746801392
 21
178.9022624618685882
 31
0.0
  0
LINE
  5
2F462
  8
0
 10
3456.156429549178938
 20
179.7151845730691093
 30
0.0
 11
3457.464719251214774
 21
179.7151845730691093
 31
0.0
  0
LINE
  5
2F463
  8
0
 10
3456.0231728250801098
 20
178.9022624618685882
 30
0.0
 11
3457.5979759746801392
 21
178.9022624618685882
 31
0.0
  0
LINE
  5
2F464
  8
0
 10
3457.2042751875978865
 20
179.7886297366842996
 30
0.0
 11
3457.2042751875978865
 21
179.997615050953101
 31
0.0
  0
LINE
  5
2F465
  8
0
 10
3456.4168736127980992
 20
179.9976150509313015
 30
0.0
 11
3456.4168736127980992
 21
179.7885107264690987
 31
0.0
  0
CIRCLE
  5
2F466
  8
0
 10
3456.8107021877967782
 20
179.9022624618690998
 30
0.0
 40
0.0236220472
  0
LINE
  5
2F467
  8
0
 10
3456.4168736127471675
 20
178.3589553752686072
 30
0.0
 11
3456.4168736127471675
 21
167.7290341154686075
 31
0.0
  0
LINE
  5
2F468
  8
0
 10
3457.2042751875469548
 20
178.3589553752686072
 30
0.0
 11
3457.2042751875469548
 21
167.7290341154686075
 31
0.0
  0
LINE
  5
2F469
  8
0
 10
3456.3184484158477972
 20
136.5600794558880011
 30
0.0
 11
3456.3184484158477972
 21
156.7129042301189088
 31
0.0
  0
LINE
  5
2F46A
  8
0
 10
3456.3184484158477972
 20
158.3832189855964998
 30
0.0
 11
3456.3184484158477972
 21
165.9376955327686005
 31
0.0
  0
LINE
  5
2F46B
  8
0
 10
3457.3027003843471903
 20
136.5600794523994068
 30
0.0
 11
3457.3027003843471903
 21
156.7128115996459883
 31
0.0
  0
LINE
  5
2F46C
  8
0
 10
3457.3027003843471903
 20
158.3832152644953055
 30
0.0
 11
3457.3027003843471903
 21
162.581048893190399
 31
0.0
  0
LINE
  5
2F46D
  8
0
 10
3454.9601806993468927
 20
158.3037751867136933
 30
0.0
 11
3454.9601806993468927
 21
156.780215783968714
 31
0.0
  0
ARC
  5
2F46E
  8
0
 10
3454.9798806993471771
 20
158.3037751867136933
 30
0.0
 40
0.0197
 50
90.0
 51
180.0
  0
LINE
  5
2F46F
  8
0
 10
3455.5428503667471887
 20
158.5015149096686002
 30
0.0
 11
3455.4960701929348943
 21
158.3138898808323916
 31
0.0
  0
LINE
  5
2F470
  8
0
 10
3456.0872992170930047
 20
158.3166844510460862
 30
0.0
 11
3456.1314737219749986
 21
158.4966822232794925
 31
0.0
  0
LINE
  5
2F471
  8
0
 10
3456.2278972347480703
 20
158.3747034067685888
 30
0.0
 11
3456.2278972347471608
 21
158.3234751867136936
 31
0.0
  0
LINE
  5
2F472
  8
0
 10
3456.2278972347480703
 20
156.7605301784685992
 30
0.0
 11
3456.2278971488499337
 21
156.7211600996043046
 31
0.0
  0
LINE
  5
2F473
  8
0
 10
3457.3932516704530826
 20
156.7211600995960907
 30
0.0
 11
3457.3932515654478266
 21
156.7605301784685992
 31
0.0
  0
LINE
  5
2F474
  8
0
 10
3457.3932515654478266
 20
158.3234751867136936
 30
0.0
 11
3457.3932515654478266
 21
158.3747034067685888
 31
0.0
  0
LINE
  5
2F475
  8
0
 10
3457.6373460536478888
 20
156.7605301784685992
 30
0.0
 11
3457.6373460536478888
 21
158.3234751867136936
 31
0.0
  0
LINE
  5
2F476
  8
0
 10
3457.6805744001480889
 20
158.3234751867136936
 30
0.0
 11
3457.6805744001480889
 21
156.7605301784685992
 31
0.0
  0
LINE
  5
2F477
  8
0
 10
3457.3735662340482122
 20
156.7014750603686082
 30
0.0
 11
3457.3263206791471021
 21
156.7014750603686082
 31
0.0
  0
LINE
  5
2F478
  8
0
 10
3456.2948281219478304
 20
156.7014750603686082
 30
0.0
 11
3456.2475825662468196
 21
156.7014750603686082
 31
0.0
  0
LINE
  5
2F479
  8
0
 10
3458.5472596707481898
 20
156.7605301784685992
 30
0.0
 11
3457.6805744001480889
 21
156.7605301784685992
 31
0.0
  0
LINE
  5
2F47A
  8
0
 10
3457.6373460536478888
 20
156.7605301784685992
 30
0.0
 11
3457.3932515654478266
 21
156.7605301784685992
 31
0.0
  0
LINE
  5
2F47B
  8
0
 10
3456.2278972347480703
 20
156.7605301784685992
 30
0.0
 11
3454.979865738747776
 21
156.7605301784685992
 31
0.0
  0
LINE
  5
2F47C
  8
0
 10
3457.6373460536478888
 20
156.8195852965685901
 30
0.0
 11
3457.6805744001480889
 21
156.8195852965685901
 31
0.0
  0
LINE
  5
2F47D
  8
0
 10
3456.3067709812480643
 20
158.3904543751685878
 30
0.0
 11
3456.3052341625470945
 21
158.3914114483685864
 31
0.0
  0
LINE
  5
2F47E
  8
0
 10
3457.6373460536478888
 20
158.2762782099686092
 30
0.0
 11
3457.6805744001480889
 21
158.2762782099686092
 31
0.0
  0
LINE
  5
2F47F
  8
0
 10
3458.2840923325920812
 20
158.3234751867136936
 30
0.0
 11
3457.6805744001480889
 21
158.3234751867136936
 31
0.0
  0
LINE
  5
2F480
  8
0
 10
3457.6373460536478888
 20
158.3234751867136936
 30
0.0
 11
3457.3932515654478266
 21
158.3234751867136936
 31
0.0
  0
LINE
  5
2F481
  8
0
 10
3456.2278972347471608
 20
158.3234751867136936
 30
0.0
 11
3456.1058499906480392
 21
158.3234751867136936
 31
0.0
  0
LINE
  5
2F482
  8
0
 10
3455.4680248995468901
 20
158.3234751867138073
 30
0.0
 11
3454.9798806993471771
 21
158.3234751867136936
 31
0.0
  0
LINE
  5
2F483
  8
0
 10
3457.3735662339468035
 20
158.3943884461685911
 30
0.0
 11
3457.3263206782480665
 21
158.3943884461685911
 31
0.0
  0
LINE
  5
2F484
  8
0
 10
3456.2948281210469759
 20
158.3943884461685911
 30
0.0
 11
3456.2475825662468196
 21
158.3943884461685911
 31
0.0
  0
LINE
  5
2F485
  8
0
 10
3456.1118597261479408
 20
158.5164356902685938
 30
0.0
 11
3455.5619508747481632
 21
158.5164356902685938
 31
0.0
  0
ARC
  5
2F486
  8
0
 10
3436.9910156992041266
 20
157.5623379948231957
 30
0.0
 40
22.2981755595419884
 50
359.6799439669920275
 51
1.6372185980294529
  0
ARC
  5
2F487
  8
0
 10
3457.3737367583489686
 20
158.3748736415982989
 30
0.0
 40
0.0195155495948701
 50
359.5002005493961974
 51
90.5006496380633791
  0
ARC
  5
2F488
  8
0
 10
3456.2475900527260819
 20
156.7211679643918956
 30
0.0
 40
0.019692905446315
 50
180.0228823088854142
 51
269.9782183683443009
  0
ARC
  5
2F489
  8
0
 10
3456.2475899194491831
 20
158.3746957613554969
 30
0.0
 40
0.019692686185875
 50
90.0213941071104244
 51
179.9777557055039097
  0
ARC
  5
2F48A
  8
0
 10
3457.3735598833382028
 20
156.7211668476153932
 30
0.0
 40
0.0196917882708542
 50
270.0184782015119254
 51
359.9803657734727267
  0
ARC
  5
2F48B
  8
0
 10
3454.9798657387527783
 20
156.7802152177825121
 30
0.0
 40
0.0196850394138788
 50
179.9983520442083034
 51
269.9999999832725734
  0
ARC
  5
2F48C
  8
0
 10
3458.870156533906993
 20
168.5786734250850998
 30
0.0
 40
11.81683398161152
 50
270.7341849046795801
 51
271.8726830466180786
  0
ARC
  5
2F48D
  8
0
 10
3458.5312003662270399
 20
158.371586025658587
 30
0.0
 40
1.6111358862699141
 50
270.5711160778004114
 51
274.0858309261728891
  0
ARC
  5
2F48E
  8
0
 10
3458.8155437240370702
 20
154.4082922901810093
 30
0.0
 40
2.3623448819629438
 50
86.9605913047396939
 51
94.1157338421761125
  0
ARC
  5
2F48F
  8
0
 10
3457.9610181111670499
 20
138.6590176528956135
 30
0.0
 40
18.1347835717810213
 50
86.7075860680755426
 51
86.9029229214659722
  0
ARC
  5
2F490
  8
0
 10
3459.3370724256351423
 20
162.6075891013144883
 30
0.0
 40
5.8532886330390124
 50
266.7235179045010796
 51
266.910186374127079
  0
ARC
  5
2F491
  8
0
 10
3455.7869374450970099
 20
159.2107486577089048
 30
0.0
 40
0.9428464477533351
 50
250.2300495840727876
 51
289.7699504159015191
  0
ARC
  5
2F492
  8
0
 10
3455.5620483302909633
 20
158.4966249975103096
 30
0.0
 40
0.0198109324654052
 50
90.2818551769928348
 51
165.7100537213314908
  0
ARC
  5
2F493
  8
0
 10
3456.1109332709170303
 20
158.4959012881587057
 30
0.0
 40
0.0205552910294577
 50
2.1773010810035549
 51
87.4167253080906477
  0
ARC
  5
2F494
  8
0
 10
3457.3265844309062231
 20
156.7220725630756988
 30
0.0
 40
0.0205991913133042
 50
238.8037209814038135
 51
269.2663655898824118
  0
ARC
  5
2F495
  8
0
 10
3456.2945643654029482
 20
156.7220725759366928
 30
0.0
 40
0.0205992042343559
 50
270.7336472616526066
 51
301.1962650128916152
  0
ARC
  5
2F496
  8
0
 10
3457.0266235673861956
 20
155.5911767153762923
 30
0.0
 40
1.326568755318531
 50
108.216699489830205
 51
122.9427657170039936
  0
ARC
  5
2F497
  8
0
 10
3456.524693479771031
 20
155.4683618290792992
 30
0.0
 40
1.4676341420909
 50
57.3766989269742922
 51
67.1705387683790036
  0
ARC
  5
2F498
  8
0
 10
3456.8135636935198818
 20
156.2067987490358973
 30
0.0
 40
0.6752690961265977
 50
65.4508533771881247
 51
107.3740509861255958
  0
ARC
  5
2F499
  8
0
 10
3457.2891313909290147
 20
155.2515758185859909
 30
0.0
 40
1.8447658915039069
 50
115.519161786916797
 51
125.1183786874043022
  0
ARC
  5
2F49A
  8
0
 10
3456.2986140227221767
 20
155.2007103075638099
 30
0.0
 40
1.905588984963335
 50
54.9399058828577083
 51
63.2204543824703435
  0
ARC
  5
2F49B
  8
0
 10
3456.8156100682281249
 20
156.3024999921192091
 30
0.0
 40
0.6899147079182983
 50
60.3229683319811087
 51
90.4176124586275591
  0
ARC
  5
2F49C
  8
0
 10
3456.8087885205891325
 20
156.3043037485317086
 30
0.0
 40
0.6880949616745543
 50
89.8507014510032036
 51
117.1887051107334941
  0
ARC
  5
2F49D
  8
0
 10
3451.4370945725381716
 20
149.351868111603693
 30
0.0
 40
10.1706206132367694
 50
60.4309235609342679
 51
61.8979594927149819
  0
ARC
  5
2F49E
  8
0
 10
3474.4111165996150703
 20
127.046406188207996
 30
0.0
 40
35.6070607528678593
 50
118.5506284017870939
 51
118.9819264853324938
  0
ARC
  5
2F49F
  8
0
 10
3456.880010783203943
 20
159.0168877909470098
 30
0.0
 40
0.9222489051167313
 50
242.6296832467697868
 51
257.4595015863170033
  0
ARC
  5
2F4A0
  8
0
 10
3456.714959155132874
 20
159.0776419860156068
 30
0.0
 40
0.9881851047418559
 50
286.411546361778278
 51
296.6562693098417185
  0
ARC
  5
2F4A1
  8
0
 10
3456.8112487725420578
 20
158.7412956801292978
 30
0.0
 40
0.6383429267478848
 50
258.1131558279645901
 51
286.6505730029293204
  0
ARC
  5
2F4A2
  8
0
 10
3456.2945643691778059
 20
158.3737909433056075
 30
0.0
 40
0.0205991914705302
 50
58.803720558955078
 51
89.2663652856640937
  0
ARC
  5
2F4A3
  8
0
 10
3457.3265829655588277
 20
158.3737960672278007
 30
0.0
 40
0.0205940492637517
 50
90.7297429506284061
 51
121.2001706329892983
  0
ARC
  5
2F4A4
  8
0
 10
3457.246327379874856
 20
159.8937945366234885
 30
0.0
 40
1.7727938027998831
 50
237.9954719486877934
 51
243.6489972728763007
  0
ARC
  5
2F4A5
  8
0
 10
3456.3421801929739559
 20
159.9465592155293905
 30
0.0
 40
1.834841504673234
 50
298.2235835426910739
 51
302.052175936340177
  0
ARC
  5
2F4A6
  8
0
 10
3456.8836154151049413
 20
159.1527720595827873
 30
0.0
 40
0.947781122984039
 50
243.4136087229674104
 51
256.4232709796444283
  0
ARC
  5
2F4A7
  8
0
 10
3456.6912237443470985
 20
159.2752480736463951
 30
0.0
 40
1.078321594820411
 50
285.7932177040573265
 51
298.7510394338135029
  0
ARC
  5
2F4A8
  8
0
 10
3456.8110291870930268
 20
158.8592317984287945
 30
0.0
 40
0.6454061127108643
 50
256.5697599588293087
 51
285.6105913023059202
  0
ARC
  5
2F4A9
  8
0
 10
3459.2543353521559766
 20
156.7862115010092907
 30
0.0
 40
0.0181689623922502
 50
276.2549306105876212
 51
311.0706378388447888
  0
ARC
  5
2F4AA
  8
0
 10
3459.2447993876508008
 20
156.7950701272606011
 30
0.0
 40
0.0311426168343931
 50
313.590385912764873
 51
358.2807221471852017
  0
ARC
  5
2F4AB
  8
0
 10
3445.3474139977811319
 20
157.4096725447894016
 30
0.0
 40
13.9421084276290195
 50
357.4695988938307778
 51
0.5654961634050735
  0
ARC
  5
2F4AC
  8
0
 10
3457.2209839044157889
 20
159.8441110197069861
 30
0.0
 40
1.7735218821582019
 50
235.9475394648744953
 51
246.1611218083677102
  0
ARC
  5
2F4AD
  8
0
 10
3456.848496297488964
 20
159.0070497538100938
 30
0.0
 40
0.8573304767496781
 50
246.3213356492668993
 51
259.209189915524405
  0
ARC
  5
2F4AE
  8
0
 10
3456.4002285254800881
 20
159.8441110197069861
 30
0.0
 40
1.7735218821582019
 50
293.8388781916315793
 51
304.0499794945449139
  0
ARC
  5
2F4AF
  8
0
 10
3456.772716132405094
 20
159.0070497538100938
 30
0.0
 40
0.8573304767496781
 50
280.790810084475595
 51
293.6786643507330723
  0
ARC
  5
2F4B0
  8
0
 10
3456.8106062149468016
 20
158.8140491275613044
 30
0.0
 40
0.6606495925927091
 50
259.3033558307561179
 51
280.6966441692438821
  0
ARC
  5
2F4B1
  8
0
 10
3457.2209839044157889
 20
155.2517524868302985
 30
0.0
 40
1.7735218821582019
 50
113.8388781916322046
 51
124.0524638835726989
  0
ARC
  5
2F4B2
  8
0
 10
3456.848496297488964
 20
156.0888137527271056
 30
0.0
 40
0.8573304767496781
 50
100.7908100844754955
 51
113.6786643507330012
  0
ARC
  5
2F4B3
  8
0
 10
3456.4002285254800881
 20
155.2517524868302985
 30
0.0
 40
1.7735218821582019
 50
55.9500164156032724
 51
66.1611218083677386
  0
ARC
  5
2F4B4
  8
0
 10
3456.772716132405094
 20
156.0888137527271056
 30
0.0
 40
0.8573304767496781
 50
66.3213356492669561
 51
79.2091899155244334
  0
ARC
  5
2F4B5
  8
0
 10
3456.8106062149468016
 20
156.2818143789760086
 30
0.0
 40
0.6606495925927091
 50
79.3033558307560895
 51
100.6966441692438963
  0
LINE
  5
2F4B6
  8
0
 10
3459.1135304868480489
 20
158.0648179962038
 30
0.0
 11
3459.2563149049660751
 21
158.023035600368587
 31
0.0
  0
LINE
  5
2F4B7
  8
0
 10
3459.2563149049660751
 20
158.023035600368587
 30
0.0
 11
3459.2563149045481623
 21
156.7681506990685989
 31
0.0
  0
ARC
  5
2F4B8
  8
0
 10
3458.8219557872262158
 20
158.3547083385226131
 30
0.0
 40
0.4111595992180106
 50
269.4401071701163914
 51
315.1659709316073759
  0
ARC
  5
2F4B9
  8
0
 10
3458.8606200245658329
 20
158.5409003081022092
 30
0.0
 40
0.5988549058692558
 50
214.9269759465605034
 51
265.9129090706796887
  0
LINE
  5
2F4BA
  8
0
 10
3458.5329403224491216
 20
156.4638935250688121
 30
0.0
 11
3458.5329403224491216
 21
156.7605301784685992
 31
0.0
  0
LINE
  5
2F4BB
  8
0
 10
3459.1038027465469895
 20
156.4639556198686137
 30
0.0
 11
3459.1038027465469895
 21
156.7641495330153134
 31
0.0
  0
LINE
  5
2F4BC
  8
0
 10
3450.2163626399228633
 20
178.8747524328902898
 30
0.0
 11
3450.2233212745081801
 21
178.4760925246019099
 31
0.0
  0
LINE
  5
2F4BD
  8
0
 10
3450.2823673983530171
 20
178.4180680605018949
 30
0.0
 11
3463.3387814019420148
 21
178.4180680605018949
 31
0.0
  0
ARC
  5
2F4BE
  8
0
 10
3450.2823314918450706
 20
178.4770866400018861
 30
0.0
 40
0.0590185904226873
 50
180.9651418329088983
 51
270.0348583647344185
  0
LINE
  5
2F4BF
  8
0
 10
3463.3890885515579612
 20
178.8907264356714109
 30
0.0
 11
3450.2320602487370707
 21
178.8907264356714109
 31
0.0
  0
ARC
  5
2F4C0
  8
0
 10
3450.2320602487370707
 20
178.8750264356714013
 30
0.0
 40
0.0157
 50
90.0
 51
181.0000000001743103
  0
LINE
  5
2F4C1
  8
0
 10
3456.7405503186469105
 20
178.4180104933685982
 30
0.0
 11
3456.7430592196369616
 21
178.3701378109807081
 31
0.0
  0
LINE
  5
2F4C2
  8
0
 10
3456.8805984815471675
 20
178.4180104933685982
 30
0.0
 11
3456.8780895806607987
 21
178.3701378110056908
 31
0.0
  0
LINE
  5
2F4C3
  8
0
 10
3456.754843048146995
 20
178.3589553752686072
 30
0.0
 11
3456.8663057521498558
 21
178.3589553752686072
 31
0.0
  0
ARC
  5
2F4C4
  8
0
 10
3456.754843048146995
 20
178.370755375268601
 30
0.0
 40
0.0118
 50
183.0000000206352126
 51
270.0
  0
ARC
  5
2F4C5
  8
0
 10
3456.8663057521498558
 20
178.370755375268601
 30
0.0
 40
0.0118
 50
269.9999999999739089
 51
357.0000001009544235
  0
LINE
  5
2F4C6
  8
0
 10
3456.3783455942480032
 20
178.4180104933685982
 30
0.0
 11
3456.3808544952371449
 21
178.3701378109807081
 31
0.0
  0
LINE
  5
2F4C7
  8
0
 10
3456.5183937571478054
 20
178.4180104933685982
 30
0.0
 11
3456.5158848562609819
 21
178.3701378110056908
 31
0.0
  0
LINE
  5
2F4C8
  8
0
 10
3456.3926383237471782
 20
178.3589553752686072
 30
0.0
 11
3456.5041010277500391
 21
178.3589553752686072
 31
0.0
  0
ARC
  5
2F4C9
  8
0
 10
3456.3926383237471782
 20
178.370755375268601
 30
0.0
 40
0.0118
 50
183.0000000206352126
 51
270.0
  0
ARC
  5
2F4CA
  8
0
 10
3456.5041010277500391
 20
178.370755375268601
 30
0.0
 40
0.0118
 50
269.9999999999739089
 51
357.0000001009544235
  0
LINE
  5
2F4CB
  8
0
 10
3456.0161408698481864
 20
178.4180104933685982
 30
0.0
 11
3456.0186497708368734
 21
178.3701378109807081
 31
0.0
  0
LINE
  5
2F4CC
  8
0
 10
3456.1561890327479887
 20
178.4180104933685982
 30
0.0
 11
3456.1536801318611651
 21
178.3701378110056908
 31
0.0
  0
LINE
  5
2F4CD
  8
0
 10
3456.0304335993469067
 20
178.3589553752686072
 30
0.0
 11
3456.1418963033502223
 21
178.3589553752686072
 31
0.0
  0
ARC
  5
2F4CE
  8
0
 10
3456.0304335993469067
 20
178.370755375268601
 30
0.0
 40
0.0118
 50
183.0000000206352126
 51
270.0
  0
ARC
  5
2F4CF
  8
0
 10
3456.1418963033502223
 20
178.370755375268601
 30
0.0
 40
0.0118
 50
269.9999999999739089
 51
357.0000001009544235
  0
LINE
  5
2F4D0
  8
0
 10
3455.6539361454479149
 20
178.4180104933685982
 30
0.0
 11
3455.6564450464370566
 21
178.3701378109807081
 31
0.0
  0
LINE
  5
2F4D1
  8
0
 10
3455.7939843083481719
 20
178.4180104933685982
 30
0.0
 11
3455.7914754074608936
 21
178.3701378110056908
 31
0.0
  0
LINE
  5
2F4D2
  8
0
 10
3455.6682288749470899
 20
178.3589553752686072
 30
0.0
 11
3455.7796915789499508
 21
178.3589553752686072
 31
0.0
  0
ARC
  5
2F4D3
  8
0
 10
3455.6682288749470899
 20
178.370755375268601
 30
0.0
 40
0.0118
 50
183.0000000206352126
 51
270.0
  0
ARC
  5
2F4D4
  8
0
 10
3455.7796915789499508
 20
178.370755375268601
 30
0.0
 40
0.0118
 50
269.9999999999739089
 51
357.0000001009544235
  0
LINE
  5
2F4D5
  8
0
 10
3455.2917314210480981
 20
178.4180104933685982
 30
0.0
 11
3455.2942403220367851
 21
178.3701378109807081
 31
0.0
  0
LINE
  5
2F4D6
  8
0
 10
3455.4317795839469909
 20
178.4180104933685982
 30
0.0
 11
3455.4292706830610769
 21
178.3701378110056908
 31
0.0
  0
LINE
  5
2F4D7
  8
0
 10
3455.3060241505468184
 20
178.3589553752686072
 30
0.0
 11
3455.417486854550134
 21
178.3589553752686072
 31
0.0
  0
ARC
  5
2F4D8
  8
0
 10
3455.3060241505468184
 20
178.370755375268601
 30
0.0
 40
0.0118
 50
183.0000000206352126
 51
270.0
  0
ARC
  5
2F4D9
  8
0
 10
3455.417486854550134
 20
178.370755375268601
 30
0.0
 40
0.0118
 50
269.9999999999739089
 51
357.0000001009544235
  0
LINE
  5
2F4DA
  8
0
 10
3454.9295266966469171
 20
178.4180104933685982
 30
0.0
 11
3454.9320355976369683
 21
178.3701378109807081
 31
0.0
  0
LINE
  5
2F4DB
  8
0
 10
3455.0695748595471741
 20
178.4180104933685982
 30
0.0
 11
3455.0670659586608053
 21
178.3701378110056908
 31
0.0
  0
LINE
  5
2F4DC
  8
0
 10
3454.9438194261470016
 20
178.3589553752686072
 30
0.0
 11
3455.0552821301498625
 21
178.3589553752686072
 31
0.0
  0
ARC
  5
2F4DD
  8
0
 10
3454.9438194261470016
 20
178.370755375268601
 30
0.0
 40
0.0118
 50
183.0000000206352126
 51
270.0
  0
ARC
  5
2F4DE
  8
0
 10
3455.0552821301498625
 20
178.370755375268601
 30
0.0
 40
0.0118
 50
269.9999999999739089
 51
357.0000001009544235
  0
LINE
  5
2F4DF
  8
0
 10
3454.5673219722471003
 20
178.4180104933685982
 30
0.0
 11
3454.5698308732371515
 21
178.3701378109807081
 31
0.0
  0
LINE
  5
2F4E0
  8
0
 10
3454.7073701351469026
 20
178.4180104933685982
 30
0.0
 11
3454.7048612342618981
 21
178.3701378110056908
 31
0.0
  0
LINE
  5
2F4E1
  8
0
 10
3454.5816147017471849
 20
178.3589553752686072
 30
0.0
 11
3454.6930774057500457
 21
178.3589553752686072
 31
0.0
  0
ARC
  5
2F4E2
  8
0
 10
3454.5816147017471849
 20
178.370755375268601
 30
0.0
 40
0.0118
 50
183.0000000206352126
 51
270.0
  0
ARC
  5
2F4E3
  8
0
 10
3454.6930774057500457
 20
178.370755375268601
 30
0.0
 40
0.0118
 50
269.9999999999739089
 51
357.0000001009544235
  0
LINE
  5
2F4E4
  8
0
 10
3454.2051172478468288
 20
178.4180104933685982
 30
0.0
 11
3454.20762614883688
 21
178.3701378109807081
 31
0.0
  0
LINE
  5
2F4E5
  8
0
 10
3454.3451654107479953
 20
178.4180104933685982
 30
0.0
 11
3454.3426565098620813
 21
178.3701378110056908
 31
0.0
  0
LINE
  5
2F4E6
  8
0
 10
3454.2194099773469134
 20
178.3589553752686072
 30
0.0
 11
3454.3308726813497742
 21
178.3589553752686072
 31
0.0
  0
ARC
  5
2F4E7
  8
0
 10
3454.2194099773469134
 20
178.370755375268601
 30
0.0
 40
0.0118
 50
183.0000000206352126
 51
270.0
  0
ARC
  5
2F4E8
  8
0
 10
3454.3308726813497742
 20
178.370755375268601
 30
0.0
 40
0.0118
 50
269.9999999999739089
 51
357.0000001009544235
  0
LINE
  5
2F4E9
  8
0
 10
3453.8429125234470121
 20
178.4180104933685982
 30
0.0
 11
3453.8454214244379727
 21
178.3701378109807081
 31
0.0
  0
LINE
  5
2F4EA
  8
0
 10
3453.9829606863468143
 20
178.4180104933685982
 30
0.0
 11
3453.9804517854609003
 21
178.3701378110056908
 31
0.0
  0
LINE
  5
2F4EB
  8
0
 10
3453.8572052529470966
 20
178.3589553752686072
 30
0.0
 11
3453.9686679569499574
 21
178.3589553752686072
 31
0.0
  0
ARC
  5
2F4EC
  8
0
 10
3453.8572052529470966
 20
178.370755375268601
 30
0.0
 40
0.0118
 50
183.0000000206352126
 51
270.0
  0
ARC
  5
2F4ED
  8
0
 10
3453.9686679569499574
 20
178.370755375268601
 30
0.0
 40
0.0118
 50
269.9999999999739089
 51
357.0000001009544235
  0
LINE
  5
2F4EE
  8
0
 10
3453.4807077990471953
 20
178.4180104933685982
 30
0.0
 11
3453.4832167000367917
 21
178.3701378109807081
 31
0.0
  0
LINE
  5
2F4EF
  8
0
 10
3453.6207559619479071
 20
178.4180104933685982
 30
0.0
 11
3453.6182470610610835
 21
178.3701378110056908
 31
0.0
  0
LINE
  5
2F4F0
  8
0
 10
3453.4950005285468251
 20
178.3589553752686072
 30
0.0
 11
3453.6064632325501407
 21
178.3589553752686072
 31
0.0
  0
ARC
  5
2F4F1
  8
0
 10
3453.4950005285468251
 20
178.370755375268601
 30
0.0
 40
0.0118
 50
183.0000000206352126
 51
270.0
  0
ARC
  5
2F4F2
  8
0
 10
3453.6064632325501407
 20
178.370755375268601
 30
0.0
 40
0.0118
 50
269.9999999999739089
 51
357.0000001009544235
  0
LINE
  5
2F4F3
  8
0
 10
3453.1185030745477889
 20
178.4180104933685982
 30
0.0
 11
3453.1210119755369305
 21
178.3701378109807081
 31
0.0
  0
LINE
  5
2F4F4
  8
0
 10
3453.2585512374480459
 20
178.4180104933685982
 30
0.0
 11
3453.2560423365612223
 21
178.3701378110056908
 31
0.0
  0
LINE
  5
2F4F5
  8
0
 10
3453.1327958040469639
 20
178.3589553752686072
 30
0.0
 11
3453.2442585080498247
 21
178.3589553752686072
 31
0.0
  0
ARC
  5
2F4F6
  8
0
 10
3453.1327958040469639
 20
178.370755375268601
 30
0.0
 40
0.0118
 50
183.0000000206352126
 51
270.0
  0
ARC
  5
2F4F7
  8
0
 10
3453.2442585080498247
 20
178.370755375268601
 30
0.0
 40
0.0118
 50
269.9999999999739089
 51
357.0000001009544235
  0
LINE
  5
2F4F8
  8
0
 10
3452.7562983501479721
 20
178.4180104933685982
 30
0.0
 11
3452.7588072511371138
 21
178.3701378109807081
 31
0.0
  0
LINE
  5
2F4F9
  8
0
 10
3452.8963465130468649
 20
178.4180104933685982
 30
0.0
 11
3452.8938376121609508
 21
178.3701378110056908
 31
0.0
  0
LINE
  5
2F4FA
  8
0
 10
3452.7705910796471471
 20
178.3589553752686072
 30
0.0
 11
3452.882053783650008
 21
178.3589553752686072
 31
0.0
  0
ARC
  5
2F4FB
  8
0
 10
3452.7705910796471471
 20
178.370755375268601
 30
0.0
 40
0.0118
 50
183.0000000206352126
 51
270.0
  0
ARC
  5
2F4FC
  8
0
 10
3452.882053783650008
 20
178.370755375268601
 30
0.0
 40
0.0118
 50
269.9999999999739089
 51
357.0000001009544235
  0
LINE
  5
2F4FD
  8
0
 10
3452.3940936257481553
 20
178.4180104933685982
 30
0.0
 11
3452.3966025267368423
 21
178.3701378109807081
 31
0.0
  0
LINE
  5
2F4FE
  8
0
 10
3452.5341417886470481
 20
178.4180104933685982
 30
0.0
 11
3452.5316328877620435
 21
178.3701378110056908
 31
0.0
  0
LINE
  5
2F4FF
  8
0
 10
3452.4083863552468756
 20
178.3589553752686072
 30
0.0
 11
3452.5198490592501912
 21
178.3589553752686072
 31
0.0
  0
ARC
  5
2F500
  8
0
 10
3452.4083863552468756
 20
178.370755375268601
 30
0.0
 40
0.0118
 50
183.0000000206352126
 51
270.0
  0
ARC
  5
2F501
  8
0
 10
3452.5198490592501912
 20
178.370755375268601
 30
0.0
 40
0.0118
 50
269.9999999999739089
 51
357.0000001009544235
  0
LINE
  5
2F502
  8
0
 10
3452.0318889013469743
 20
178.4180104933685982
 30
0.0
 11
3452.0343978023370255
 21
178.3701378109807081
 31
0.0
  0
LINE
  5
2F503
  8
0
 10
3452.1719370642467766
 20
178.4180104933685982
 30
0.0
 11
3452.1694281633608625
 21
178.3701378110056908
 31
0.0
  0
LINE
  5
2F504
  8
0
 10
3452.0461816308470588
 20
178.3589553752686072
 30
0.0
 11
3452.1576443348499197
 21
178.3589553752686072
 31
0.0
  0
ARC
  5
2F505
  8
0
 10
3452.0461816308470588
 20
178.370755375268601
 30
0.0
 40
0.0118
 50
183.0000000206352126
 51
270.0
  0
ARC
  5
2F506
  8
0
 10
3452.1576443348499197
 20
178.370755375268601
 30
0.0
 40
0.0118
 50
269.9999999999739089
 51
357.0000001009544235
  0
LINE
  5
2F507
  8
0
 10
3451.6696841769471575
 20
178.4180104933685982
 30
0.0
 11
3451.6721930779372087
 21
178.3701378109807081
 31
0.0
  0
LINE
  5
2F508
  8
0
 10
3451.8097323398469598
 20
178.4180104933685982
 30
0.0
 11
3451.8072234389619553
 21
178.3701378110056908
 31
0.0
  0
LINE
  5
2F509
  8
0
 10
3451.6839769064467873
 20
178.3589553752686072
 30
0.0
 11
3451.7954396104501029
 21
178.3589553752686072
 31
0.0
  0
ARC
  5
2F50A
  8
0
 10
3451.6839769064467873
 20
178.370755375268601
 30
0.0
 40
0.0118
 50
183.0000000206352126
 51
270.0
  0
ARC
  5
2F50B
  8
0
 10
3451.7954396104501029
 20
178.370755375268601
 30
0.0
 40
0.0118
 50
269.9999999999739089
 51
357.0000001009544235
  0
LINE
  5
2F50C
  8
0
 10
3451.307479452546886
 20
178.4180104933685982
 30
0.0
 11
3451.3099883535369372
 21
178.3701378109807081
 31
0.0
  0
LINE
  5
2F50D
  8
0
 10
3451.447527615447143
 20
178.4180104933685982
 30
0.0
 11
3451.4450187145607742
 21
178.3701378110056908
 31
0.0
  0
LINE
  5
2F50E
  8
0
 10
3451.3217721820469706
 20
178.3589553752686072
 30
0.0
 11
3451.4332348860498314
 21
178.3589553752686072
 31
0.0
  0
ARC
  5
2F50F
  8
0
 10
3451.3217721820469706
 20
178.370755375268601
 30
0.0
 40
0.0118
 50
183.0000000206352126
 51
270.0
  0
ARC
  5
2F510
  8
0
 10
3451.4332348860498314
 20
178.370755375268601
 30
0.0
 40
0.0118
 50
269.9999999999739089
 51
357.0000001009544235
  0
LINE
  5
2F511
  8
0
 10
3450.9452747281479787
 20
178.4180104933685982
 30
0.0
 11
3450.9477836291380299
 21
178.3701378109807081
 31
0.0
  0
LINE
  5
2F512
  8
0
 10
3451.085322891047781
 20
178.4180104933685982
 30
0.0
 11
3451.0828139901609575
 21
178.3701378110056908
 31
0.0
  0
LINE
  5
2F513
  8
0
 10
3450.9595674576471538
 20
178.3589553752686072
 30
0.0
 11
3451.0710301616500146
 21
178.3589553752686072
 31
0.0
  0
ARC
  5
2F514
  8
0
 10
3450.9595674576471538
 20
178.370755375268601
 30
0.0
 40
0.0118
 50
183.0000000206352126
 51
270.0
  0
ARC
  5
2F515
  8
0
 10
3451.0710301616500146
 20
178.370755375268601
 30
0.0
 40
0.0118
 50
269.9999999999739089
 51
357.0000001009544235
  0
LINE
  5
2F516
  8
0
 10
3457.2428032060479381
 20
178.4180104933685982
 30
0.0
 11
3457.240294305057887
 21
178.3701378109807081
 31
0.0
  0
LINE
  5
2F517
  8
0
 10
3457.1027550431472264
 20
178.4180104933685982
 30
0.0
 11
3457.1052639440340499
 21
178.3701378110056908
 31
0.0
  0
LINE
  5
2F518
  8
0
 10
3457.2285104765478536
 20
178.3589553752686072
 30
0.0
 11
3457.1170477725449928
 21
178.3589553752686072
 31
0.0
  0
ARC
  5
2F519
  8
0
 10
3457.2285104765478536
 20
178.370755375268601
 30
0.0
 40
0.0118
 50
270.0
 51
356.9999999793648158
  0
ARC
  5
2F51A
  8
0
 10
3457.1170477725449928
 20
178.370755375268601
 30
0.0
 40
0.0118
 50
182.9999998990438996
 51
270.0000000000259774
  0
LINE
  5
2F51B
  8
0
 10
3457.6050079304468454
 20
178.4180104933685982
 30
0.0
 11
3457.6024990294581585
 21
178.3701378109807081
 31
0.0
  0
LINE
  5
2F51C
  8
0
 10
3457.4649597675470432
 20
178.4180104933685982
 30
0.0
 11
3457.4674686684338667
 21
178.3701378110056908
 31
0.0
  0
LINE
  5
2F51D
  8
0
 10
3457.5907152009481251
 20
178.3589553752686072
 30
0.0
 11
3457.4792524969448095
 21
178.3589553752686072
 31
0.0
  0
ARC
  5
2F51E
  8
0
 10
3457.5907152009481251
 20
178.370755375268601
 30
0.0
 40
0.0118
 50
270.0
 51
356.9999999793648158
  0
ARC
  5
2F51F
  8
0
 10
3457.4792524969448095
 20
178.370755375268601
 30
0.0
 40
0.0118
 50
182.9999998990438996
 51
270.0000000000259774
  0
LINE
  5
2F520
  8
0
 10
3457.9672126548471169
 20
178.4180104933685982
 30
0.0
 11
3457.9647037538579752
 21
178.3701378109807081
 31
0.0
  0
LINE
  5
2F521
  8
0
 10
3457.8271644919482242
 20
178.4180104933685982
 30
0.0
 11
3457.8296733928341382
 21
178.3701378110056908
 31
0.0
  0
LINE
  5
2F522
  8
0
 10
3457.9529199253479419
 20
178.3589553752686072
 30
0.0
 11
3457.8414572213450811
 21
178.3589553752686072
 31
0.0
  0
ARC
  5
2F523
  8
0
 10
3457.9529199253479419
 20
178.370755375268601
 30
0.0
 40
0.0118
 50
270.0
 51
356.9999999793648158
  0
ARC
  5
2F524
  8
0
 10
3457.8414572213450811
 20
178.370755375268601
 30
0.0
 40
0.0118
 50
182.9999998990438996
 51
270.0000000000259774
  0
LINE
  5
2F525
  8
0
 10
3458.3294173792478432
 20
178.4180104933685982
 30
0.0
 11
3458.326908478257792
 21
178.3701378109807081
 31
0.0
  0
LINE
  5
2F526
  8
0
 10
3458.1893692163471314
 20
178.4180104933685982
 30
0.0
 11
3458.191878117233955
 21
178.3701378110056908
 31
0.0
  0
LINE
  5
2F527
  8
0
 10
3458.3151246497482134
 20
178.3589553752686072
 30
0.0
 11
3458.2036619457448978
 21
178.3589553752686072
 31
0.0
  0
ARC
  5
2F528
  8
0
 10
3458.3151246497482134
 20
178.370755375268601
 30
0.0
 40
0.0118
 50
270.0
 51
356.9999999793648158
  0
ARC
  5
2F529
  8
0
 10
3458.2036619457448978
 20
178.370755375268601
 30
0.0
 40
0.0118
 50
182.9999998990438996
 51
270.0000000000259774
  0
LINE
  5
2F52A
  8
0
 10
3458.6916221036481147
 20
178.4180104933685982
 30
0.0
 11
3458.6891132026580635
 21
178.3701378109807081
 31
0.0
  0
LINE
  5
2F52B
  8
0
 10
3458.5515739407478577
 20
178.4180104933685982
 30
0.0
 11
3458.5540828416342265
 21
178.3701378110056908
 31
0.0
  0
LINE
  5
2F52C
  8
0
 10
3458.6773293741480302
 20
178.3589553752686072
 30
0.0
 11
3458.5658666701451693
 21
178.3589553752686072
 31
0.0
  0
ARC
  5
2F52D
  8
0
 10
3458.6773293741480302
 20
178.370755375268601
 30
0.0
 40
0.0118
 50
270.0
 51
356.9999999793648158
  0
ARC
  5
2F52E
  8
0
 10
3458.5658666701451693
 20
178.370755375268601
 30
0.0
 40
0.0118
 50
182.9999998990438996
 51
270.0000000000259774
  0
LINE
  5
2F52F
  8
0
 10
3459.0538268280479315
 20
178.4180104933685982
 30
0.0
 11
3459.0513179270578803
 21
178.3701378109807081
 31
0.0
  0
LINE
  5
2F530
  8
0
 10
3458.9137786651472197
 20
178.4180104933685982
 30
0.0
 11
3458.9162875660331338
 21
178.3701378110056908
 31
0.0
  0
LINE
  5
2F531
  8
0
 10
3459.039534098547847
 20
178.3589553752686072
 30
0.0
 11
3458.9280713945449861
 21
178.3589553752686072
 31
0.0
  0
ARC
  5
2F532
  8
0
 10
3459.039534098547847
 20
178.370755375268601
 30
0.0
 40
0.0118
 50
270.0
 51
356.9999999793648158
  0
ARC
  5
2F533
  8
0
 10
3458.9280713945449861
 20
178.370755375268601
 30
0.0
 40
0.0118
 50
182.9999998990438996
 51
270.0000000000259774
  0
LINE
  5
2F534
  8
0
 10
3459.416031552448203
 20
178.4180104933685982
 30
0.0
 11
3459.4135226514581518
 21
178.3701378109807081
 31
0.0
  0
LINE
  5
2F535
  8
0
 10
3459.275983389547946
 20
178.4180104933685982
 30
0.0
 11
3459.27849229043386
 21
178.3701378110056908
 31
0.0
  0
LINE
  5
2F536
  8
0
 10
3459.4017388229481185
 20
178.3589553752686072
 30
0.0
 11
3459.2902761189448029
 21
178.3589553752686072
 31
0.0
  0
ARC
  5
2F537
  8
0
 10
3459.4017388229481185
 20
178.370755375268601
 30
0.0
 40
0.0118
 50
270.0
 51
356.9999999793648158
  0
ARC
  5
2F538
  8
0
 10
3459.2902761189448029
 20
178.370755375268601
 30
0.0
 40
0.0118
 50
182.9999998990438996
 51
270.0000000000259774
  0
LINE
  5
2F539
  8
0
 10
3459.7782362768480198
 20
178.4180104933685982
 30
0.0
 11
3459.7757273758579686
 21
178.3701378109807081
 31
0.0
  0
LINE
  5
2F53A
  8
0
 10
3459.6381881139468533
 20
178.4180104933685982
 30
0.0
 11
3459.6406970148341316
 21
178.3701378110056908
 31
0.0
  0
LINE
  5
2F53B
  8
0
 10
3459.7639435473479352
 20
178.3589553752686072
 30
0.0
 11
3459.6524808433450744
 21
178.3589553752686072
 31
0.0
  0
ARC
  5
2F53C
  8
0
 10
3459.7639435473479352
 20
178.370755375268601
 30
0.0
 40
0.0118
 50
270.0
 51
356.9999999793648158
  0
ARC
  5
2F53D
  8
0
 10
3459.6524808433450744
 20
178.370755375268601
 30
0.0
 40
0.0118
 50
182.9999998990438996
 51
270.0000000000259774
  0
LINE
  5
2F53E
  8
0
 10
3460.1404410012478365
 20
178.4180104933685982
 30
0.0
 11
3460.1379321002577854
 21
178.3701378109807081
 31
0.0
  0
LINE
  5
2F53F
  8
0
 10
3460.0003928383480343
 20
178.4180104933685982
 30
0.0
 11
3460.0029017392339483
 21
178.3701378110056908
 31
0.0
  0
LINE
  5
2F540
  8
0
 10
3460.1261482717482068
 20
178.3589553752686072
 30
0.0
 11
3460.0146855677448912
 21
178.3589553752686072
 31
0.0
  0
ARC
  5
2F541
  8
0
 10
3460.1261482717482068
 20
178.370755375268601
 30
0.0
 40
0.0118
 50
270.0
 51
356.9999999793648158
  0
ARC
  5
2F542
  8
0
 10
3460.0146855677448912
 20
178.370755375268601
 30
0.0
 40
0.0118
 50
182.9999998990438996
 51
270.0000000000259774
  0
LINE
  5
2F543
  8
0
 10
3460.5026457257467882
 20
178.4180104933685982
 30
0.0
 11
3460.5001368247581013
 21
178.3701378109807081
 31
0.0
  0
LINE
  5
2F544
  8
0
 10
3460.3625975628478955
 20
178.4180104933685982
 30
0.0
 11
3460.3651064637338095
 21
178.3701378110056908
 31
0.0
  0
LINE
  5
2F545
  8
0
 10
3460.4883529962480679
 20
178.3589553752686072
 30
0.0
 11
3460.3768902922452071
 21
178.3589553752686072
 31
0.0
  0
ARC
  5
2F546
  8
0
 10
3460.4883529962480679
 20
178.370755375268601
 30
0.0
 40
0.0118
 50
270.0
 51
356.9999999793648158
  0
ARC
  5
2F547
  8
0
 10
3460.3768902922452071
 20
178.370755375268601
 30
0.0
 40
0.0118
 50
182.9999998990438996
 51
270.0000000000259774
  0
LINE
  5
2F548
  8
0
 10
3460.8648504501479692
 20
178.4180104933685982
 30
0.0
 11
3460.8623415491579181
 21
178.3701378109807081
 31
0.0
  0
LINE
  5
2F549
  8
0
 10
3460.724802287248167
 20
178.4180104933685982
 30
0.0
 11
3460.7273111881331715
 21
178.3701378110056908
 31
0.0
  0
LINE
  5
2F54A
  8
0
 10
3460.8505577206478847
 20
178.3589553752686072
 30
0.0
 11
3460.7390950166450239
 21
178.3589553752686072
 31
0.0
  0
ARC
  5
2F54B
  8
0
 10
3460.8505577206478847
 20
178.370755375268601
 30
0.0
 40
0.0118
 50
270.0
 51
356.9999999793648158
  0
ARC
  5
2F54C
  8
0
 10
3460.7390950166450239
 20
178.370755375268601
 30
0.0
 40
0.0118
 50
182.9999998990438996
 51
270.0000000000259774
  0
LINE
  5
2F54D
  8
0
 10
3461.227055174547786
 20
178.4180104933685982
 30
0.0
 11
3461.2245462735581896
 21
178.3701378109807081
 31
0.0
  0
LINE
  5
2F54E
  8
0
 10
3461.0870070116479837
 20
178.4180104933685982
 30
0.0
 11
3461.0895159125338978
 21
178.3701378110056908
 31
0.0
  0
LINE
  5
2F54F
  8
0
 10
3461.2127624450481562
 20
178.3589553752686072
 30
0.0
 11
3461.1012997410448406
 21
178.3589553752686072
 31
0.0
  0
ARC
  5
2F550
  8
0
 10
3461.2127624450481562
 20
178.370755375268601
 30
0.0
 40
0.0118
 50
270.0
 51
356.9999999793648158
  0
ARC
  5
2F551
  8
0
 10
3461.1012997410448406
 20
178.370755375268601
 30
0.0
 40
0.0118
 50
182.9999998990438996
 51
270.0000000000259774
  0
LINE
  5
2F552
  8
0
 10
3461.5892598989480575
 20
178.4180104933685982
 30
0.0
 11
3461.5867509979580063
 21
178.3701378109807081
 31
0.0
  0
LINE
  5
2F553
  8
0
 10
3461.4492117360478005
 20
178.4180104933685982
 30
0.0
 11
3461.4517206369328051
 21
178.3701378110056908
 31
0.0
  0
LINE
  5
2F554
  8
0
 10
3461.574967169447973
 20
178.3589553752686072
 30
0.0
 11
3461.4635044654451121
 21
178.3589553752686072
 31
0.0
  0
ARC
  5
2F555
  8
0
 10
3461.574967169447973
 20
178.370755375268601
 30
0.0
 40
0.0118
 50
270.0
 51
356.9999999793648158
  0
ARC
  5
2F556
  8
0
 10
3461.4635044654451121
 20
178.370755375268601
 30
0.0
 40
0.0118
 50
182.9999998990438996
 51
270.0000000000259774
  0
LINE
  5
2F557
  8
0
 10
3461.9514646233478743
 20
178.4180104933685982
 30
0.0
 11
3461.9489557223578231
 21
178.3701378109807081
 31
0.0
  0
LINE
  5
2F558
  8
0
 10
3461.8114164604471625
 20
178.4180104933685982
 30
0.0
 11
3461.8139253613339861
 21
178.3701378110056908
 31
0.0
  0
LINE
  5
2F559
  8
0
 10
3461.9371718938477898
 20
178.3589553752686072
 30
0.0
 11
3461.8257091898449289
 21
178.3589553752686072
 31
0.0
  0
ARC
  5
2F55A
  8
0
 10
3461.9371718938477898
 20
178.370755375268601
 30
0.0
 40
0.0118
 50
270.0
 51
356.9999999793648158
  0
ARC
  5
2F55B
  8
0
 10
3461.8257091898449289
 20
178.370755375268601
 30
0.0
 40
0.0118
 50
182.9999998990438996
 51
270.0000000000259774
  0
LINE
  5
2F55C
  8
0
 10
3462.3136693477467816
 20
178.4180104933685982
 30
0.0
 11
3462.3111604467580946
 21
178.3701378109807081
 31
0.0
  0
LINE
  5
2F55D
  8
0
 10
3462.1736211848478888
 20
178.4180104933685982
 30
0.0
 11
3462.1761300857338028
 21
178.3701378110056908
 31
0.0
  0
LINE
  5
2F55E
  8
0
 10
3462.2993766182480613
 20
178.3589553752686072
 30
0.0
 11
3462.1879139142452004
 21
178.3589553752686072
 31
0.0
  0
ARC
  5
2F55F
  8
0
 10
3462.2993766182480613
 20
178.370755375268601
 30
0.0
 40
0.0118
 50
270.0
 51
356.9999999793648158
  0
ARC
  5
2F560
  8
0
 10
3462.1879139142452004
 20
178.370755375268601
 30
0.0
 40
0.0118
 50
182.9999998990438996
 51
270.0000000000259774
  0
LINE
  5
2F561
  8
0
 10
3462.6758740721479626
 20
178.4180104933685982
 30
0.0
 11
3462.6733651711579114
 21
178.3701378109807081
 31
0.0
  0
LINE
  5
2F562
  8
0
 10
3462.5358259092481603
 20
178.4180104933685982
 30
0.0
 11
3462.5383348101340744
 21
178.3701378110056908
 31
0.0
  0
LINE
  5
2F563
  8
0
 10
3462.661581342647878
 20
178.3589553752686072
 30
0.0
 11
3462.5501186386450172
 21
178.3589553752686072
 31
0.0
  0
ARC
  5
2F564
  8
0
 10
3462.661581342647878
 20
178.370755375268601
 30
0.0
 40
0.0118
 50
270.0
 51
356.9999999793648158
  0
ARC
  5
2F565
  8
0
 10
3462.5501186386450172
 20
178.370755375268601
 30
0.0
 40
0.0118
 50
182.9999998990438996
 51
270.0000000000259774
  0
LINE
  5
2F566
  8
0
 10
3463.4047861603708043
 20
178.8747524328902898
 30
0.0
 11
3463.3978275257868518
 21
178.4760925246019099
 31
0.0
  0
ARC
  5
2F567
  8
0
 10
3463.3388173084508708
 20
178.4770866400018861
 30
0.0
 40
0.0590185904226873
 50
269.9651416352655815
 51
359.0348581670911017
  0
ARC
  5
2F568
  8
0
 10
3463.3890885515579612
 20
178.8750264356714013
 30
0.0
 40
0.0157
 50
358.9999999998240128
 51
90.0
  0
ARC
  5
2F569
  8
0
 10
3458.687278849311042
 20
164.1348214215690859
 30
0.0
 40
2.4136676734021609
 50
91.4300920918183664
 51
120.5760353934707041
  0
ARC
  5
2F56A
  8
0
 10
3458.3307711365810064
 20
164.4192782302471869
 30
0.0
 40
1.9940254366228201
 50
115.9091407634203961
 51
182.7280869563134047
  0
ARC
  5
2F56B
  8
0
 10
3458.3446776459118155
 20
164.2950682469075048
 30
0.0
 40
2.0058860781546288
 50
179.1629893662477002
 51
238.7039743833935006
  0
ARC
  5
2F56C
  8
0
 10
3434.3560286372639894
 20
133.8529937991291945
 30
0.0
 40
36.7675249881712176
 50
50.354200575810097
 51
51.3837212340264173
  0
ARC
  5
2F56D
  8
0
 10
3457.1321799750880928
 20
161.3081553235873002
 30
0.0
 40
1.0950535540491551
 50
21.87565628518038
 51
51.412881761905318
  0
ARC
  5
2F56E
  8
0
 10
3457.2808129489071689
 20
161.3821132639241966
 30
0.0
 40
0.9296611689740297
 50
1.58721292751163
 51
21.0588422784723797
  0
ARC
  5
2F56F
  8
0
 10
1201.4104289176809743
 20
105.5355026988714968
 30
0.0
 40
2257.4912081247080096
 50
1.3401971734926259
 51
1.4182014826293501
  0
ARC
  5
2F570
  8
0
 10
3684.5720144913179865
 20
163.5723859516575089
 30
0.0
 40
226.3485154183339034
 50
181.3257775959984883
 51
181.3529814562392062
  0
ARC
  5
2F571
  8
0
 10
3458.3115785284671801
 20
158.2322502821828891
 30
0.0
 40
0.0253513891164325
 50
189.8966254215210938
 51
265.0995400596116269
  0
ARC
  5
2F572
  8
0
 10
3458.8713959373390026
 20
161.7790958179938912
 30
0.0
 40
3.6160411725339991
 50
261.0591983137542798
 51
269.1597722204696765
  0
ARC
  5
2F573
  8
0
 10
3458.8936689707188634
 20
161.9458359183886103
 30
0.0
 40
0.7118909310061742
 50
201.1797399489196891
 51
240.3703018833616909
  0
ARC
  5
2F574
  8
0
 10
3458.819208569616876
 20
161.814832482952994
 30
0.0
 40
0.5612050024803898
 50
240.3658867938590049
 51
269.8439350144718105
  0
ARC
  5
2F575
  8
0
 10
3457.1437956177078377
 20
161.2704759844708065
 30
0.0
 40
1.1637880270483849
 50
21.0576534690146104
 51
52.8424354233942069
  0
ARC
  5
2F576
  8
0
 10
3465.1891293851322189
 20
171.8861287411835974
 30
0.0
 40
12.1561023208619297
 50
228.6384019369160967
 51
232.8424354233941926
  0
ARC
  5
2F577
  8
0
 10
3458.2793808378460199
 20
164.2481841961804037
 30
0.0
 40
1.862575417757544
 50
185.5695806724737906
 51
232.915717256670689
  0
ARC
  5
2F578
  8
0
 10
3458.1241644333131262
 20
164.1756990288781992
 30
0.0
 40
1.702014125489006
 50
141.8533822216953126
 51
183.6477567014790964
  0
ARC
  5
2F579
  8
0
 10
3458.5878563755131836
 20
163.8135351957770069
 30
0.0
 40
2.290377084417611
 50
112.0578880916534956
 51
141.8932543066094922
  0
ARC
  5
2F57A
  8
0
 10
3458.8101528506699651
 20
163.3242952438656914
 30
0.0
 40
2.827376895197236
 50
89.8474661641299264
 51
112.509687690321698
  0
ARC
  5
2F57B
  8
0
 10
3458.8016817259622258
 20
163.3977720395022004
 30
0.0
 40
2.8519181337222692
 50
89.6785901306135713
 51
124.0436060122109012
  0
ARC
  5
2F57C
  8
0
 10
3458.3215499337411529
 20
164.1084294246344086
 30
0.0
 40
1.9942699209074479
 50
124.0436060122109012
 51
173.7837848625034098
  0
ARC
  5
2F57D
  8
0
 10
3458.5951606192711552
 20
165.6990127027883943
 30
0.0
 40
0.0220238406618899
 50
82.725038174921977
 51
281.2287278120618907
  0
ARC
  5
2F57E
  8
0
 10
3458.5988315349882214
 20
165.6991394111080922
 30
0.0
 40
0.0217377389120819
 50
271.6283436917099721
 51
92.3254222952735546
  0
LINE
  5
2F57F
  8
0
 10
3458.5328708848719543
 20
165.7344098124264065
 30
0.0
 11
3458.5329042547709832
 21
165.7082645705264099
 31
0.0
  0
ARC
  5
2F580
  8
0
 10
3458.5939142695601731
 20
165.7110055085061902
 30
0.0
 40
0.0610715534888087
 50
182.5723424233133017
 51
246.3308897016410128
  0
ARC
  5
2F581
  8
0
 10
3458.5962930948930989
 20
165.7164325716962878
 30
0.0
 40
0.0669970766585589
 50
246.3308897016410128
 51
332.4315603757933104
  0
ARC
  5
2F582
  8
0
 10
3458.6167378615978123
 20
165.7057586413538957
 30
0.0
 40
0.0439336581229258
 50
332.4315603757933104
 51
358.8488007310261878
  0
LINE
  5
2F583
  8
0
 10
3458.6606626520710961
 20
165.7048759761264023
 30
0.0
 11
3458.6608236952888547
 21
165.7325175619135109
 31
0.0
  0
ARC
  5
2F584
  8
0
 10
3458.5941185128590405
 20
165.7337606914142043
 30
0.0
 40
0.0612510676823524
 50
87.0072128386655663
 51
179.3927846156589965
  0
ARC
  5
2F585
  8
0
 10
3458.593809093209984
 20
165.7278423575143051
 30
0.0
 40
0.067177484531506
 50
3.9907148924118698
 51
87.0072128386655663
  0
ARC
  5
2F586
  8
0
 10
3458.8176791723708448
 20
160.3443942173269932
 30
0.0
 40
4.2580726628993988
 50
90.1383396389332177
 51
94.6318899421917763
  0
ARC
  5
2F587
  8
0
 10
3458.5195960116889182
 20
164.0236019051660037
 30
0.0
 40
0.5668096296089759
 50
94.6318899421917763
 51
132.5221610261540093
  0
ARC
  5
2F588
  8
0
 10
3458.3903768501700142
 20
164.1645104174637027
 30
0.0
 40
0.3756217624696922
 50
132.5221610261540093
 51
173.4024723549852922
  0
ARC
  5
2F589
  8
0
 10
3459.5760510972231714
 20
164.027375073815108
 30
0.0
 40
1.5692002151068629
 50
173.4024723549852922
 51
186.6096591042351065
  0
ARC
  5
2F58A
  8
0
 10
3458.5057761489870245
 20
163.9527249209733952
 30
0.0
 40
0.4998577894107502
 50
192.2398390942979916
 51
266.3230359061441845
  0
ARC
  5
2F58B
  8
0
 10
3458.8176966399851153
 20
166.3804804665805079
 30
0.0
 40
2.94672974474451
 50
263.2964802588920747
 51
269.7997571086211224
  0
ARC
  5
2F58C
  8
0
 10
3458.8109762281701478
 20
164.1638708567840013
 30
0.0
 40
0.1927335465490715
 50
91.0637537222972639
 51
148.1900614257934876
  0
ARC
  5
2F58D
  8
0
 10
3458.7474197432929941
 20
164.2032928113779917
 30
0.0
 40
0.1179437258916925
 50
148.1900614257949087
 51
179.5956946193225008
  0
ARC
  5
2F58E
  8
0
 10
3458.7902284328401947
 20
164.2029907285553065
 30
0.0
 40
0.1607534812601275
 50
179.5956946193225008
 51
239.203260575178291
  0
ARC
  5
2F58F
  8
0
 10
3458.816855442510132
 20
164.2476637327590936
 30
0.0
 40
0.2127599707449979
 50
239.203260575178291
 51
267.4523308345836199
  0
ARC
  5
2F590
  8
0
 10
3458.810963975633058
 20
164.2432701906809029
 30
0.0
 40
0.1856587020444326
 50
192.1718482029689028
 51
268.8994871148332777
  0
ARC
  5
2F591
  8
0
 10
3458.8144642938250399
 20
164.2217112941519019
 30
0.0
 40
0.053340073914535
 50
86.5436946793946191
 51
198.4023246923605939
  0
ARC
  5
2F592
  8
0
 10
3458.8128054532539863
 20
164.2211593965861027
 30
0.0
 40
0.051591833952649
 50
198.4023246923590875
 51
275.4215915704174904
  0
ARC
  5
2F593
  8
0
 10
3458.8191304046968071
 20
164.2261562645254003
 30
0.0
 40
0.0563765618802766
 50
268.5258135118145901
 51
343.7903755362594893
  0
ARC
  5
2F594
  8
0
 10
3458.8202181102687973
 20
164.2209340537062019
 30
0.0
 40
0.0540798839809999
 50
348.7878264914775173
 51
92.6900029226683984
  0
ARC
  5
2F595
  8
0
 10
3458.8162097861350048
 20
164.2324912713542915
 30
0.0
 40
0.087455636302521
 50
211.7766659778936003
 51
270.9632640099375749
  0
ARC
  5
2F596
  8
0
 10
3458.8078751237849247
 20
164.22732825979881
 30
0.0
 40
0.0776513879982672
 50
169.6510366562706054
 51
211.7766659778936003
  0
ARC
  5
2F597
  8
0
 10
3458.8158895680130627
 20
164.2173234792196865
 30
0.0
 40
0.0877360013887729
 50
95.5539989263692462
 51
164.1555240633765038
  0
ARC
  5
2F598
  8
0
 10
3458.8190118523270939
 20
164.2324473105483946
 30
0.0
 40
0.087409462993095
 50
269.1269752902485948
 51
331.0644360775693258
  0
ARC
  5
2F599
  8
0
 10
3458.8423676506531592
 20
164.2225466022146918
 30
0.0
 40
0.0622349069558286
 50
328.6374736489586894
 51
6.9540997524270969
  0
ARC
  5
2F59A
  8
0
 10
3458.8245142509040306
 20
164.2234658065964084
 30
0.0
 40
0.0799048281514303
 50
4.7493232466032858
 51
64.1234310398657925
  0
ARC
  5
2F59B
  8
0
 10
3458.8177002767629347
 20
164.2121698944033881
 30
0.0
 40
0.0930497691628509
 50
63.3839751870489394
 51
96.3566142337626559
  0
ARC
  5
2F59C
  8
0
 10
3458.7971171111707918
 20
160.3443942173269932
 30
0.0
 40
4.2580726628993988
 50
85.3681100578082379
 51
89.8616603610667966
  0
ARC
  5
2F59D
  8
0
 10
3459.095200271854992
 20
164.0236019051660037
 30
0.0
 40
0.5668096296089759
 50
47.4778389738459197
 51
85.3681100578082379
  0
ARC
  5
2F59E
  8
0
 10
3459.224419433372077
 20
164.1645104174637027
 30
0.0
 40
0.3756217624696922
 50
6.5975276450146616
 51
47.4778389738459197
  0
ARC
  5
2F59F
  8
0
 10
3458.0387451863198294
 20
164.027375073815108
 30
0.0
 40
1.5692002151068629
 50
353.3903408957631882
 51
6.5975276450146616
  0
ARC
  5
2F5A0
  8
0
 10
3459.1090201345559763
 20
163.9527249209733952
 30
0.0
 40
0.4998577894107502
 50
273.6769640938558155
 51
347.7601609057019232
  0
ARC
  5
2F5A1
  8
0
 10
3458.7970996435569759
 20
166.3804804665805079
 30
0.0
 40
2.94672974474451
 50
270.2002428913788776
 51
276.7035197411079253
  0
ARC
  5
2F5A2
  8
0
 10
3458.8038200553719435
 20
164.1638708567840013
 30
0.0
 40
0.1927335465490715
 50
31.8099385742064911
 51
88.9362462777027218
  0
ARC
  5
2F5A3
  8
0
 10
3458.8673765402490972
 20
164.2032928113779917
 30
0.0
 40
0.1179437258916925
 50
0.4043053806775043
 51
31.8099385742051091
  0
ARC
  5
2F5A4
  8
0
 10
3458.824567850702806
 20
164.2029907285553065
 30
0.0
 40
0.1607534812601275
 50
300.7967394248216806
 51
0.4043053806775043
  0
ARC
  5
2F5A5
  8
0
 10
3458.7979408410337783
 20
164.2476637327590936
 30
0.0
 40
0.2127599707449979
 50
272.5476691654164938
 51
300.7967394248216806
  0
ARC
  5
2F5A6
  8
0
 10
3458.8038323079090333
 20
164.2432701906809029
 30
0.0
 40
0.1856587020444326
 50
271.1005128851667223
 51
347.8281517970311256
  0
ARC
  5
2F5A7
  8
0
 10
3458.8176800455707962
 20
163.9087867233523923
 30
0.0
 40
0.1732283464757293
 50
70.4658660261287366
 51
112.9942947168101028
  0
ARC
  5
2F5A8
  8
0
 10
3458.8212581521520406
 20
163.7627385951929
 30
0.0
 40
0.1927335465490715
 50
91.0637537222972639
 51
148.1900614257934876
  0
ARC
  5
2F5A9
  8
0
 10
3458.7577016672748869
 20
163.8021605497868904
 30
0.0
 40
0.1179437258916925
 50
148.1900614257949087
 51
179.5956946193225008
  0
ARC
  5
2F5AA
  8
0
 10
3458.8005103568220875
 20
163.8018584669642905
 30
0.0
 40
0.1607534812601275
 50
179.5956946193225008
 51
239.203260575178291
  0
ARC
  5
2F5AB
  8
0
 10
3458.8271373664911152
 20
163.8465314711679923
 30
0.0
 40
0.2127599707449979
 50
239.203260575178291
 51
267.4523308345836199
  0
ARC
  5
2F5AC
  8
0
 10
3458.8212458996158603
 20
163.8421379290898017
 30
0.0
 40
0.1856587020444326
 50
192.1718482029689028
 51
268.8994871148332777
  0
ARC
  5
2F5AD
  8
0
 10
3458.8116030260662228
 20
163.8365572722572097
 30
0.0
 40
0.053340073914535
 50
86.5436946793946191
 51
198.4023246923590875
  0
ARC
  5
2F5AE
  8
0
 10
3458.8099441854951692
 20
163.8360053746914105
 30
0.0
 40
0.051591833952649
 50
198.4023246923590875
 51
275.4215915704174904
  0
ARC
  5
2F5AF
  8
0
 10
3458.8162691369370805
 20
163.8410022426307933
 30
0.0
 40
0.0563765618802766
 50
268.5258135118145901
 51
343.7903755362594893
  0
ARC
  5
2F5B0
  8
0
 10
3458.8173568425090707
 20
163.8357800318115949
 30
0.0
 40
0.0540798839809999
 50
348.7878264914775173
 51
92.6900029226683984
  0
ARC
  5
2F5B1
  8
0
 10
3458.8133485183761877
 20
163.8473372494595992
 30
0.0
 40
0.087455636302521
 50
211.7766659778936003
 51
270.9632640099375749
  0
ARC
  5
2F5B2
  8
0
 10
3458.8050138560261075
 20
163.8421742379040893
 30
0.0
 40
0.0776513879982672
 50
169.6510366562706054
 51
211.7766659778936003
  0
ARC
  5
2F5B3
  8
0
 10
3458.8130283002528813
 20
163.8321694573249943
 30
0.0
 40
0.0877360013887729
 50
95.5539989263692462
 51
164.1555240633765038
  0
ARC
  5
2F5B4
  8
0
 10
3458.8161505845669126
 20
163.8472932886537876
 30
0.0
 40
0.087409462993095
 50
269.1269752902485948
 51
331.0644360775693258
  0
ARC
  5
2F5B5
  8
0
 10
3458.8395063828938873
 20
163.8373925803199995
 30
0.0
 40
0.0622349069558286
 50
328.6374736489586894
 51
6.9540997524270969
  0
ARC
  5
2F5B6
  8
0
 10
3458.8216529831438493
 20
163.8383117847018013
 30
0.0
 40
0.0799048281514303
 50
4.7493232466032858
 51
64.1234310398657925
  0
ARC
  5
2F5B7
  8
0
 10
3458.814839009003208
 20
163.8270158725086958
 30
0.0
 40
0.0930497691628509
 50
63.3839751870489394
 51
96.3566142337626559
  0
ARC
  5
2F5B8
  8
0
 10
3458.8141019793529267
 20
163.7627385951929
 30
0.0
 40
0.1927335465490715
 50
31.8099385742064911
 51
88.9362462777027218
  0
ARC
  5
2F5B9
  8
0
 10
3458.8776584642309899
 20
163.8021605497868904
 30
0.0
 40
0.1179437258916925
 50
0.4043053806775043
 51
31.8099385742051091
  0
ARC
  5
2F5BA
  8
0
 10
3458.8348497746851535
 20
163.8018584669642905
 30
0.0
 40
0.1607534812601275
 50
300.7967394248216806
 51
0.4043053806775043
  0
ARC
  5
2F5BB
  8
0
 10
3458.8082227650152163
 20
163.8465314711679923
 30
0.0
 40
0.2127599707449979
 50
272.5476691654164938
 51
300.7967394248216806
  0
ARC
  5
2F5BC
  8
0
 10
3458.8141142318900165
 20
163.8421379290898017
 30
0.0
 40
0.1856587020444326
 50
271.1005128851667223
 51
347.8281517970311256
  0
ARC
  5
2F5BD
  8
0
 10
3458.8279619695517795
 20
163.507654461761291
 30
0.0
 40
0.1732283464757293
 50
70.4658660261287366
 51
112.9942947168101028
  0
ARC
  5
2F5BE
  8
0
 10
3458.3459283694851365
 20
164.170696316537402
 30
0.0
 40
0.1927335465490715
 50
91.0637537222972639
 51
148.1900614257934876
  0
ARC
  5
2F5BF
  8
0
 10
3458.2823718846079828
 20
164.2101182711313072
 30
0.0
 40
0.1179437258916925
 50
148.1900614257949087
 51
179.5956946193225008
  0
ARC
  5
2F5C0
  8
0
 10
3458.3251805741538192
 20
164.2098161883087073
 30
0.0
 40
0.1607534812601275
 50
179.5956946193225008
 51
239.203260575178291
  0
ARC
  5
2F5C1
  8
0
 10
3458.3518075838242112
 20
164.2544891925124944
 30
0.0
 40
0.2127599707449979
 50
239.203260575178291
 51
267.4523308345836199
  0
ARC
  5
2F5C2
  8
0
 10
3458.3459161169480467
 20
164.25009565043419
 30
0.0
 40
0.1856587020444326
 50
192.1718482029689028
 51
268.8994871148332777
  0
ARC
  5
2F5C3
  8
0
 10
3458.3494164351400286
 20
164.228536753905189
 30
0.0
 40
0.053340073914535
 50
86.5436946793946191
 51
198.4023246923605939
  0
ARC
  5
2F5C4
  8
0
 10
3458.3477575945680655
 20
164.2279848563393898
 30
0.0
 40
0.051591833952649
 50
198.4023246923590875
 51
275.4215915704174904
  0
ARC
  5
2F5C5
  8
0
 10
3458.3540825460108863
 20
164.232981724278801
 30
0.0
 40
0.0563765618802766
 50
268.5258135118145901
 51
343.7903755362594893
  0
ARC
  5
2F5C6
  8
0
 10
3458.3551702515828765
 20
164.2277595134596027
 30
0.0
 40
0.0540798839809999
 50
348.7878264914775173
 51
92.6900029226683984
  0
ARC
  5
2F5C7
  8
0
 10
3458.351161927449084
 20
164.2393167311076922
 30
0.0
 40
0.087455636302521
 50
211.7766659778936003
 51
270.9632640099375749
  0
ARC
  5
2F5C8
  8
0
 10
3458.3428272650990039
 20
164.2341537195522108
 30
0.0
 40
0.0776513879982672
 50
169.6510366562706054
 51
211.7766659778936003
  0
ARC
  5
2F5C9
  8
0
 10
3458.3508417093271419
 20
164.224148938973002
 30
0.0
 40
0.0877360013887729
 50
95.5539989263692462
 51
164.1555240633765038
  0
ARC
  5
2F5CA
  8
0
 10
3458.3539639936411731
 20
164.2392727703017954
 30
0.0
 40
0.087409462993095
 50
269.1269752902485948
 51
331.0644360775693258
  0
ARC
  5
2F5CB
  8
0
 10
3458.3773197919667837
 20
164.2293720619680926
 30
0.0
 40
0.0622349069558286
 50
328.6374736489586894
 51
6.9540997524270969
  0
ARC
  5
2F5CC
  8
0
 10
3458.3594663922181098
 20
164.2302912663498091
 30
0.0
 40
0.0799048281514303
 50
4.7493232466032858
 51
64.1234310398657925
  0
ARC
  5
2F5CD
  8
0
 10
3458.3526524180770139
 20
164.2189953541567036
 30
0.0
 40
0.0930497691628509
 50
63.3839751870489394
 51
96.3566142337626559
  0
ARC
  5
2F5CE
  8
0
 10
3458.3387721966860227
 20
164.170696316537402
 30
0.0
 40
0.1927335465490715
 50
31.8099385742064911
 51
88.9362462777027218
  0
ARC
  5
2F5CF
  8
0
 10
3458.4023286815631764
 20
164.2101182711313072
 30
0.0
 40
0.1179437258916925
 50
0.4043053806775043
 51
31.8099385742051091
  0
ARC
  5
2F5D0
  8
0
 10
3458.3595199920168852
 20
164.2098161883087073
 30
0.0
 40
0.1607534812601275
 50
300.7967394248216806
 51
0.4043053806775043
  0
ARC
  5
2F5D1
  8
0
 10
3458.3328929823478575
 20
164.2544891925124944
 30
0.0
 40
0.2127599707449979
 50
272.5476691654164938
 51
300.7967394248216806
  0
ARC
  5
2F5D2
  8
0
 10
3458.3387844492231125
 20
164.25009565043419
 30
0.0
 40
0.1856587020444326
 50
271.1005128851667223
 51
347.8281517970311256
  0
ARC
  5
2F5D3
  8
0
 10
3458.3526321868848754
 20
163.9156121831057931
 30
0.0
 40
0.1732283464757293
 50
70.4658660261287366
 51
112.9942947168101028
  0
ARC
  5
2F5D4
  8
0
 10
3458.3514568791538295
 20
163.7695363366183017
 30
0.0
 40
0.1927335465490715
 50
91.0637537222972639
 51
148.1900614257934876
  0
ARC
  5
2F5D5
  8
0
 10
3458.2879003942771305
 20
163.8089582912122921
 30
0.0
 40
0.1179437258916925
 50
148.1900614257949087
 51
179.5956946193225008
  0
ARC
  5
2F5D6
  8
0
 10
3458.3307090838229669
 20
163.8086562083896922
 30
0.0
 40
0.1607534812601275
 50
179.5956946193225008
 51
239.203260575178291
  0
ARC
  5
2F5D7
  8
0
 10
3458.3573360934938137
 20
163.853329212593394
 30
0.0
 40
0.2127599707449979
 50
239.203260575178291
 51
267.4523308345836199
  0
ARC
  5
2F5D8
  8
0
 10
3458.3514446266181039
 20
163.8489356705152034
 30
0.0
 40
0.1856587020444326
 50
192.1718482029689028
 51
268.8994871148332777
  0
ARC
  5
2F5D9
  8
0
 10
3458.3312696029370272
 20
163.8358106686536928
 30
0.0
 40
0.053340073914535
 50
86.5436946793946191
 51
198.4023246923590875
  0
ARC
  5
2F5DA
  8
0
 10
3458.3296107623659736
 20
163.8352587710878936
 30
0.0
 40
0.051591833952649
 50
198.4023246923590875
 51
275.4215915704174904
  0
ARC
  5
2F5DB
  8
0
 10
3458.3359357138069754
 20
163.8402556390273048
 30
0.0
 40
0.0563765618802766
 50
268.5258135118145901
 51
343.7903755362594893
  0
ARC
  5
2F5DC
  8
0
 10
3458.3370234193798751
 20
163.8350334282081064
 30
0.0
 40
0.0540798839809999
 50
348.7878264914775173
 51
92.6900029226683984
  0
ARC
  5
2F5DD
  8
0
 10
3458.3330150952460826
 20
163.8465906458561108
 30
0.0
 40
0.087455636302521
 50
211.7766659778936003
 51
270.9632640099375749
  0
ARC
  5
2F5DE
  8
0
 10
3458.3246804328960025
 20
163.8414276343006009
 30
0.0
 40
0.0776513879982672
 50
169.6510366562706054
 51
211.7766659778936003
  0
ARC
  5
2F5DF
  8
0
 10
3458.3326948771241405
 20
163.8314228537215058
 30
0.0
 40
0.0877360013887729
 50
95.5539989263692462
 51
164.1555240633765038
  0
ARC
  5
2F5E0
  8
0
 10
3458.3358171614381718
 20
163.8465466850502992
 30
0.0
 40
0.087409462993095
 50
269.1269752902485948
 51
331.0644360775693258
  0
ARC
  5
2F5E1
  8
0
 10
3458.3591729597637823
 20
163.8366459767165111
 30
0.0
 40
0.0622349069558286
 50
328.6374736489586894
 51
6.9540997524270969
  0
ARC
  5
2F5E2
  8
0
 10
3458.3413195600151084
 20
163.8375651810983129
 30
0.0
 40
0.0799048281514303
 50
4.7493232466032858
 51
64.1234310398657925
  0
ARC
  5
2F5E3
  8
0
 10
3458.3345055858740125
 20
163.8262692689052074
 30
0.0
 40
0.0930497691628509
 50
63.3839751870489394
 51
96.3566142337626559
  0
ARC
  5
2F5E4
  8
0
 10
3458.3443007063560799
 20
163.7695363366183017
 30
0.0
 40
0.1927335465490715
 50
31.8099385742064911
 51
88.9362462777027218
  0
ARC
  5
2F5E5
  8
0
 10
3458.4078571912341431
 20
163.8089582912122921
 30
0.0
 40
0.1179437258916925
 50
0.4043053806775043
 51
31.8099385742051091
  0
ARC
  5
2F5E6
  8
0
 10
3458.3650485016869425
 20
163.8086562083896922
 30
0.0
 40
0.1607534812601275
 50
300.7967394248216806
 51
0.4043053806775043
  0
ARC
  5
2F5E7
  8
0
 10
3458.3384214920179147
 20
163.853329212593394
 30
0.0
 40
0.2127599707449979
 50
272.5476691654164938
 51
300.7967394248216806
  0
ARC
  5
2F5E8
  8
0
 10
3458.3443129588931697
 20
163.8489356705152034
 30
0.0
 40
0.1856587020444326
 50
271.1005128851667223
 51
347.8281517970311256
  0
ARC
  5
2F5E9
  8
0
 10
3459.291059355687139
 20
163.7695361880531948
 30
0.0
 40
0.1927335465490715
 50
91.0637537222972639
 51
148.1900614257934876
  0
ARC
  5
2F5EA
  8
0
 10
3459.2275028708099853
 20
163.8089581426472137
 30
0.0
 40
0.1179437258916925
 50
148.1900614257949087
 51
179.5956946193225008
  0
ARC
  5
2F5EB
  8
0
 10
3459.2703115603558217
 20
163.8086560598245001
 30
0.0
 40
0.1607534812601275
 50
179.5956946193225008
 51
239.203260575178291
  0
ARC
  5
2F5EC
  8
0
 10
3459.2969385700248495
 20
163.8533290640282871
 30
0.0
 40
0.2127599707449979
 50
239.203260575178291
 51
267.4523308345836199
  0
ARC
  5
2F5ED
  8
0
 10
3459.2910471031500492
 20
163.8489355219500965
 30
0.0
 40
0.1856587020444326
 50
192.1718482029689028
 51
268.8994871148332777
  0
ARC
  5
2F5EE
  8
0
 10
3459.285354207941964
 20
163.8354843911264993
 30
0.0
 40
0.053340073914535
 50
86.5436946793946191
 51
198.4023246923590875
  0
ARC
  5
2F5EF
  8
0
 10
3459.2836953673709104
 20
163.8349324935607001
 30
0.0
 40
0.051591833952649
 50
198.4023246923590875
 51
275.4215915704174904
  0
ARC
  5
2F5F0
  8
0
 10
3459.2900203188141859
 20
163.8399293615001113
 30
0.0
 40
0.0563765618802766
 50
268.5258135118145901
 51
343.7903755362594893
  0
ARC
  5
2F5F1
  8
0
 10
3459.2911080243861761
 20
163.8347071506809129
 30
0.0
 40
0.0540798839809999
 50
348.7878264914775173
 51
92.6900029226683984
  0
ARC
  5
2F5F2
  8
0
 10
3459.2870997002519289
 20
163.8462643683288888
 30
0.0
 40
0.087455636302521
 50
211.7766659778936003
 51
270.9632640099375749
  0
ARC
  5
2F5F3
  8
0
 10
3459.2787650379018487
 20
163.8411013567734074
 30
0.0
 40
0.0776513879982672
 50
169.6510366562706054
 51
211.7766659778936003
  0
ARC
  5
2F5F4
  8
0
 10
3459.2867794821299867
 20
163.8310965761943123
 30
0.0
 40
0.0877360013887729
 50
95.5539989263692462
 51
164.1555240633765038
  0
ARC
  5
2F5F5
  8
0
 10
3459.289901766444018
 20
163.8462204075231057
 30
0.0
 40
0.087409462993095
 50
269.1269752902485948
 51
331.0644360775693258
  0
ARC
  5
2F5F6
  8
0
 10
3459.3132575647691738
 20
163.8363196991892892
 30
0.0
 40
0.0622349069558286
 50
328.6374736489586894
 51
6.9540997524270969
  0
ARC
  5
2F5F7
  8
0
 10
3459.2954041650209547
 20
163.837238903571091
 30
0.0
 40
0.0799048281514303
 50
4.7493232466032858
 51
64.1234310398657925
  0
ARC
  5
2F5F8
  8
0
 10
3459.2885901908798587
 20
163.8259429913780139
 30
0.0
 40
0.0930497691628509
 50
63.3839751870489394
 51
96.3566142337626559
  0
ARC
  5
2F5F9
  8
0
 10
3459.2839031828880252
 20
163.7695361880531948
 30
0.0
 40
0.1927335465490715
 50
31.8099385742064911
 51
88.9362462777027218
  0
ARC
  5
2F5FA
  8
0
 10
3459.3474596677651789
 20
163.8089581426472137
 30
0.0
 40
0.1179437258916925
 50
0.4043053806775043
 51
31.8099385742051091
  0
ARC
  5
2F5FB
  8
0
 10
3459.3046509782179783
 20
163.8086560598245001
 30
0.0
 40
0.1607534812601275
 50
300.7967394248216806
 51
0.4043053806775043
  0
ARC
  5
2F5FC
  8
0
 10
3459.2780239685489505
 20
163.8533290640282871
 30
0.0
 40
0.2127599707449979
 50
272.5476691654164938
 51
300.7967394248216806
  0
ARC
  5
2F5FD
  8
0
 10
3459.2839154354242055
 20
163.8489355219500965
 30
0.0
 40
0.1856587020444326
 50
271.1005128851667223
 51
347.8281517970311256
  0
ARC
  5
2F5FE
  8
0
 10
3459.2967259173119601
 20
164.1706981444357893
 30
0.0
 40
0.1927335465490715
 50
91.0637537222972639
 51
148.1900614257934876
  0
ARC
  5
2F5FF
  8
0
 10
3459.2331694324338969
 20
164.2101200990298082
 30
0.0
 40
0.1179437258916925
 50
148.1900614257949087
 51
179.5956946193225008
  0
ARC
  5
2F600
  8
0
 10
3459.2759781219810975
 20
164.2098180162070946
 30
0.0
 40
0.1607534812601275
 50
179.5956946193225008
 51
239.203260575178291
  0
ARC
  5
2F601
  8
0
 10
3459.3026051316501253
 20
164.2544910204109101
 30
0.0
 40
0.2127599707449979
 50
239.203260575178291
 51
267.4523308345836199
  0
ARC
  5
2F602
  8
0
 10
3459.2967136647739608
 20
164.250097478332691
 30
0.0
 40
0.1856587020444326
 50
192.1718482029689028
 51
268.8994871148332777
  0
ARC
  5
2F603
  8
0
 10
3459.2860630204068002
 20
164.2223507611537912
 30
0.0
 40
0.053340073914535
 50
86.5436946793946191
 51
198.4023246923590875
  0
ARC
  5
2F604
  8
0
 10
3459.2844041798348371
 20
164.2217988635879919
 30
0.0
 40
0.051591833952649
 50
198.4023246923590875
 51
275.4215915704174904
  0
ARC
  5
2F605
  8
0
 10
3459.2907291312772031
 20
164.2267957315274032
 30
0.0
 40
0.0563765618802766
 50
268.5258135118145901
 51
343.7903755362594893
  0
ARC
  5
2F606
  8
0
 10
3459.2918168368501028
 20
164.2215735207082048
 30
0.0
 40
0.0540798839809999
 50
348.7878264914775173
 51
92.6900029226683984
  0
ARC
  5
2F607
  8
0
 10
3459.2878085127158556
 20
164.2331307383562091
 30
0.0
 40
0.087455636302521
 50
211.7766659778936003
 51
270.9632640099375749
  0
ARC
  5
2F608
  8
0
 10
3459.2794738503657754
 20
164.2279677268008129
 30
0.0
 40
0.0776513879982672
 50
169.6510366562706054
 51
211.7766659778936003
  0
ARC
  5
2F609
  8
0
 10
3459.2874882945939135
 20
164.2179629462216042
 30
0.0
 40
0.0877360013887729
 50
95.5539989263692462
 51
164.1555240633765038
  0
ARC
  5
2F60A
  8
0
 10
3459.2906105789079447
 20
164.2330867775503975
 30
0.0
 40
0.087409462993095
 50
269.1269752902485948
 51
331.0644360775693258
  0
ARC
  5
2F60B
  8
0
 10
3459.31396637723401
 20
164.2231860692166947
 30
0.0
 40
0.0622349069558286
 50
328.6374736489586894
 51
6.9540997524270969
  0
ARC
  5
2F60C
  8
0
 10
3459.2961129774839719
 20
164.2241052735984113
 30
0.0
 40
0.0799048281514303
 50
4.7493232466032858
 51
64.1234310398657925
  0
ARC
  5
2F60D
  8
0
 10
3459.2892990033428759
 20
164.2128093614053057
 30
0.0
 40
0.0930497691628509
 50
63.3839751870489394
 51
96.3566142337626559
  0
ARC
  5
2F60E
  8
0
 10
3459.2895697445128462
 20
164.1706981444357893
 30
0.0
 40
0.1927335465490715
 50
31.8099385742064911
 51
88.9362462777027218
  0
ARC
  5
2F60F
  8
0
 10
3459.3531262293899999
 20
164.2101200990298082
 30
0.0
 40
0.1179437258916925
 50
0.4043053806775043
 51
31.8099385742051091
  0
ARC
  5
2F610
  8
0
 10
3459.3103175398441635
 20
164.2098180162070946
 30
0.0
 40
0.1607534812601275
 50
300.7967394248216806
 51
0.4043053806775043
  0
ARC
  5
2F611
  8
0
 10
3459.2836905301742263
 20
164.2544910204109101
 30
0.0
 40
0.2127599707449979
 50
272.5476691654164938
 51
300.7967394248216806
  0
ARC
  5
2F612
  8
0
 10
3459.289581997049936
 20
164.250097478332691
 30
0.0
 40
0.1856587020444326
 50
271.1005128851667223
 51
347.8281517970311256
  0
ARC
  5
2F613
  8
0
 10
3459.3034297347107895
 20
163.9156140110042088
 30
0.0
 40
0.1732283464757293
 50
70.4658660261287366
 51
112.9942947168101028
  0
LINE
  5
2F614
  8
0
 10
3459.2544535810661728
 20
163.6669188529708947
 30
0.0
 11
3459.45513087217887
 21
163.7771411777287085
 31
0.0
  0
LINE
  5
2F615
  8
0
 10
3459.2966824707082196
 20
163.6637163100554062
 30
0.0
 11
3459.436299895116008
 21
163.7428783199815996
 31
0.0
  0
LINE
  5
2F616
  8
0
 10
3458.1815095926740469
 20
163.774161090054605
 30
0.0
 11
3458.3710741158201927
 21
163.6652157910118035
 31
0.0
  0
LINE
  5
2F617
  8
0
 10
3458.1980066554010591
 20
163.7444084365830008
 30
0.0
 11
3458.3383936996160628
 21
163.6637362457072129
 31
0.0
  0
ARC
  5
2F618
  8
0
 10
3458.8151649425999494
 20
161.6672870864694005
 30
0.0
 40
0.3587648811798778
 50
89.5983453021568437
 51
117.4424421806073013
  0
ARC
  5
2F619
  8
0
 10
3458.8133249674410763
 20
161.8541963287426029
 30
0.0
 40
0.2854016372740877
 50
195.3807565159698925
 51
270.8743149379897091
  0
ARC
  5
2F61A
  8
0
 10
3458.7314603455129145
 20
161.8055093195048073
 30
0.0
 40
0.1978037493041516
 50
114.3749440754664022
 51
170.3638048051952865
  0
ARC
  5
2F61B
  8
0
 10
3458.7152808042092147
 20
161.8135849366568948
 30
0.0
 40
0.1805771345647331
 50
172.0308904085021027
 51
191.2039001636071873
  0
ARC
  5
2F61C
  8
0
 10
3458.3397819803431048
 20
162.2595280527623913
 30
0.0
 40
0.2337983887487051
 50
106.6063643087297947
 51
154.8221185996800955
  0
ARC
  5
2F61D
  8
0
 10
3458.3801453678929647
 20
162.1241866735240933
 30
0.0
 40
0.3750304388951984
 50
50.5215427569570181
 51
106.6063643087297947
  0
ARC
  5
2F61E
  8
0
 10
3458.5013624405341943
 20
162.2713474400555924
 30
0.0
 40
0.1843740204199287
 50
355.3221099329459207
 51
50.5215427569570181
  0
ARC
  5
2F61F
  8
0
 10
3458.5208409656861477
 20
162.2634092159966031
 30
0.0
 40
0.1644346093184204
 50
308.6347114371550902
 51
357.5259271491490836
  0
ARC
  5
2F620
  8
0
 10
3458.4346687025031315
 20
162.3545700272067052
 30
0.0
 40
0.289632733632529
 50
259.176011703290385
 51
310.6917689289904274
  0
ARC
  5
2F621
  8
0
 10
3458.4341454662871911
 20
162.41672703398919
 30
0.0
 40
0.3507973690653712
 50
218.5834390877635087
 51
261.1668431250515141
  0
ARC
  5
2F622
  8
0
 10
3458.2945228703329121
 20
162.3081176172738935
 30
0.0
 40
0.1739332294707225
 50
162.9923804943315986
 51
219.3002861020165142
  0
ARC
  5
2F623
  8
0
 10
3459.2955778885989275
 20
162.2595280527623913
 30
0.0
 40
0.2337983887487051
 50
25.1778814003198903
 51
73.3936356912702337
  0
ARC
  5
2F624
  8
0
 10
3459.2552145010499771
 20
162.1241866735240933
 30
0.0
 40
0.3750304388951984
 50
73.3936356912702337
 51
129.4784572430430103
  0
ARC
  5
2F625
  8
0
 10
3459.133997428407838
 20
162.2713474400555924
 30
0.0
 40
0.1843740204199287
 50
129.4784572430430103
 51
184.6778900670524024
  0
ARC
  5
2F626
  8
0
 10
3459.1145189032567941
 20
162.2634092159966031
 30
0.0
 40
0.1644346093184204
 50
182.4740728508492111
 51
231.3652885628449098
  0
ARC
  5
2F627
  8
0
 10
3459.2006911664389008
 20
162.3545700272067052
 30
0.0
 40
0.289632733632529
 50
229.308231071009601
 51
280.8239882967092171
  0
ARC
  5
2F628
  8
0
 10
3459.2012144026548413
 20
162.41672703398919
 30
0.0
 40
0.3507973690653712
 50
278.8331568749484859
 51
321.4165609122363776
  0
ARC
  5
2F629
  8
0
 10
3459.3408369986100297
 20
162.3081176172738935
 30
0.0
 40
0.1739332294707225
 50
320.6997138979834858
 51
17.0076195056684085
  0
ARC
  5
2F62A
  8
0
 10
3458.8201949263420829
 20
161.6672870864694005
 30
0.0
 40
0.3587648811798865
 50
62.5575578193926987
 51
90.4016546978431563
  0
ARC
  5
2F62B
  8
0
 10
3458.8220349015000465
 20
161.8541963287426029
 30
0.0
 40
0.2854016372740877
 50
269.1256850620102909
 51
344.6192434840301075
  0
ARC
  5
2F62C
  8
0
 10
3458.9038995234300273
 20
161.8055093195048073
 30
0.0
 40
0.1978037493041516
 50
9.6361951948047189
 51
65.6250559245328589
  0
ARC
  5
2F62D
  8
0
 10
3458.9200790647328176
 20
161.8135849366568948
 30
0.0
 40
0.1805771345647331
 50
348.796099836391079
 51
7.969109591497884
  0
ARC
  5
2F62E
  8
0
 10
3458.2686457013128347
 20
164.8151852627553069
 30
0.0
 40
0.177882960600706
 50
19.3529343464765518
 51
82.9471619686840285
  0
ARC
  5
2F62F
  8
0
 10
3458.2666533437281942
 20
164.7990815994895968
 30
0.0
 40
0.194109403813036
 50
82.9471619686840285
 51
140.6260542856595919
  0
ARC
  5
2F630
  8
0
 10
3458.1978016462931009
 20
164.8555846071047881
 30
0.0
 40
0.1050411933834529
 50
140.6260542856595919
 51
181.9176828740648091
  0
ARC
  5
2F631
  8
0
 10
3458.2767508412630377
 20
164.8582280143502885
 30
0.0
 40
0.1840346297445655
 50
181.917682874066486
 51
217.3176908830930074
  0
ARC
  5
2F632
  8
0
 10
3458.2680829243267908
 20
164.8714393002321117
 30
0.0
 40
0.1858199503913451
 50
222.1834557316070971
 51
257.8017092969690793
  0
ARC
  5
2F633
  8
0
 10
3458.2720091724568192
 20
164.8786228751970953
 30
0.0
 40
0.1936848272965836
 50
257.1154670028346914
 51
294.9220335972161138
  0
ARC
  5
2F634
  8
0
 10
3458.290593989926947
 20
164.8424990956486056
 30
0.0
 40
0.1531021657744578
 50
294.3111877142821982
 51
342.5471750305189857
  0
ARC
  5
2F635
  8
0
 10
3458.2636217035837944
 20
164.8349765831003992
 30
0.0
 40
0.1772352702222621
 50
347.4883362902126009
 51
12.7636792595683097
  0
ARC
  5
2F636
  8
0
 10
3458.3005921783687882
 20
164.778835651780696
 30
0.0
 40
0.0038103401713618
 50
4.8524150437561024
 51
101.7385971645380067
  0
ARC
  5
2F637
  8
0
 10
3451.8379613581741978
 20
164.8270466673018007
 30
0.0
 40
6.466604826975539
 50
359.3747439687074916
 51
359.5756899313528265
  0
ARC
  5
2F638
  8
0
 10
3458.3007307250331905
 20
164.7568392368634989
 30
0.0
 40
0.0034691210502517
 50
290.927341718353091
 51
354.0471672632777995
  0
ARC
  5
2F639
  8
0
 10
3458.7599601773708855
 20
163.9340888418265934
 30
0.0
 40
0.9388034847996898
 50
119.1990205279573019
 51
124.0939425626928028
  0
ARC
  5
2F63A
  8
0
 10
3458.2649125385501065
 20
164.9945866025821033
 30
0.0
 40
0.214874213121645
 50
216.9612482718767978
 51
279.3486241796102263
  0
ARC
  5
2F63B
  8
0
 10
3458.2651432550301251
 20
164.9727154548992871
 30
0.0
 40
0.2158231363875009
 50
217.787887461530687
 51
279.2567682070013007
  0
ARC
  5
2F63C
  8
0
 10
3458.3005937972779975
 20
164.7561784561723925
 30
0.0
 40
0.0035999476005692
 50
4.7962193263947404
 51
101.7551205532486023
  0
ARC
  5
2F63D
  8
0
 10
3458.2603386710511586
 20
164.8798139979828932
 30
0.0
 40
0.1703769867345041
 50
190.8696153067093917
 51
261.0090863458676722
  0
ARC
  5
2F63E
  8
0
 10
3458.2747027921191147
 20
164.8796156165871025
 30
0.0
 40
0.1730110939482651
 50
256.2950096975425254
 51
343.7687819700519753
  0
LINE
  5
2F63F
  8
0
 10
3458.4040940406021036
 20
164.8081777457302906
 30
0.0
 11
3458.4038865359721058
 21
164.8308637594263928
 31
0.0
  0
ARC
  5
2F640
  8
0
 10
3458.4076856023229993
 20
164.8085596970325071
 30
0.0
 40
0.0036118142803375
 50
186.0704099597573133
 51
278.5105492245867822
  0
ARC
  5
2F641
  8
0
 10
3459.6500319498309182
 20
161.6466055413729066
 30
0.0
 40
3.3937404420817701
 50
110.9712715849618974
 51
111.4637463137035951
  0
ARC
  5
2F642
  8
0
 10
3458.2896737444411883
 20
164.9545912298160886
 30
0.0
 40
0.1674154665718183
 50
313.4633441671207947
 51
331.2707634774876055
  0
ARC
  5
2F643
  8
0
 10
3458.4069290556640226
 20
164.8308692889235942
 30
0.0
 40
0.0030425247165697
 50
133.4348432637222004
 51
180.1041296475729041
  0
ARC
  5
2F644
  8
0
 10
3457.7147671786810861
 20
164.0188972727156056
 30
0.0
 40
0.177882960600706
 50
19.3529343464765518
 51
82.9471619686840285
  0
ARC
  5
2F645
  8
0
 10
3457.7127748210959908
 20
164.0027936094498955
 30
0.0
 40
0.194109403813036
 50
82.9471619686840285
 51
140.6260542856595919
  0
ARC
  5
2F646
  8
0
 10
3457.6439231236608975
 20
164.0592966170650868
 30
0.0
 40
0.1050411933834529
 50
140.6260542856595919
 51
181.9176828740648091
  0
ARC
  5
2F647
  8
0
 10
3457.7228723186308343
 20
164.0619400243105872
 30
0.0
 40
0.1840346297445655
 50
181.917682874066486
 51
217.3176908830930074
  0
ARC
  5
2F648
  8
0
 10
3457.7142044016950422
 20
164.0751513101924104
 30
0.0
 40
0.1858199503913451
 50
222.1834557316070971
 51
257.8017092969690793
  0
ARC
  5
2F649
  8
0
 10
3457.7181306498250706
 20
164.0823348851575076
 30
0.0
 40
0.1936848272965836
 50
257.1154670028346914
 51
294.9220335972161138
  0
ARC
  5
2F64A
  8
0
 10
3457.7367154672961078
 20
164.0462111056089043
 30
0.0
 40
0.1531021657744578
 50
294.3111877142821982
 51
342.5471750305189857
  0
ARC
  5
2F64B
  8
0
 10
3457.7097431809529553
 20
164.0386885930606979
 30
0.0
 40
0.1772352702222621
 50
347.4883362902126009
 51
12.7636792595683097
  0
ARC
  5
2F64C
  8
0
 10
3457.7467136557370395
 20
163.9825476617409947
 30
0.0
 40
0.0038103401713618
 50
4.8524150437561024
 51
101.7385971645380067
  0
ARC
  5
2F64D
  8
0
 10
3451.2840828355419944
 20
164.0307586772620994
 30
0.0
 40
6.466604826975539
 50
359.3747439687074916
 51
359.5756899313528265
  0
ARC
  5
2F64E
  8
0
 10
3457.7468522024009872
 20
163.9605512468237976
 30
0.0
 40
0.0034691210502517
 50
290.927341718353091
 51
354.0471672632777995
  0
ARC
  5
2F64F
  8
0
 10
3458.2060816547400464
 20
163.1378008517868921
 30
0.0
 40
0.9388034847996898
 50
119.1990205279573019
 51
124.0939425626928028
  0
ARC
  5
2F650
  8
0
 10
3457.7110340159188127
 20
164.198298612542402
 30
0.0
 40
0.214874213121645
 50
216.9612482718767978
 51
279.3486241796102263
  0
ARC
  5
2F651
  8
0
 10
3457.7112647323988313
 20
164.1764274648595858
 30
0.0
 40
0.2158231363875009
 50
217.787887461530687
 51
279.2567682070013007
  0
ARC
  5
2F652
  8
0
 10
3457.7467152746471584
 20
163.9598904661326912
 30
0.0
 40
0.0035999476005692
 50
4.7962193263947404
 51
101.7551205532486023
  0
ARC
  5
2F653
  8
0
 10
3457.7064601484198647
 20
164.0835260079431919
 30
0.0
 40
0.1703769867345041
 50
190.8696153067093917
 51
261.0090863458676722
  0
ARC
  5
2F654
  8
0
 10
3457.7208242694869114
 20
164.0833276265474012
 30
0.0
 40
0.1730110939482651
 50
256.2950096975425254
 51
343.7687819700519753
  0
LINE
  5
2F655
  8
0
 10
3457.8502155179708097
 20
164.0118897556905893
 30
0.0
 11
3457.8500080133399024
 21
164.0345757693866915
 31
0.0
  0
ARC
  5
2F656
  8
0
 10
3457.8538070796921602
 20
164.0122717069928058
 30
0.0
 40
0.0036118142803375
 50
186.0704099597573133
 51
278.5105492245867822
  0
ARC
  5
2F657
  8
0
 10
3459.0961534271991695
 20
160.8503175513332053
 30
0.0
 40
3.3937404420817701
 50
110.9712715849618974
 51
111.4637463137035951
  0
ARC
  5
2F658
  8
0
 10
3457.7357952218098944
 20
164.1583032397763873
 30
0.0
 40
0.1674154665718183
 50
313.4633441671207947
 51
331.2707634774876055
  0
ARC
  5
2F659
  8
0
 10
3457.8530505330318192
 20
164.0345812988838929
 30
0.0
 40
0.0030425247165697
 50
133.4348432637222004
 51
180.1041296475729041
  0
ARC
  5
2F65A
  8
0
 10
3458.2663430952989074
 20
163.2118476020700086
 30
0.0
 40
0.177882960600706
 50
19.3529343464765518
 51
82.9471619686840285
  0
ARC
  5
2F65B
  8
0
 10
3458.2643507377138121
 20
163.1957439388042133
 30
0.0
 40
0.194109403813036
 50
82.9471619686840285
 51
140.6260542856595919
  0
ARC
  5
2F65C
  8
0
 10
3458.1954990402800831
 20
163.2522469464194899
 30
0.0
 40
0.1050411933834529
 50
140.6260542856595919
 51
181.9176828740648091
  0
ARC
  5
2F65D
  8
0
 10
3458.2744482352491104
 20
163.2548903536649902
 30
0.0
 40
0.1840346297445655
 50
181.917682874066486
 51
217.3176908830930074
  0
ARC
  5
2F65E
  8
0
 10
3458.265780318311954
 20
163.2681016395468134
 30
0.0
 40
0.1858199503913451
 50
222.1834557316070971
 51
257.8017092969690793
  0
ARC
  5
2F65F
  8
0
 10
3458.2697065664438014
 20
163.275285214511797
 30
0.0
 40
0.1936848272965836
 50
257.1154670028346914
 51
294.9220335972161138
  0
ARC
  5
2F660
  8
0
 10
3458.2882913839139292
 20
163.2391614349633073
 30
0.0
 40
0.1531021657744578
 50
294.3111877142821982
 51
342.5471750305189857
  0
ARC
  5
2F661
  8
0
 10
3458.2613190975707766
 20
163.231638922415101
 30
0.0
 40
0.1772352702222621
 50
347.4883362902126009
 51
12.7636792595683097
  0
ARC
  5
2F662
  8
0
 10
3458.2982895723548609
 20
163.1754979910953978
 30
0.0
 40
0.0038103401713618
 50
4.8524150437561024
 51
101.7385971645380067
  0
ARC
  5
2F663
  8
0
 10
3451.8356587521598158
 20
163.2237090066165024
 30
0.0
 40
6.466604826975539
 50
359.3747439687074916
 51
359.5756899313528265
  0
ARC
  5
2F664
  8
0
 10
3458.2984281190188085
 20
163.1535015761782006
 30
0.0
 40
0.0034691210502517
 50
290.927341718353091
 51
354.0471672632777995
  0
ARC
  5
2F665
  8
0
 10
3458.7576575713578677
 20
162.3307511811412951
 30
0.0
 40
0.9388034847996898
 50
119.1990205279573019
 51
124.0939425626928028
  0
ARC
  5
2F666
  8
0
 10
3458.2626099325370888
 20
163.391248941896805
 30
0.0
 40
0.214874213121645
 50
216.9612482718767978
 51
279.3486241796102263
  0
ARC
  5
2F667
  8
0
 10
3458.2628406490171074
 20
163.3693777942139889
 30
0.0
 40
0.2158231363875009
 50
217.787887461530687
 51
279.2567682070013007
  0
ARC
  5
2F668
  8
0
 10
3458.2982911912640702
 20
163.1528407954870943
 30
0.0
 40
0.0035999476005692
 50
4.7962193263947404
 51
101.7551205532486023
  0
ARC
  5
2F669
  8
0
 10
3458.2580360650381408
 20
163.2764763372975949
 30
0.0
 40
0.1703769867345041
 50
190.8696153067093917
 51
261.0090863458676722
  0
ARC
  5
2F66A
  8
0
 10
3458.272400186106097
 20
163.2762779559018043
 30
0.0
 40
0.1730110939482651
 50
256.2950096975425254
 51
343.7687819700519753
  0
LINE
  5
2F66B
  8
0
 10
3458.4017914345890858
 20
163.2048400850449923
 30
0.0
 11
3458.4015839299581785
 21
163.2275260987410093
 31
0.0
  0
ARC
  5
2F66C
  8
0
 10
3458.4053829963099815
 20
163.2052220363472088
 30
0.0
 40
0.0036118142803375
 50
186.0704099597573133
 51
278.5105492245867822
  0
ARC
  5
2F66D
  8
0
 10
3459.6477293438169909
 20
160.0432678806876083
 30
0.0
 40
3.3937404420817701
 50
110.9712715849618974
 51
111.4637463137035951
  0
ARC
  5
2F66E
  8
0
 10
3458.2873711384268063
 20
163.351253569130705
 30
0.0
 40
0.1674154665718183
 50
313.4633441671207947
 51
331.2707634774876055
  0
ARC
  5
2F66F
  8
0
 10
3458.4046264496500953
 20
163.2275316282382107
 30
0.0
 40
0.0030425247165697
 50
133.4348432637222004
 51
180.1041296475729041
  0
ARC
  5
2F670
  8
0
 10
3458.7288488654858156
 20
164.1848433713722102
 30
0.0
 40
0.9313767988639604
 50
119.7838412308991991
 51
133.0344821111279998
  0
ARC
  5
2F671
  8
0
 10
3458.5462644244471448
 20
165.2956813952941957
 30
0.0
 40
0.0220238406618899
 50
82.725038174921977
 51
281.2287278120618907
  0
ARC
  5
2F672
  8
0
 10
3458.5499353401642111
 20
165.2958081036138083
 30
0.0
 40
0.0217377389120819
 50
271.6283436917099721
 51
92.3254222952735546
  0
LINE
  5
2F673
  8
0
 10
3458.483974690047944
 20
165.3310785049320941
 30
0.0
 11
3458.4840080599478824
 21
165.3049332630320976
 31
0.0
  0
ARC
  5
2F674
  8
0
 10
3458.5450180747370723
 20
165.3076742010119062
 30
0.0
 40
0.0610715534888087
 50
182.5723424233133017
 51
246.3308897016410128
  0
ARC
  5
2F675
  8
0
 10
3458.5473969000690886
 20
165.3131012642020039
 30
0.0
 40
0.0669970766585589
 50
246.3308897016410128
 51
332.4315603757933104
  0
ARC
  5
2F676
  8
0
 10
3458.567841666773802
 20
165.3024273338596117
 30
0.0
 40
0.0439336581229258
 50
332.4315603757933104
 51
358.8488007310261878
  0
LINE
  5
2F677
  8
0
 10
3458.6117664572479953
 20
165.30154466863209
 30
0.0
 11
3458.6119275004648443
 21
165.3291862544193123
 31
0.0
  0
ARC
  5
2F678
  8
0
 10
3458.5452223180350302
 20
165.3304293839200056
 30
0.0
 40
0.0612510676823524
 50
87.0072128386655663
 51
179.3927846156589965
  0
ARC
  5
2F679
  8
0
 10
3458.5449128983859737
 20
165.3245110500201065
 30
0.0
 40
0.067177484531506
 50
3.9907148924118698
 51
87.0072128386655663
  0
ARC
  5
2F67A
  8
0
 10
3458.6618190960898573
 20
164.9103550656768959
 30
0.0
 40
0.0220238406618899
 50
82.725038174921977
 51
281.2287278120618907
  0
ARC
  5
2F67B
  8
0
 10
3458.6654900118069236
 20
164.9104817739965938
 30
0.0
 40
0.0217377389120819
 50
271.6283436917099721
 51
92.3254222952735546
  0
LINE
  5
2F67C
  8
0
 10
3458.5995293616902018
 20
164.9457521753149081
 30
0.0
 11
3458.5995627315910497
 21
164.9196069334149115
 31
0.0
  0
ARC
  5
2F67D
  8
0
 10
3458.6605727463788753
 20
164.9223478713946918
 30
0.0
 40
0.0610715534888087
 50
182.5723424233133017
 51
246.3308897016410128
  0
ARC
  5
2F67E
  8
0
 10
3458.6629515717118011
 20
164.9277749345847894
 30
0.0
 40
0.0669970766585589
 50
246.3308897016410128
 51
332.4315603757933104
  0
ARC
  5
2F67F
  8
0
 10
3458.6833963384169692
 20
164.9171010042423973
 30
0.0
 40
0.0439336581229258
 50
332.4315603757933104
 51
358.8488007310261878
  0
LINE
  5
2F680
  8
0
 10
3458.7273211288897983
 20
164.9162183390149039
 30
0.0
 11
3458.7274821721080116
 21
164.9438599248020978
 31
0.0
  0
ARC
  5
2F681
  8
0
 10
3458.6607769896781974
 20
164.9451030543027912
 30
0.0
 40
0.0612510676823524
 50
87.0072128386655663
 51
179.3927846156589965
  0
ARC
  5
2F682
  8
0
 10
3458.6604675700291409
 20
164.939184720402892
 30
0.0
 40
0.067177484531506
 50
3.9907148924118698
 51
87.0072128386655663
  0
ARC
  5
2F683
  8
0
 10
3458.0437042145640589
 20
165.1423961620020862
 30
0.0
 40
0.0220238406618899
 50
82.725038174921977
 51
281.2287278120618907
  0
ARC
  5
2F684
  8
0
 10
3458.0473751302811252
 20
165.1425228703216987
 30
0.0
 40
0.0217377389120819
 50
271.6283436917099721
 51
92.3254222952735546
  0
LINE
  5
2F685
  8
0
 10
3457.9814144801648581
 20
165.1777932716400983
 30
0.0
 11
3457.9814478500647965
 21
165.151648029739988
 31
0.0
  0
ARC
  5
2F686
  8
0
 10
3458.0424578648530769
 20
165.1543889677197967
 30
0.0
 40
0.0610715534888087
 50
182.5723424233133017
 51
246.3308897016410128
  0
ARC
  5
2F687
  8
0
 10
3458.0448366901869122
 20
165.1598160309100081
 30
0.0
 40
0.0669970766585589
 50
246.3308897016410128
 51
332.4315603757933104
  0
ARC
  5
2F688
  8
0
 10
3458.0652814568911708
 20
165.1491421005675022
 30
0.0
 40
0.0439336581229258
 50
332.4315603757933104
 51
358.8488007310261878
  0
LINE
  5
2F689
  8
0
 10
3458.1092062473639999
 20
165.1482594353400088
 30
0.0
 11
3458.1093672905822132
 21
165.1759010211272027
 31
0.0
  0
ARC
  5
2F68A
  8
0
 10
3458.0426621081519443
 20
165.1771441506278961
 30
0.0
 40
0.0612510676823524
 50
87.0072128386655663
 51
179.3927846156589965
  0
ARC
  5
2F68B
  8
0
 10
3458.0423526885028878
 20
165.171225816727997
 30
0.0
 40
0.067177484531506
 50
3.9907148924118698
 51
87.0072128386655663
  0
ARC
  5
2F68C
  8
0
 10
3457.9447611864870851
 20
164.5682944746370993
 30
0.0
 40
0.0220238406618899
 50
82.725038174921977
 51
281.2287278120618907
  0
ARC
  5
2F68D
  8
0
 10
3457.9484321022050608
 20
164.5684211829567971
 30
0.0
 40
0.0217377389120819
 50
271.6283436917099721
 51
92.3254222952735546
  0
LINE
  5
2F68E
  8
0
 10
3457.8824714520878842
 20
164.6036915842751114
 30
0.0
 11
3457.8825048219878227
 21
164.5775463423750864
 31
0.0
  0
ARC
  5
2F68F
  8
0
 10
3457.943514836776103
 20
164.5802872803548951
 30
0.0
 40
0.0610715534888087
 50
182.5723424233133017
 51
246.3308897016410128
  0
ARC
  5
2F690
  8
0
 10
3457.9458936621099383
 20
164.5857143435449927
 30
0.0
 40
0.0669970766585589
 50
246.3308897016410128
 51
332.4315603757933104
  0
ARC
  5
2F691
  8
0
 10
3457.966338428814197
 20
164.5750404132024869
 30
0.0
 40
0.0439336581229258
 50
332.4315603757933104
 51
358.8488007310261878
  0
LINE
  5
2F692
  8
0
 10
3458.0102632192879355
 20
164.5741577479751072
 30
0.0
 11
3458.0104242625047846
 21
164.6017993337621874
 31
0.0
  0
ARC
  5
2F693
  8
0
 10
3457.9437190800758799
 20
164.6030424632629092
 30
0.0
 40
0.0612510676823524
 50
87.0072128386655663
 51
179.3927846156589965
  0
ARC
  5
2F694
  8
0
 10
3457.9434096604259139
 20
164.5971241293630101
 30
0.0
 40
0.067177484531506
 50
3.9907148924118698
 51
87.0072128386655663
  0
ARC
  5
2F695
  8
0
 10
3457.7965497503541883
 20
164.3423095496067106
 30
0.0
 40
0.0220238406618899
 50
82.725038174921977
 51
281.2287278120618907
  0
ARC
  5
2F696
  8
0
 10
3457.8002206660707998
 20
164.3424362579264084
 30
0.0
 40
0.0217377389120819
 50
271.6283436917099721
 51
92.3254222952735546
  0
LINE
  5
2F697
  8
0
 10
3457.7342600159549875
 20
164.3777066592446943
 30
0.0
 11
3457.7342933858549259
 21
164.3515614173446977
 31
0.0
  0
ARC
  5
2F698
  8
0
 10
3457.7953034006441158
 20
164.3543023553245064
 30
0.0
 40
0.0610715534888087
 50
182.5723424233133017
 51
246.3308897016410128
  0
ARC
  5
2F699
  8
0
 10
3457.797682225976132
 20
164.359729418514604
 30
0.0
 40
0.0669970766585589
 50
246.3308897016410128
 51
332.4315603757933104
  0
ARC
  5
2F69A
  8
0
 10
3457.8181269926808454
 20
164.3490554881722119
 30
0.0
 40
0.0439336581229258
 50
332.4315603757933104
 51
358.8488007310261878
  0
LINE
  5
2F69B
  8
0
 10
3457.8620517831550387
 20
164.3481728229446901
 30
0.0
 11
3457.8622128263718878
 21
164.3758144087317987
 31
0.0
  0
ARC
  5
2F69C
  8
0
 10
3457.7955076439420736
 20
164.3770575382324921
 30
0.0
 40
0.0612510676823524
 50
87.0072128386655663
 51
179.3927846156589965
  0
ARC
  5
2F69D
  8
0
 10
3457.7951982242930171
 20
164.3711392043327066
 30
0.0
 40
0.067177484531506
 50
3.9907148924118698
 51
87.0072128386655663
  0
ARC
  5
2F69E
  8
0
 10
3457.7908399040879885
 20
163.6520913579225862
 30
0.0
 40
0.0220238406618899
 50
82.725038174921977
 51
281.2287278120618907
  0
ARC
  5
2F69F
  8
0
 10
3457.7945108198041453
 20
163.6522180662423125
 30
0.0
 40
0.0217377389120819
 50
271.6283436917099721
 51
92.3254222952735546
  0
LINE
  5
2F6A0
  8
0
 10
3457.7285501696878782
 20
163.6874884675605983
 30
0.0
 11
3457.7285835395891809
 21
163.6613432256606018
 31
0.0
  0
ARC
  5
2F6A1
  8
0
 10
3457.7895935543770065
 20
163.6640841636404105
 30
0.0
 40
0.0610715534888087
 50
182.5723424233133017
 51
246.3308897016410128
  0
ARC
  5
2F6A2
  8
0
 10
3457.7919723797099323
 20
163.6695112268305934
 30
0.0
 40
0.0669970766585589
 50
246.3308897016410128
 51
332.4315603757933104
  0
ARC
  5
2F6A3
  8
0
 10
3457.8124171464141909
 20
163.6588372964880875
 30
0.0
 40
0.0439336581229258
 50
332.4315603757933104
 51
358.8488007310261878
  0
LINE
  5
2F6A4
  8
0
 10
3457.856341936888839
 20
163.6579546312605942
 30
0.0
 11
3457.8565029801061428
 21
163.6855962170477881
 31
0.0
  0
ARC
  5
2F6A5
  8
0
 10
3457.7897977976758739
 20
163.6868393465485099
 30
0.0
 40
0.0612510676823524
 50
87.0072128386655663
 51
179.3927846156589965
  0
ARC
  5
2F6A6
  8
0
 10
3457.7894883780268174
 20
163.6809210126486107
 30
0.0
 40
0.067177484531506
 50
3.9907148924118698
 51
87.0072128386655663
  0
ARC
  5
2F6A7
  8
0
 10
3457.9452542323670059
 20
163.4271920651563903
 30
0.0
 40
0.0220238406618899
 50
82.725038174921977
 51
281.2287278120618907
  0
ARC
  5
2F6A8
  8
0
 10
3457.9489251480840721
 20
163.4273187734760029
 30
0.0
 40
0.0217377389120819
 50
271.6283436917099721
 51
92.3254222952735546
  0
LINE
  5
2F6A9
  8
0
 10
3457.8829644979678051
 20
163.4625891747942887
 30
0.0
 11
3457.8829978678681982
 21
163.4364439328944059
 31
0.0
  0
ARC
  5
2F6AA
  8
0
 10
3457.9440078826560239
 20
163.4391848708741009
 30
0.0
 40
0.0610715534888087
 50
182.5723424233133017
 51
246.3308897016410128
  0
ARC
  5
2F6AB
  8
0
 10
3457.9463867079898591
 20
163.4446119340641985
 30
0.0
 40
0.0669970766585589
 50
246.3308897016410128
 51
332.4315603757933104
  0
ARC
  5
2F6AC
  8
0
 10
3457.9668314746941178
 20
163.4339380037218064
 30
0.0
 40
0.0439336581229258
 50
332.4315603757933104
 51
358.8488007310261878
  0
LINE
  5
2F6AD
  8
0
 10
3458.0107562651678563
 20
163.433055338494313
 30
0.0
 11
3458.0109173083851601
 21
163.4606969242815069
 31
0.0
  0
ARC
  5
2F6AE
  8
0
 10
3457.9442121259548912
 20
163.4619400537822003
 30
0.0
 40
0.0612510676823524
 50
87.0072128386655663
 51
179.3927846156589965
  0
ARC
  5
2F6AF
  8
0
 10
3457.9439027063058347
 20
163.4560217198823011
 30
0.0
 40
0.067177484531506
 50
3.9907148924118698
 51
87.0072128386655663
  0
ARC
  5
2F6B0
  8
0
 10
3458.6642452093028623
 20
163.0709099412291039
 30
0.0
 40
0.0220238406618899
 50
82.725038174921977
 51
281.2287278120618907
  0
ARC
  5
2F6B1
  8
0
 10
3458.6679161250199286
 20
163.0710366495488017
 30
0.0
 40
0.0217377389120819
 50
271.6283436917099721
 51
92.3254222952735546
  0
LINE
  5
2F6B2
  8
0
 10
3458.6019554749041163
 20
163.1063070508670876
 30
0.0
 11
3458.6019888448040547
 21
163.080161808967091
 31
0.0
  0
ARC
  5
2F6B3
  8
0
 10
3458.6629988595927898
 20
163.0829027469468997
 30
0.0
 40
0.0610715534888087
 50
182.5723424233133017
 51
246.3308897016410128
  0
ARC
  5
2F6B4
  8
0
 10
3458.6653776849261703
 20
163.0883298101369974
 30
0.0
 40
0.0669970766585589
 50
246.3308897016410128
 51
332.4315603757933104
  0
ARC
  5
2F6B5
  8
0
 10
3458.6858224516299742
 20
163.0776558797946052
 30
0.0
 40
0.0439336581229258
 50
332.4315603757933104
 51
358.8488007310261878
  0
LINE
  5
2F6B6
  8
0
 10
3458.7297472421041675
 20
163.0767732145671118
 30
0.0
 11
3458.7299082853219261
 21
163.1044148003543057
 31
0.0
  0
ARC
  5
2F6B7
  8
0
 10
3458.6632031028912024
 20
163.1056579298549138
 30
0.0
 40
0.0612510676823524
 50
87.0072128386655663
 51
179.3927846156589965
  0
ARC
  5
2F6B8
  8
0
 10
3458.6628936832421459
 20
163.0997395959551
 30
0.0
 40
0.067177484531506
 50
3.9907148924118698
 51
87.0072128386655663
  0
ARC
  5
2F6B9
  8
0
 10
3458.5477844976308006
 20
162.7396638790457928
 30
0.0
 40
0.0220238406618899
 50
82.725038174921977
 51
281.2287278120618907
  0
ARC
  5
2F6BA
  8
0
 10
3458.5514554133478669
 20
162.7397905873654906
 30
0.0
 40
0.0217377389120819
 50
271.6283436917099721
 51
92.3254222952735546
  0
LINE
  5
2F6BB
  8
0
 10
3458.485494763231145
 20
162.7750609886838049
 30
0.0
 11
3458.4855281331310835
 21
162.7489157467838083
 31
0.0
  0
ARC
  5
2F6BC
  8
0
 10
3458.5465381479198186
 20
162.7516566847635886
 30
0.0
 40
0.0610715534888087
 50
182.5723424233133017
 51
246.3308897016410128
  0
ARC
  5
2F6BD
  8
0
 10
3458.5489169732531991
 20
162.7570837479536863
 30
0.0
 40
0.0669970766585589
 50
246.3308897016410128
 51
332.4315603757933104
  0
ARC
  5
2F6BE
  8
0
 10
3458.569361739957003
 20
162.7464098176112941
 30
0.0
 40
0.0439336581229258
 50
332.4315603757933104
 51
358.8488007310261878
  0
LINE
  5
2F6BF
  8
0
 10
3458.6132865304311963
 20
162.7455271523838007
 30
0.0
 11
3458.6134475736480454
 21
162.7731687381709946
 31
0.0
  0
ARC
  5
2F6C0
  8
0
 10
3458.5467423912191407
 20
162.774411867671688
 30
0.0
 40
0.0612510676823524
 50
87.0072128386655663
 51
179.3927846156589965
  0
ARC
  5
2F6C1
  8
0
 10
3458.5464329715691747
 20
162.7684935337717889
 30
0.0
 40
0.067177484531506
 50
3.9907148924118698
 51
87.0072128386655663
  0
ARC
  5
2F6C2
  8
0
 10
3458.044549306117915
 20
162.9045825854269083
 30
0.0
 40
0.0220238406618899
 50
82.725038174921977
 51
281.2287278120618907
  0
ARC
  5
2F6C3
  8
0
 10
3458.0482202218349812
 20
162.9047092937466061
 30
0.0
 40
0.0217377389120819
 50
271.6283436917099721
 51
92.3254222952735546
  0
LINE
  5
2F6C4
  8
0
 10
3457.9822595717191689
 20
162.939979695064892
 30
0.0
 11
3457.9822929416191073
 21
162.9138344531648954
 31
0.0
  0
ARC
  5
2F6C5
  8
0
 10
3458.0433029564078424
 20
162.9165753911447041
 30
0.0
 40
0.0610715534888087
 50
182.5723424233133017
 51
246.3308897016410128
  0
ARC
  5
2F6C6
  8
0
 10
3458.0456817817412229
 20
162.9220024543348018
 30
0.0
 40
0.0669970766585589
 50
246.3308897016410128
 51
332.4315603757933104
  0
ARC
  5
2F6C7
  8
0
 10
3458.0661265484450269
 20
162.9113285239924096
 30
0.0
 40
0.0439336581229258
 50
332.4315603757933104
 51
358.8488007310261878
  0
LINE
  5
2F6C8
  8
0
 10
3458.1100513389192201
 20
162.9104458587648878
 30
0.0
 11
3458.1102123821360692
 21
162.9380874445521101
 31
0.0
  0
ARC
  5
2F6C9
  8
0
 10
3458.0435071997071645
 20
162.9393305740528035
 30
0.0
 40
0.0612510676823524
 50
87.0072128386655663
 51
179.3927846156589965
  0
ARC
  5
2F6CA
  8
0
 10
3458.0431977800571985
 20
162.9334122401529044
 30
0.0
 40
0.067177484531506
 50
3.9907148924118698
 51
87.0072128386655663
  0
ARC
  5
2F6CB
  8
0
 10
3457.7646611691588987
 20
162.6756914840383104
 30
0.0
 40
0.0220238406618899
 50
82.725038174921977
 51
281.2287278120618907
  0
ARC
  5
2F6CC
  8
0
 10
3457.7683320848768744
 20
162.6758181923580082
 30
0.0
 40
0.0217377389120819
 50
271.6283436917099721
 51
92.3254222952735546
  0
LINE
  5
2F6CD
  8
0
 10
3457.7023714347601526
 20
162.7110885936762941
 30
0.0
 11
3457.702404804660091
 21
162.6849433517762975
 31
0.0
  0
ARC
  5
2F6CE
  8
0
 10
3457.7634148194479167
 20
162.6876842897561062
 30
0.0
 40
0.0610715534888087
 50
182.5723424233133017
 51
246.3308897016410128
  0
ARC
  5
2F6CF
  8
0
 10
3457.7657936447822067
 20
162.6931113529462039
 30
0.0
 40
0.0669970766585589
 50
246.3308897016410128
 51
332.4315603757933104
  0
ARC
  5
2F6D0
  8
0
 10
3457.7862384114860106
 20
162.682437422603698
 30
0.0
 40
0.0439336581229258
 50
332.4315603757933104
 51
358.8488007310261878
  0
LINE
  5
2F6D1
  8
0
 10
3457.8301632019602039
 20
162.6815547573762899
 30
0.0
 11
3457.8303242451770529
 21
162.7091963431633985
 31
0.0
  0
ARC
  5
2F6D2
  8
0
 10
3457.7636190627481483
 20
162.7104394726640919
 30
0.0
 40
0.0612510676823524
 50
87.0072128386655663
 51
179.3927846156589965
  0
ARC
  5
2F6D3
  8
0
 10
3457.7633096430981823
 20
162.7045211387643064
 30
0.0
 40
0.067177484531506
 50
3.9907148924118698
 51
87.0072128386655663
  0
ARC
  5
2F6D4
  8
0
 10
3457.6342641791097776
 20
163.2048884553394998
 30
0.0
 40
0.0220238406618899
 50
82.725038174921977
 51
281.2287278120618907
  0
ARC
  5
2F6D5
  8
0
 10
3457.6379350948268439
 20
163.2050151636591124
 30
0.0
 40
0.0217377389120819
 50
271.6283436917099721
 51
92.3254222952735546
  0
LINE
  5
2F6D6
  8
0
 10
3457.5719744447110315
 20
163.240285564977512
 30
0.0
 11
3457.5720078146109699
 21
163.214140323077487
 31
0.0
  0
ARC
  5
2F6D7
  8
0
 10
3457.6330178294001598
 20
163.2168812610572104
 30
0.0
 40
0.0610715534888087
 50
182.5723424233133017
 51
246.3308897016410128
  0
ARC
  5
2F6D8
  8
0
 10
3457.6353966547321761
 20
163.2223083242473933
 30
0.0
 40
0.0669970766585589
 50
246.3308897016410128
 51
332.4315603757933104
  0
ARC
  5
2F6D9
  8
0
 10
3457.6558414214368895
 20
163.2116343939050012
 30
0.0
 40
0.0439336581229258
 50
332.4315603757933104
 51
358.8488007310261878
  0
LINE
  5
2F6DA
  8
0
 10
3457.6997662119110828
 20
163.2107517286773941
 30
0.0
 11
3457.6999272551279319
 21
163.238393314464588
 31
0.0
  0
ARC
  5
2F6DB
  8
0
 10
3457.6332220726981177
 20
163.2396364439653098
 30
0.0
 40
0.0612510676823524
 50
87.0072128386655663
 51
179.3927846156589965
  0
ARC
  5
2F6DC
  8
0
 10
3457.6329126530490612
 20
163.2337181100654107
 30
0.0
 40
0.067177484531506
 50
3.9907148924118698
 51
87.0072128386655663
  0
ARC
  5
2F6DD
  8
0
 10
3457.4214166366341487
 20
162.919238637927009
 30
0.0
 40
0.0220238406618899
 50
82.725038174921977
 51
281.2287278120618907
  0
ARC
  5
2F6DE
  8
0
 10
3457.425087552351215
 20
162.9193653462467068
 30
0.0
 40
0.0217377389120819
 50
271.6283436917099721
 51
92.3254222952735546
  0
LINE
  5
2F6DF
  8
0
 10
3457.3591269022349479
 20
162.9546357475649927
 30
0.0
 11
3457.3591602721339768
 21
162.9284905056649961
 31
0.0
  0
ARC
  5
2F6E0
  8
0
 10
3457.4201702869231667
 20
162.9312314436448048
 30
0.0
 40
0.0610715534888087
 50
182.5723424233133017
 51
246.3308897016410128
  0
ARC
  5
2F6E1
  8
0
 10
3457.422549112257002
 20
162.9366585068349025
 30
0.0
 40
0.0669970766585589
 50
246.3308897016410128
 51
332.4315603757933104
  0
ARC
  5
2F6E2
  8
0
 10
3457.4429938789608059
 20
162.9259845764923966
 30
0.0
 40
0.0439336581229258
 50
332.4315603757933104
 51
358.8488007310261878
  0
LINE
  5
2F6E3
  8
0
 10
3457.4869186694349992
 20
162.9251019112649885
 30
0.0
 11
3457.4870797126518482
 21
162.9527434970520972
 31
0.0
  0
ARC
  5
2F6E4
  8
0
 10
3457.4203745302229436
 20
162.9539866265527905
 30
0.0
 40
0.0612510676823524
 50
87.0072128386655663
 51
179.3927846156589965
  0
ARC
  5
2F6E5
  8
0
 10
3457.4200651105738871
 20
162.9480682926530051
 30
0.0
 40
0.067177484531506
 50
3.9907148924118698
 51
87.0072128386655663
  0
ARC
  5
2F6E6
  8
0
 10
3457.1455965830241439
 20
163.2098614724104948
 30
0.0
 40
0.0220238406618899
 50
82.725038174921977
 51
281.2287278120618907
  0
ARC
  5
2F6E7
  8
0
 10
3457.1492674987412101
 20
163.2099881807301927
 30
0.0
 40
0.0217377389120819
 50
271.6283436917099721
 51
92.3254222952735546
  0
LINE
  5
2F6E8
  8
0
 10
3457.0833068486240336
 20
163.2452585820485069
 30
0.0
 11
3457.083340218523972
 21
163.2191133401485104
 31
0.0
  0
ARC
  5
2F6E9
  8
0
 10
3457.1443502333131619
 20
163.2218542781282906
 30
0.0
 40
0.0610715534888087
 50
182.5723424233133017
 51
246.3308897016410128
  0
ARC
  5
2F6EA
  8
0
 10
3457.1467290586460877
 20
163.2272813413183883
 30
0.0
 40
0.0669970766585589
 50
246.3308897016410128
 51
332.4315603757933104
  0
ARC
  5
2F6EB
  8
0
 10
3457.1671738253498916
 20
163.2166074109759961
 30
0.0
 40
0.0439336581229258
 50
332.4315603757933104
 51
358.8488007310261878
  0
LINE
  5
2F6EC
  8
0
 10
3457.2110986158240848
 20
163.2157247457485028
 30
0.0
 11
3457.2112596590409339
 21
163.2433663315356966
 31
0.0
  0
ARC
  5
2F6ED
  8
0
 10
3457.1445544766120292
 20
163.24460946103639
 30
0.0
 40
0.0612510676823524
 50
87.0072128386655663
 51
179.3927846156589965
  0
ARC
  5
2F6EE
  8
0
 10
3457.1442450569620632
 20
163.2386911271364909
 30
0.0
 40
0.067177484531506
 50
3.9907148924118698
 51
87.0072128386655663
  0
ARC
  5
2F6EF
  8
0
 10
3456.9531767864491485
 20
163.5420865649994084
 30
0.0
 40
0.0220238406618899
 50
82.725038174921977
 51
281.2287278120618907
  0
ARC
  5
2F6F0
  8
0
 10
3456.9568477021662147
 20
163.5422132733189926
 30
0.0
 40
0.0217377389120819
 50
271.6283436917099721
 51
92.3254222952735546
  0
LINE
  5
2F6F1
  8
0
 10
3456.8908870520499477
 20
163.5774836746373069
 30
0.0
 11
3456.8909204219498861
 21
163.5513384327373103
 31
0.0
  0
ARC
  5
2F6F2
  8
0
 10
3456.9519304367381665
 20
163.5540793707170906
 30
0.0
 40
0.0610715534888087
 50
182.5723424233133017
 51
246.3308897016410128
  0
ARC
  5
2F6F3
  8
0
 10
3456.9543092620720017
 20
163.5595064339073019
 30
0.0
 40
0.0669970766585589
 50
246.3308897016410128
 51
332.4315603757933104
  0
ARC
  5
2F6F4
  8
0
 10
3456.9747540287758056
 20
163.5488325035647961
 30
0.0
 40
0.0439336581229258
 50
332.4315603757933104
 51
358.8488007310261878
  0
LINE
  5
2F6F5
  8
0
 10
3457.0186788192490894
 20
163.5479498383373027
 30
0.0
 11
3457.018839862466848
 21
163.5755914241244966
 31
0.0
  0
ARC
  5
2F6F6
  8
0
 10
3456.9521346800379433
 20
163.57683455362519
 30
0.0
 40
0.0612510676823524
 50
87.0072128386655663
 51
179.3927846156589965
  0
ARC
  5
2F6F7
  8
0
 10
3456.9518252603879773
 20
163.5709162197252908
 30
0.0
 40
0.067177484531506
 50
3.9907148924118698
 51
87.0072128386655663
  0
ARC
  5
2F6F8
  8
0
 10
3457.3689563730790724
 20
163.596222917044912
 30
0.0
 40
0.0220238406618899
 50
82.725038174921977
 51
281.2287278120618907
  0
ARC
  5
2F6F9
  8
0
 10
3457.3726272887947744
 20
163.5963496253646099
 30
0.0
 40
0.0217377389120819
 50
271.6283436917099721
 51
92.3254222952735546
  0
LINE
  5
2F6FA
  8
0
 10
3457.306666638678962
 20
163.6316200266828957
 30
0.0
 11
3457.3067000085789005
 21
163.6054747847828992
 31
0.0
  0
ARC
  5
2F6FB
  8
0
 10
3457.3677100233680903
 20
163.6082157227627079
 30
0.0
 40
0.0610715534888087
 50
182.5723424233133017
 51
246.3308897016410128
  0
ARC
  5
2F6FC
  8
0
 10
3457.3700888487001066
 20
163.6136427859528055
 30
0.0
 40
0.0669970766585589
 50
246.3308897016410128
 51
332.4315603757933104
  0
ARC
  5
2F6FD
  8
0
 10
3457.39053361540482
 20
163.6029688556104134
 30
0.0
 40
0.0439336581229258
 50
332.4315603757933104
 51
358.8488007310261878
  0
LINE
  5
2F6FE
  8
0
 10
3457.4344584058790133
 20
163.6020861903828916
 30
0.0
 11
3457.4346194490972266
 21
163.6297277761701139
 31
0.0
  0
ARC
  5
2F6FF
  8
0
 10
3457.3679142666660482
 20
163.6309709056708073
 30
0.0
 40
0.0612510676823524
 50
87.0072128386655663
 51
179.3927846156589965
  0
ARC
  5
2F700
  8
0
 10
3457.3676048470169917
 20
163.6250525717709081
 30
0.0
 40
0.067177484531506
 50
3.9907148924118698
 51
87.0072128386655663
  0
ARC
  5
2F701
  8
0
 10
3456.8560049028901631
 20
163.8987367782225988
 30
0.0
 40
0.0220238406618899
 50
82.725038174921977
 51
281.2287278120618907
  0
ARC
  5
2F702
  8
0
 10
3456.8596758186058651
 20
163.8988634865422966
 30
0.0
 40
0.0217377389120819
 50
271.6283436917099721
 51
92.3254222952735546
  0
LINE
  5
2F703
  8
0
 10
3456.7937151684891433
 20
163.9341338878606109
 30
0.0
 11
3456.7937485383899912
 21
163.9079886459605859
 31
0.0
  0
ARC
  5
2F704
  8
0
 10
3456.8547585531778168
 20
163.9107295839403946
 30
0.0
 40
0.0610715534888087
 50
182.5723424233133017
 51
246.3308897016410128
  0
ARC
  5
2F705
  8
0
 10
3456.8571373785121068
 20
163.9161566471304923
 30
0.0
 40
0.0669970766585589
 50
246.3308897016410128
 51
332.4315603757933104
  0
ARC
  5
2F706
  8
0
 10
3456.8775821452159107
 20
163.9054827167881001
 30
0.0
 40
0.0439336581229258
 50
332.4315603757933104
 51
358.8488007310261878
  0
LINE
  5
2F707
  8
0
 10
3456.921506935690104
 20
163.9046000515606067
 30
0.0
 11
3456.9216679789069531
 21
163.9322416373478006
 31
0.0
  0
ARC
  5
2F708
  8
0
 10
3456.8549627964771389
 20
163.9334847668484088
 30
0.0
 40
0.0612510676823524
 50
87.0072128386655663
 51
179.3927846156589965
  0
ARC
  5
2F709
  8
0
 10
3456.8546533768280824
 20
163.9275664329485949
 30
0.0
 40
0.067177484531506
 50
3.9907148924118698
 51
87.0072128386655663
  0
ARC
  5
2F70A
  8
0
 10
3457.2739768152941906
 20
164.0338277278827945
 30
0.0
 40
0.0220238406618899
 50
82.725038174921977
 51
281.2287278120618907
  0
ARC
  5
2F70B
  8
0
 10
3457.2776477310108021
 20
164.0339544362024071
 30
0.0
 40
0.0217377389120819
 50
271.6283436917099721
 51
92.3254222952735546
  0
LINE
  5
2F70C
  8
0
 10
3457.2116870808949898
 20
164.069224837520693
 30
0.0
 11
3457.2117204507949282
 21
164.0430795956206964
 31
0.0
  0
ARC
  5
2F70D
  8
0
 10
3457.2727304655841181
 20
164.0458205336005051
 30
0.0
 40
0.0610715534888087
 50
182.5723424233133017
 51
246.3308897016410128
  0
ARC
  5
2F70E
  8
0
 10
3457.2751092909170438
 20
164.0512475967906028
 30
0.0
 40
0.0669970766585589
 50
246.3308897016410128
 51
332.4315603757933104
  0
ARC
  5
2F70F
  8
0
 10
3457.2955540576208477
 20
164.0405736664482106
 30
0.0
 40
0.0439336581229258
 50
332.4315603757933104
 51
358.8488007310261878
  0
LINE
  5
2F710
  8
0
 10
3457.339478848095041
 20
164.0396910012206888
 30
0.0
 11
3457.3396398913118901
 21
164.0673325870079111
 31
0.0
  0
ARC
  5
2F711
  8
0
 10
3457.2729347088820759
 20
164.0685757165086045
 30
0.0
 40
0.0612510676823524
 50
87.0072128386655663
 51
179.3927846156589965
  0
ARC
  5
2F712
  8
0
 10
3457.2726252892330194
 20
164.0626573826087053
 30
0.0
 40
0.067177484531506
 50
3.9907148924118698
 51
87.0072128386655663
  0
ARC
  5
2F713
  8
0
 10
3457.3679657329248585
 20
164.4734777212582912
 30
0.0
 40
0.0220238406618899
 50
82.725038174921977
 51
281.2287278120618907
  0
ARC
  5
2F714
  8
0
 10
3457.3716366486419247
 20
164.4736044295779891
 30
0.0
 40
0.0217377389120819
 50
271.6283436917099721
 51
92.3254222952735546
  0
LINE
  5
2F715
  8
0
 10
3457.3056759985261124
 20
164.5088748308963034
 30
0.0
 11
3457.3057093684260508
 21
164.4827295889963068
 31
0.0
  0
ARC
  5
2F716
  8
0
 10
3457.3667193832138764
 20
164.4854705269760871
 30
0.0
 40
0.0610715534888087
 50
182.5723424233133017
 51
246.3308897016410128
  0
ARC
  5
2F717
  8
0
 10
3457.3690982085468022
 20
164.4908975901662131
 30
0.0
 40
0.0669970766585589
 50
246.3308897016410128
 51
332.4315603757933104
  0
ARC
  5
2F718
  8
0
 10
3457.3895429752519703
 20
164.4802236598237926
 30
0.0
 40
0.0439336581229258
 50
332.4315603757933104
 51
358.8488007310261878
  0
LINE
  5
2F719
  8
0
 10
3457.4334677657261636
 20
164.4793409945962992
 30
0.0
 11
3457.4336288089430127
 21
164.5069825803834931
 31
0.0
  0
ARC
  5
2F71A
  8
0
 10
3457.3669236265131985
 20
164.5082257098841865
 30
0.0
 40
0.0612510676823524
 50
87.0072128386655663
 51
179.3927846156589965
  0
ARC
  5
2F71B
  8
0
 10
3457.366614206864142
 20
164.5023073759842873
 30
0.0
 40
0.067177484531506
 50
3.9907148924118698
 51
87.0072128386655663
  0
ARC
  5
2F71C
  8
0
 10
3457.6366075115570311
 20
164.854080419747703
 30
0.0
 40
0.0220238406618899
 50
82.725038174921977
 51
281.2287278120618907
  0
ARC
  5
2F71D
  8
0
 10
3457.6402784272750068
 20
164.8542071280674008
 30
0.0
 40
0.0217377389120819
 50
271.6283436917099721
 51
92.3254222952735546
  0
LINE
  5
2F71E
  8
0
 10
3457.5743177771578303
 20
164.8894775293856867
 30
0.0
 11
3457.5743511470582234
 21
164.8633322874856901
 31
0.0
  0
ARC
  5
2F71F
  8
0
 10
3457.6353611618469586
 20
164.8660732254654988
 30
0.0
 40
0.0610715534888087
 50
182.5723424233133017
 51
246.3308897016410128
  0
ARC
  5
2F720
  8
0
 10
3457.6377399871798843
 20
164.8715002886555965
 30
0.0
 40
0.0669970766585589
 50
246.3308897016410128
 51
332.4315603757933104
  0
ARC
  5
2F721
  8
0
 10
3457.658184753884143
 20
164.8608263583132043
 30
0.0
 40
0.0439336581229258
 50
332.4315603757933104
 51
358.8488007310261878
  0
LINE
  5
2F722
  8
0
 10
3457.7021095443578815
 20
164.8599436930857109
 30
0.0
 11
3457.7022705875760948
 21
164.8875852788729048
 31
0.0
  0
ARC
  5
2F723
  8
0
 10
3457.6355654051458259
 20
164.8888284083735982
 30
0.0
 40
0.0612510676823524
 50
87.0072128386655663
 51
179.3927846156589965
  0
ARC
  5
2F724
  8
0
 10
3457.6352559854958599
 20
164.8829100744736991
 30
0.0
 40
0.067177484531506
 50
3.9907148924118698
 51
87.0072128386655663
  0
ARC
  5
2F725
  8
0
 10
3457.7660165904899259
 20
165.4586801566198062
 30
0.0
 40
0.0220238406618899
 50
82.725038174921977
 51
281.2287278120618907
  0
ARC
  5
2F726
  8
0
 10
3457.7696875062060826
 20
165.4588068649395041
 30
0.0
 40
0.0217377389120819
 50
271.6283436917099721
 51
92.3254222952735546
  0
LINE
  5
2F727
  8
0
 10
3457.7037268560898156
 20
165.4940772662577899
 30
0.0
 11
3457.7037602259902087
 21
165.4679320243577934
 31
0.0
  0
ARC
  5
2F728
  8
0
 10
3457.7647702407789438
 20
165.4706729623374883
 30
0.0
 40
0.0610715534888087
 50
182.5723424233133017
 51
246.3308897016410128
  0
ARC
  5
2F729
  8
0
 10
3457.7671490661118696
 20
165.4761000255276997
 30
0.0
 40
0.0669970766585589
 50
246.3308897016410128
 51
332.4315603757933104
  0
ARC
  5
2F72A
  8
0
 10
3457.7875938328161283
 20
165.4654260951853075
 30
0.0
 40
0.0439336581229258
 50
332.4315603757933104
 51
358.8488007310261878
  0
LINE
  5
2F72B
  8
0
 10
3457.8315186232898668
 20
165.4645434299578142
 30
0.0
 11
3457.8316796665071706
 21
165.4921850157448944
 31
0.0
  0
ARC
  5
2F72C
  8
0
 10
3457.7649744840778112
 20
165.4934281452455878
 30
0.0
 40
0.0612510676823524
 50
87.0072128386655663
 51
179.3927846156589965
  0
ARC
  5
2F72D
  8
0
 10
3457.7646650644278452
 20
165.4875098113456886
 30
0.0
 40
0.067177484531506
 50
3.9907148924118698
 51
87.0072128386655663
  0
ARC
  5
2F72E
  8
0
 10
3458.1649298235038259
 20
165.6184423457926016
 30
0.0
 40
0.0220238406618899
 50
82.725038174921977
 51
281.2287278120618907
  0
ARC
  5
2F72F
  8
0
 10
3458.1686007392208921
 20
165.6185690541122995
 30
0.0
 40
0.0217377389120819
 50
271.6283436917099721
 51
92.3254222952735546
  0
LINE
  5
2F730
  8
0
 10
3458.1026400891050798
 20
165.6538394554306137
 30
0.0
 11
3458.1026734590050182
 21
165.6276942135305887
 31
0.0
  0
ARC
  5
2F731
  8
0
 10
3458.1636834737942081
 20
165.6304351515103974
 30
0.0
 40
0.0610715534888087
 50
182.5723424233133017
 51
246.3308897016410128
  0
ARC
  5
2F732
  8
0
 10
3458.1660622991271339
 20
165.6358622147004951
 30
0.0
 40
0.0669970766585589
 50
246.3308897016410128
 51
332.4315603757933104
  0
ARC
  5
2F733
  8
0
 10
3458.1865070658309378
 20
165.6251882843581029
 30
0.0
 40
0.0439336581229258
 50
332.4315603757933104
 51
358.8488007310261878
  0
LINE
  5
2F734
  8
0
 10
3458.2304318563051311
 20
165.6243056191306096
 30
0.0
 11
3458.2305928995219801
 21
165.6519472049178034
 31
0.0
  0
ARC
  5
2F735
  8
0
 10
3458.1638877170930755
 20
165.6531903344184968
 30
0.0
 40
0.0612510676823524
 50
87.0072128386655663
 51
179.3927846156589965
  0
ARC
  5
2F736
  8
0
 10
3458.1635782974431095
 20
165.6472720005185977
 30
0.0
 40
0.067177484531506
 50
3.9907148924118698
 51
87.0072128386655663
  0
ARC
  5
2F737
  8
0
 10
3457.4218005210650517
 20
165.2312075058464984
 30
0.0
 40
0.0220238406618899
 50
82.725038174921977
 51
281.2287278120618907
  0
ARC
  5
2F738
  8
0
 10
3457.425471436782118
 20
165.2313342141661963
 30
0.0
 40
0.0217377389120819
 50
271.6283436917099721
 51
92.3254222952735546
  0
LINE
  5
2F739
  8
0
 10
3457.3595107866649414
 20
165.2666046154845105
 30
0.0
 11
3457.3595441565648798
 21
165.240459373584514
 31
0.0
  0
ARC
  5
2F73A
  8
0
 10
3457.4205541713540697
 20
165.2432003115642942
 30
0.0
 40
0.0610715534888087
 50
182.5723424233133017
 51
246.3308897016410128
  0
ARC
  5
2F73B
  8
0
 10
3457.4229329966869955
 20
165.2486273747543919
 30
0.0
 40
0.0669970766585589
 50
246.3308897016410128
 51
332.4315603757933104
  0
ARC
  5
2F73C
  8
0
 10
3457.4433777633921636
 20
165.2379534444119997
 30
0.0
 40
0.0439336581229258
 50
332.4315603757933104
 51
358.8488007310261878
  0
LINE
  5
2F73D
  8
0
 10
3457.4873025538649927
 20
165.2370707791845064
 30
0.0
 11
3457.4874635970818417
 21
165.2647123649715866
 31
0.0
  0
ARC
  5
2F73E
  8
0
 10
3457.4207584146529371
 20
165.2659554944723084
 30
0.0
 40
0.0612510676823524
 50
87.0072128386655663
 51
179.3927846156589965
  0
ARC
  5
2F73F
  8
0
 10
3457.4204489950038806
 20
165.2600371605724945
 30
0.0
 40
0.067177484531506
 50
3.9907148924118698
 51
87.0072128386655663
  0
ARC
  5
2F740
  8
0
 10
3457.1448915819969443
 20
164.9457351989524057
 30
0.0
 40
0.0220238406618899
 50
82.725038174921977
 51
281.2287278120618907
  0
ARC
  5
2F741
  8
0
 10
3457.148562497713101
 20
164.9458619072719898
 30
0.0
 40
0.0217377389120819
 50
271.6283436917099721
 51
92.3254222952735546
  0
LINE
  5
2F742
  8
0
 10
3457.0826018475959245
 20
164.9811323085903894
 30
0.0
 11
3457.0826352174958629
 21
164.9549870666903928
 31
0.0
  0
ARC
  5
2F743
  8
0
 10
3457.1436452322850528
 20
164.9577280046700878
 30
0.0
 40
0.0610715534888087
 50
182.5723424233133017
 51
246.3308897016410128
  0
ARC
  5
2F744
  8
0
 10
3457.1460240576179785
 20
164.9631550678602991
 30
0.0
 40
0.0669970766585589
 50
246.3308897016410128
 51
332.4315603757933104
  0
ARC
  5
2F745
  8
0
 10
3457.1664688243217824
 20
164.952481137517907
 30
0.0
 40
0.0439336581229258
 50
332.4315603757933104
 51
358.8488007310261878
  0
LINE
  5
2F746
  8
0
 10
3457.2103936147959757
 20
164.9515984722904136
 30
0.0
 11
3457.210554658014189
 21
164.9792400580774938
 31
0.0
  0
ARC
  5
2F747
  8
0
 10
3457.1438494755839201
 20
164.9804831875781872
 30
0.0
 40
0.0612510676823524
 50
87.0072128386655663
 51
179.3927846156589965
  0
ARC
  5
2F748
  8
0
 10
3457.1435400559339541
 20
164.9745648536784017
 30
0.0
 40
0.067177484531506
 50
3.9907148924118698
 51
87.0072128386655663
  0
ARC
  5
2F749
  8
0
 10
3456.952931173188972
 20
164.6186132615140991
 30
0.0
 40
0.0220238406618899
 50
82.725038174921977
 51
281.2287278120618907
  0
ARC
  5
2F74A
  8
0
 10
3456.9566020889051288
 20
164.618739969833797
 30
0.0
 40
0.0217377389120819
 50
271.6283436917099721
 51
92.3254222952735546
  0
LINE
  5
2F74B
  8
0
 10
3456.8906414387879522
 20
164.6540103711521112
 30
0.0
 11
3456.8906748086878906
 21
164.6278651292520863
 31
0.0
  0
ARC
  5
2F74C
  8
0
 10
3456.9516848234770805
 20
164.6306060672318949
 30
0.0
 40
0.0610715534888087
 50
182.5723424233133017
 51
246.3308897016410128
  0
ARC
  5
2F74D
  8
0
 10
3456.9540636488109158
 20
164.6360331304219926
 30
0.0
 40
0.0669970766585589
 50
246.3308897016410128
 51
332.4315603757933104
  0
ARC
  5
2F74E
  8
0
 10
3456.9745084155151744
 20
164.6253592000796004
 30
0.0
 40
0.0439336581229258
 50
332.4315603757933104
 51
358.8488007310261878
  0
LINE
  5
2F74F
  8
0
 10
3457.018433205988913
 20
164.6244765348521071
 30
0.0
 11
3457.0185942492062168
 21
164.6521181206391873
 31
0.0
  0
ARC
  5
2F750
  8
0
 10
3456.9518890667759479
 20
164.6533612501399091
 30
0.0
 40
0.0612510676823524
 50
87.0072128386655663
 51
179.3927846156589965
  0
ARC
  5
2F751
  8
0
 10
3456.9515796471268914
 20
164.6474429162400952
 30
0.0
 40
0.067177484531506
 50
3.9907148924118698
 51
87.0072128386655663
  0
ARC
  5
2F752
  8
0
 10
3456.8548905464258496
 20
164.2638454221016957
 30
0.0
 40
0.0220238406618899
 50
82.725038174921977
 51
281.2287278120618907
  0
ARC
  5
2F753
  8
0
 10
3456.8585614621429158
 20
164.2639721304213936
 30
0.0
 40
0.0217377389120819
 50
271.6283436917099721
 51
92.3254222952735546
  0
LINE
  5
2F754
  8
0
 10
3456.7926008120271035
 20
164.2992425317397078
 30
0.0
 11
3456.7926341819270419
 21
164.2730972898397113
 31
0.0
  0
ARC
  5
2F755
  8
0
 10
3456.8536441967157771
 20
164.2758382278194915
 30
0.0
 40
0.0610715534888087
 50
182.5723424233133017
 51
246.3308897016410128
  0
ARC
  5
2F756
  8
0
 10
3456.8560230220491576
 20
164.2812652910095892
 30
0.0
 40
0.0669970766585589
 50
246.3308897016410128
 51
332.4315603757933104
  0
ARC
  5
2F757
  8
0
 10
3456.8764677887529615
 20
164.270591360667197
 30
0.0
 40
0.0439336581229258
 50
332.4315603757933104
 51
358.8488007310261878
  0
LINE
  5
2F758
  8
0
 10
3456.9203925792271548
 20
164.2697086954397037
 30
0.0
 11
3456.9205536224440038
 21
164.2973502812268976
 31
0.0
  0
ARC
  5
2F759
  8
0
 10
3456.8538484400150992
 20
164.2985934107275909
 30
0.0
 40
0.0612510676823524
 50
87.0072128386655663
 51
179.3927846156589965
  0
ARC
  5
2F75A
  8
0
 10
3456.8535390203651332
 20
164.2926750768276918
 30
0.0
 40
0.067177484531506
 50
3.9907148924118698
 51
87.0072128386655663
  0
ARC
  5
2F75B
  8
0
 10
3458.6013562554280725
 20
162.6795792392784961
 30
0.0
 40
3.868243315461116
 50
65.9812523584149488
 51
89.6195678430264167
  0
ARC
  5
2F75C
  8
0
 10
3459.3045887323610259
 20
164.4192782302471869
 30
0.0
 40
1.9940254366228201
 50
357.27191304368489
 51
64.0908592365795897
  0
ARC
  5
2F75D
  8
0
 10
3459.2911093568118304
 20
164.294961419676099
 30
0.0
 40
2.0054605536766892
 50
301.3121928941046122
 51
0.8402406146090445
  0
ARC
  5
2F75E
  8
0
 10
3483.2793312316698575
 20
133.8529937991391989
 30
0.0
 40
36.7675249881581578
 50
128.6149034368222033
 51
129.645799424189903
  0
ARC
  5
2F75F
  8
0
 10
3460.5031798938548491
 20
161.3081553235873002
 30
0.0
 40
1.0950535540491551
 50
128.5871182380946891
 51
158.1243437148195881
  0
ARC
  5
2F760
  8
0
 10
3460.3545469200357729
 20
161.3821132639241966
 30
0.0
 40
0.9296611689740297
 50
158.9411577215275884
 51
178.4127870724884133
  0
ARC
  5
2F761
  8
0
 10
-5075.3098883545208082
 20
361.5238451305144167
 30
0.0
 40
8537.0808921401330736
 50
358.6361914884409998
 51
358.6568182281152986
  0
ARC
  5
2F762
  8
0
 10
3233.0647245685768212
 20
163.5723859516575089
 30
0.0
 40
226.3485154183339034
 50
358.6470185437606801
 51
358.674222404001398
  0
ARC
  5
2F763
  8
0
 10
3459.3251605314280823
 20
158.2322502821828891
 30
0.0
 40
0.0253513891164325
 50
274.9004599403883731
 51
350.1033745784773146
  0
ARC
  5
2F764
  8
0
 10
3458.805312648024028
 20
161.3119628042861962
 30
0.0
 40
3.1485464158577949
 50
270.2376037298569145
 51
279.5434257358987793
  0
ARC
  5
2F765
  8
0
 10
3458.7416908982249879
 20
161.9458359183886103
 30
0.0
 40
0.7118909310061742
 50
299.6296981166374849
 51
338.8202600510801972
  0
ARC
  5
2F766
  8
0
 10
3458.8161512993260658
 20
161.814832482952994
 30
0.0
 40
0.5612050024803898
 50
270.1560649855281895
 51
299.6341132061402277
  0
ARC
  5
2F767
  8
0
 10
3460.4915642512351042
 20
161.2704759844708065
 30
0.0
 40
1.1637880270483849
 50
127.1575645766057931
 51
158.9423465309853896
  0
ARC
  5
2F768
  8
0
 10
3452.4462304838111777
 20
171.8861287411835974
 30
0.0
 40
12.1561023208619297
 50
307.1575645766058074
 51
311.3615980630838749
  0
ARC
  5
2F769
  8
0
 10
3459.355979031096922
 20
164.2481841961804037
 30
0.0
 40
1.862575417757544
 50
307.084282743329311
 51
354.4304193275261241
  0
ARC
  5
2F76A
  8
0
 10
3459.5111954356311799
 20
164.1756990288781992
 30
0.0
 40
1.702014125489006
 50
356.3522432985208752
 51
38.1466177783047229
  0
ARC
  5
2F76B
  8
0
 10
3459.047503493430213
 20
163.8135351957770069
 30
0.0
 40
2.290377084417611
 50
38.1067456933904367
 51
67.9421119083465044
  0
ARC
  5
2F76C
  8
0
 10
3458.8252070182729767
 20
163.3242952438656914
 30
0.0
 40
2.827376895197236
 50
67.490312309678302
 51
90.1525338358700736
  0
ARC
  5
2F76D
  8
0
 10
3458.8336781429798066
 20
163.3977720395022004
 30
0.0
 40
2.8519181337222692
 50
55.9563939877890704
 51
90.3214098693864145
  0
ARC
  5
2F76E
  8
0
 10
3459.3138099352017889
 20
164.1084294246344086
 30
0.0
 40
1.9942699209074479
 50
6.2162151374965617
 51
55.9563939877890704
  0
ARC
  5
2F76F
  8
0
 10
3459.0401992496717867
 20
165.6990127027883943
 30
0.0
 40
0.0220238406618899
 50
258.7712721879382229
 51
97.2749618250780088
  0
ARC
  5
2F770
  8
0
 10
3459.0365283339551752
 20
165.6991394111080922
 30
0.0
 40
0.0217377389120819
 50
87.6745777047264454
 51
268.3716563082900279
  0
LINE
  5
2F771
  8
0
 10
3459.1024889840709875
 20
165.7344098124264065
 30
0.0
 11
3459.1024556141710491
 21
165.7082645705264099
 31
0.0
  0
ARC
  5
2F772
  8
0
 10
3459.0414455993818592
 20
165.7110055085061902
 30
0.0
 40
0.0610715534888087
 50
293.6691102983589872
 51
357.4276575766850783
  0
ARC
  5
2F773
  8
0
 10
3459.0390667740498429
 20
165.7164325716962878
 30
0.0
 40
0.0669970766585589
 50
207.5684396242066896
 51
293.6691102983589872
  0
ARC
  5
2F774
  8
0
 10
3459.0186220073451295
 20
165.7057586413538957
 30
0.0
 40
0.0439336581229258
 50
181.1511992689738122
 51
207.5684396242052117
  0
LINE
  5
2F775
  8
0
 10
3458.9746972168709362
 20
165.7048759761264023
 30
0.0
 11
3458.9745361736540872
 21
165.7325175619135109
 31
0.0
  0
ARC
  5
2F776
  8
0
 10
3459.0412413560839013
 20
165.7337606914142043
 30
0.0
 40
0.0612510676823524
 50
0.6072153843409606
 51
92.9927871613344337
  0
ARC
  5
2F777
  8
0
 10
3459.0415507757329578
 20
165.7278423575143051
 30
0.0
 40
0.067177484531506
 50
92.9927871613344337
 51
176.0092851075881129
  0
ARC
  5
2F778
  8
0
 10
3459.3667141676301071
 20
164.8151852627553069
 30
0.0
 40
0.177882960600706
 50
97.0528380313159857
 51
160.6470656535234127
  0
ARC
  5
2F779
  8
0
 10
3459.3687065252161119
 20
164.7990815994895968
 30
0.0
 40
0.194109403813036
 50
39.3739457143404223
 51
97.0528380313159857
  0
ARC
  5
2F77A
  8
0
 10
3459.4375582226498409
 20
164.8555846071047881
 30
0.0
 40
0.1050411933834529
 50
358.082317125933514
 51
39.3739457143404223
  0
ARC
  5
2F77B
  8
0
 10
3459.3586090276799041
 20
164.8582280143502885
 30
0.0
 40
0.1840346297445655
 50
322.6823091169069926
 51
358.082317125933514
  0
ARC
  5
2F77C
  8
0
 10
3459.3672769446170605
 20
164.8714393002321117
 30
0.0
 40
0.1858199503913451
 50
282.198290703030807
 51
317.8165442683928745
  0
ARC
  5
2F77D
  8
0
 10
3459.3633506964861226
 20
164.8786228751970953
 30
0.0
 40
0.1936848272965836
 50
245.0779664027839999
 51
282.884532997165195
  0
ARC
  5
2F77E
  8
0
 10
3459.3447658790150854
 20
164.8424990956486056
 30
0.0
 40
0.1531021657744578
 50
197.4528249694809858
 51
245.688812285717205
  0
ARC
  5
2F77F
  8
0
 10
3459.3717381653591474
 20
164.8349765831003992
 30
0.0
 40
0.1772352702222621
 50
167.2363207404316938
 51
192.5116637097858074
  0
ARC
  5
2F780
  8
0
 10
3459.3347676905741537
 20
164.778835651780696
 30
0.0
 40
0.0038103401713618
 50
78.2614028354619649
 51
175.1475849562438896
  0
ARC
  5
2F781
  8
0
 10
3465.7973985107678345
 20
164.8270466673018007
 30
0.0
 40
6.466604826975539
 50
180.4243100686472019
 51
180.6252560312925084
  0
ARC
  5
2F782
  8
0
 10
3459.334629143910206
 20
164.7568392368634989
 30
0.0
 40
0.0034691210502517
 50
185.9528327367204952
 51
249.0726582816467953
  0
ARC
  5
2F783
  8
0
 10
3458.8753996915711468
 20
163.9340888418265934
 30
0.0
 40
0.9388034847996898
 50
55.9060574373071901
 51
60.800979472042691
  0
ARC
  5
2F784
  8
0
 10
3459.3704473303928353
 20
164.9945866025821033
 30
0.0
 40
0.214874213121645
 50
260.6513758203897737
 51
323.0387517281230885
  0
ARC
  5
2F785
  8
0
 10
3459.3702166139119072
 20
164.9727154548992871
 30
0.0
 40
0.2158231363875009
 50
260.7432317929985857
 51
322.2121125384692277
  0
ARC
  5
2F786
  8
0
 10
3459.3347660716649443
 20
164.7561784561723925
 30
0.0
 40
0.0035999476005692
 50
78.2448794467513125
 51
175.2037806736036032
  0
ARC
  5
2F787
  8
0
 10
3459.3750211978917832
 20
164.8798139979828932
 30
0.0
 40
0.1703769867345041
 50
278.9909136541323278
 51
349.130384693290523
  0
ARC
  5
2F788
  8
0
 10
3459.3606570768238271
 20
164.8796156165871025
 30
0.0
 40
0.1730110939482651
 50
196.2312180299479962
 51
283.7049903024575883
  0
LINE
  5
2F789
  8
0
 10
3459.2312658283408382
 20
164.8081777457302906
 30
0.0
 11
3459.2314733329722003
 21
164.8308637594263928
 31
0.0
  0
ARC
  5
2F78A
  8
0
 10
3459.2276742666199425
 20
164.8085596970325071
 30
0.0
 40
0.0036118142803375
 50
261.4894507754132178
 51
353.9295900402427151
  0
ARC
  5
2F78B
  8
0
 10
3457.9853279191120237
 20
161.6466055413729066
 30
0.0
 40
3.3937404420817701
 50
68.5362536862964191
 51
69.0287284150380742
  0
ARC
  5
2F78C
  8
0
 10
3459.3456861245022083
 20
164.9545912298160886
 30
0.0
 40
0.1674154665718183
 50
208.7292365225123945
 51
226.5366558328792053
  0
ARC
  5
2F78D
  8
0
 10
3459.2284308132798287
 20
164.8308692889235942
 30
0.0
 40
0.0030425247165697
 50
359.8958703524253906
 51
46.565156736277757
  0
ARC
  5
2F78E
  8
0
 10
3459.9205926902618558
 20
164.0188972727156056
 30
0.0
 40
0.177882960600706
 50
97.0528380313159857
 51
160.6470656535234127
  0
ARC
  5
2F78F
  8
0
 10
3459.9225850478469511
 20
164.0027936094498955
 30
0.0
 40
0.194109403813036
 50
39.3739457143404223
 51
97.0528380313159857
  0
ARC
  5
2F790
  8
0
 10
3459.9914367452802253
 20
164.0592966170650868
 30
0.0
 40
0.1050411933834529
 50
358.082317125933514
 51
39.3739457143404223
  0
ARC
  5
2F791
  8
0
 10
3459.9124875503121075
 20
164.0619400243105872
 30
0.0
 40
0.1840346297445655
 50
322.6823091169069926
 51
358.082317125933514
  0
ARC
  5
2F792
  8
0
 10
3459.9211554672478997
 20
164.0751513101924104
 30
0.0
 40
0.1858199503913451
 50
282.198290703030807
 51
317.8165442683928745
  0
ARC
  5
2F793
  8
0
 10
3459.9172292191169618
 20
164.0823348851575076
 30
0.0
 40
0.1936848272965836
 50
245.0779664027839999
 51
282.884532997165195
  0
ARC
  5
2F794
  8
0
 10
3459.898644401646834
 20
164.0462111056089043
 30
0.0
 40
0.1531021657744578
 50
197.4528249694809858
 51
245.688812285717205
  0
ARC
  5
2F795
  8
0
 10
3459.9256166879899865
 20
164.0386885930606979
 30
0.0
 40
0.1772352702222621
 50
167.2363207404316938
 51
192.5116637097858074
  0
ARC
  5
2F796
  8
0
 10
3459.8886462132059023
 20
163.9825476617409947
 30
0.0
 40
0.0038103401713618
 50
78.2614028354619649
 51
175.1475849562438896
  0
ARC
  5
2F797
  8
0
 10
3466.3512770334000379
 20
164.0307586772620994
 30
0.0
 40
6.466604826975539
 50
180.4243100686472019
 51
180.6252560312925084
  0
ARC
  5
2F798
  8
0
 10
3459.8885076665410452
 20
163.9605512468237976
 30
0.0
 40
0.0034691210502517
 50
185.9528327367204952
 51
249.0726582816467953
  0
ARC
  5
2F799
  8
0
 10
3459.4292782142028955
 20
163.1378008517868921
 30
0.0
 40
0.9388034847996898
 50
55.9060574373071901
 51
60.800979472042691
  0
ARC
  5
2F79A
  8
0
 10
3459.9243258530241292
 20
164.198298612542402
 30
0.0
 40
0.214874213121645
 50
260.6513758203897737
 51
323.0387517281230885
  0
ARC
  5
2F79B
  8
0
 10
3459.9240951365450201
 20
164.1764274648595858
 30
0.0
 40
0.2158231363875009
 50
260.7432317929985857
 51
322.2121125384692277
  0
ARC
  5
2F79C
  8
0
 10
3459.8886445942957835
 20
163.9598904661326912
 30
0.0
 40
0.0035999476005692
 50
78.2448794467513125
 51
175.2037806736036032
  0
ARC
  5
2F79D
  8
0
 10
3459.9288997205230771
 20
164.0835260079431919
 30
0.0
 40
0.1703769867345041
 50
278.9909136541323278
 51
349.130384693290523
  0
ARC
  5
2F79E
  8
0
 10
3459.9145355994542115
 20
164.0833276265474012
 30
0.0
 40
0.1730110939482651
 50
196.2312180299479962
 51
283.7049903024575883
  0
LINE
  5
2F79F
  8
0
 10
3459.7851443509730416
 20
164.0118897556905893
 30
0.0
 11
3459.7853518556030394
 21
164.0345757693866915
 31
0.0
  0
ARC
  5
2F7A0
  8
0
 10
3459.7815527892507816
 20
164.0122717069928058
 30
0.0
 40
0.0036118142803375
 50
261.4894507754132178
 51
353.9295900402427151
  0
ARC
  5
2F7A1
  8
0
 10
3458.539206441744227
 20
160.8503175513332053
 30
0.0
 40
3.3937404420817701
 50
68.5362536862964191
 51
69.0287284150380742
  0
ARC
  5
2F7A2
  8
0
 10
3459.8995646471330474
 20
164.1583032397763873
 30
0.0
 40
0.1674154665718183
 50
208.7292365225123945
 51
226.5366558328792053
  0
ARC
  5
2F7A3
  8
0
 10
3459.7823093359111226
 20
164.0345812988838929
 30
0.0
 40
0.0030425247165697
 50
359.8958703524253906
 51
46.565156736277757
  0
ARC
  5
2F7A4
  8
0
 10
3459.3690167736431249
 20
163.2118476020700086
 30
0.0
 40
0.177882960600706
 50
97.0528380313159857
 51
160.6470656535234127
  0
ARC
  5
2F7A5
  8
0
 10
3459.3710091312291297
 20
163.1957439388042133
 30
0.0
 40
0.194109403813036
 50
39.3739457143404223
 51
97.0528380313159857
  0
ARC
  5
2F7A6
  8
0
 10
3459.4398608286628587
 20
163.2522469464194899
 30
0.0
 40
0.1050411933834529
 50
358.082317125933514
 51
39.3739457143404223
  0
ARC
  5
2F7A7
  8
0
 10
3459.3609116336938314
 20
163.2548903536649902
 30
0.0
 40
0.1840346297445655
 50
322.6823091169069926
 51
358.082317125933514
  0
ARC
  5
2F7A8
  8
0
 10
3459.3695795506300783
 20
163.2681016395468134
 30
0.0
 40
0.1858199503913451
 50
282.198290703030807
 51
317.8165442683928745
  0
ARC
  5
2F7A9
  8
0
 10
3459.3656533024991404
 20
163.275285214511797
 30
0.0
 40
0.1936848272965836
 50
245.0779664027839999
 51
282.884532997165195
  0
ARC
  5
2F7AA
  8
0
 10
3459.3470684850290127
 20
163.2391614349633073
 30
0.0
 40
0.1531021657744578
 50
197.4528249694809858
 51
245.688812285717205
  0
ARC
  5
2F7AB
  8
0
 10
3459.3740407713721652
 20
163.231638922415101
 30
0.0
 40
0.1772352702222621
 50
167.2363207404316938
 51
192.5116637097858074
  0
ARC
  5
2F7AC
  8
0
 10
3459.337070296588081
 20
163.1754979910953978
 30
0.0
 40
0.0038103401713618
 50
78.2614028354619649
 51
175.1475849562438896
  0
ARC
  5
2F7AD
  8
0
 10
3465.7997011167822166
 20
163.2237090066165024
 30
0.0
 40
6.466604826975539
 50
180.4243100686472019
 51
180.6252560312925084
  0
ARC
  5
2F7AE
  8
0
 10
3459.3369317499232238
 20
163.1535015761782006
 30
0.0
 40
0.0034691210502517
 50
185.9528327367204952
 51
249.0726582816467953
  0
ARC
  5
2F7AF
  8
0
 10
3458.8777022975859836
 20
162.3307511811412951
 30
0.0
 40
0.9388034847996898
 50
55.9060574373071901
 51
60.800979472042691
  0
ARC
  5
2F7B0
  8
0
 10
3459.3727499364058531
 20
163.391248941896805
 30
0.0
 40
0.214874213121645
 50
260.6513758203897737
 51
323.0387517281230885
  0
ARC
  5
2F7B1
  8
0
 10
3459.3725192199258345
 20
163.3693777942139889
 30
0.0
 40
0.2158231363875009
 50
260.7432317929985857
 51
322.2121125384692277
  0
ARC
  5
2F7B2
  8
0
 10
3459.3370686776779621
 20
163.1528407954870943
 30
0.0
 40
0.0035999476005692
 50
78.2448794467513125
 51
175.2037806736036032
  0
ARC
  5
2F7B3
  8
0
 10
3459.3773238039061653
 20
163.2764763372975949
 30
0.0
 40
0.1703769867345041
 50
278.9909136541323278
 51
349.130384693290523
  0
ARC
  5
2F7B4
  8
0
 10
3459.3629596828368449
 20
163.2762779559018043
 30
0.0
 40
0.1730110939482651
 50
196.2312180299479962
 51
283.7049903024575883
  0
LINE
  5
2F7B5
  8
0
 10
3459.2335684343552202
 20
163.2048400850449923
 30
0.0
 11
3459.2337759389852181
 21
163.2275260987410093
 31
0.0
  0
ARC
  5
2F7B6
  8
0
 10
3459.2299768726329603
 20
163.2052220363472088
 30
0.0
 40
0.0036118142803375
 50
261.4894507754132178
 51
353.9295900402427151
  0
ARC
  5
2F7B7
  8
0
 10
3457.987630525125951
 20
160.0432678806876083
 30
0.0
 40
3.3937404420817701
 50
68.5362536862964191
 51
69.0287284150380742
  0
ARC
  5
2F7B8
  8
0
 10
3459.3479887305152261
 20
163.351253569130705
 30
0.0
 40
0.1674154665718183
 50
208.7292365225123945
 51
226.5366558328792053
  0
ARC
  5
2F7B9
  8
0
 10
3459.2307334192928465
 20
163.2275316282382107
 30
0.0
 40
0.0030425247165697
 50
359.8958703524253906
 51
46.565156736277757
  0
ARC
  5
2F7BA
  8
0
 10
3458.9065110034562167
 20
164.1848433713722102
 30
0.0
 40
0.9313767988639604
 50
46.9655178888720002
 51
60.2161587691008222
  0
ARC
  5
2F7BB
  8
0
 10
3459.0890954444948875
 20
165.2956813952941957
 30
0.0
 40
0.0220238406618899
 50
258.7712721879382229
 51
97.2749618250780088
  0
ARC
  5
2F7BC
  8
0
 10
3459.0854245287791855
 20
165.2958081036138083
 30
0.0
 40
0.0217377389120819
 50
87.6745777047264454
 51
268.3716563082900279
  0
LINE
  5
2F7BD
  8
0
 10
3459.1513851788949978
 20
165.3310785049320941
 30
0.0
 11
3459.1513518089959689
 21
165.3049332630320976
 31
0.0
  0
ARC
  5
2F7BE
  8
0
 10
3459.090341794206779
 20
165.3076742010119062
 30
0.0
 40
0.0610715534888087
 50
293.6691102983589872
 51
357.4276575766850783
  0
ARC
  5
2F7BF
  8
0
 10
3459.0879629688729437
 20
165.3131012642020039
 30
0.0
 40
0.0669970766585589
 50
207.5684396242066896
 51
293.6691102983589872
  0
ARC
  5
2F7C0
  8
0
 10
3459.0675182021691398
 20
165.3024273338596117
 30
0.0
 40
0.0439336581229258
 50
181.1511992689738122
 51
207.5684396242052117
  0
LINE
  5
2F7C1
  8
0
 10
3459.0235934116949466
 20
165.30154466863209
 30
0.0
 11
3459.0234323684780975
 21
165.3291862544193123
 31
0.0
  0
ARC
  5
2F7C2
  8
0
 10
3459.0901375509070022
 20
165.3304293839200056
 30
0.0
 40
0.0612510676823524
 50
0.6072153843409606
 51
92.9927871613344337
  0
ARC
  5
2F7C3
  8
0
 10
3459.0904469705560587
 20
165.3245110500201065
 30
0.0
 40
0.067177484531506
 50
92.9927871613344337
 51
176.0092851075881129
  0
ARC
  5
2F7C4
  8
0
 10
3458.9735407728530845
 20
164.9103550656768959
 30
0.0
 40
0.0220238406618899
 50
258.7712721879382229
 51
97.2749618250780088
  0
ARC
  5
2F7C5
  8
0
 10
3458.9698698571351088
 20
164.9104817739965938
 30
0.0
 40
0.0217377389120819
 50
87.6745777047264454
 51
268.3716563082900279
  0
LINE
  5
2F7C6
  8
0
 10
3459.0358305072518306
 20
164.9457521753149081
 30
0.0
 11
3459.0357971373518922
 21
164.9196069334149115
 31
0.0
  0
ARC
  5
2F7C7
  8
0
 10
3458.9747871225640665
 20
164.9223478713946918
 30
0.0
 40
0.0610715534888087
 50
293.6691102983589872
 51
357.4276575766850783
  0
ARC
  5
2F7C8
  8
0
 10
3458.9724082972297765
 20
164.9277749345847894
 30
0.0
 40
0.0669970766585589
 50
207.5684396242066896
 51
293.6691102983589872
  0
ARC
  5
2F7C9
  8
0
 10
3458.9519635305259726
 20
164.9171010042423973
 30
0.0
 40
0.0439336581229258
 50
181.1511992689738122
 51
207.5684396242052117
  0
LINE
  5
2F7CA
  8
0
 10
3458.9080387400517793
 20
164.9162183390149039
 30
0.0
 11
3458.9078776968349302
 21
164.9438599248020978
 31
0.0
  0
ARC
  5
2F7CB
  8
0
 10
3458.9745828792638349
 20
164.9451030543027912
 30
0.0
 40
0.0612510676823524
 50
0.6072153843409606
 51
92.9927871613344337
  0
ARC
  5
2F7CC
  8
0
 10
3458.9748922989138009
 20
164.939184720402892
 30
0.0
 40
0.067177484531506
 50
92.9927871613344337
 51
176.0092851075881129
  0
ARC
  5
2F7CD
  8
0
 10
3459.5916556543779734
 20
165.1423961620020862
 30
0.0
 40
0.0220238406618899
 50
258.7712721879382229
 51
97.2749618250780088
  0
ARC
  5
2F7CE
  8
0
 10
3459.5879847386609072
 20
165.1425228703216987
 30
0.0
 40
0.0217377389120819
 50
87.6745777047264454
 51
268.3716563082900279
  0
LINE
  5
2F7CF
  8
0
 10
3459.6539453887780837
 20
165.1777932716400983
 30
0.0
 11
3459.6539120188781453
 21
165.151648029739988
 31
0.0
  0
ARC
  5
2F7D0
  8
0
 10
3459.5929020040889554
 20
165.1543889677197967
 30
0.0
 40
0.0610715534888087
 50
293.6691102983589872
 51
357.4276575766850783
  0
ARC
  5
2F7D1
  8
0
 10
3459.5905231787560297
 20
165.1598160309100081
 30
0.0
 40
0.0669970766585589
 50
207.5684396242066896
 51
293.6691102983589872
  0
ARC
  5
2F7D2
  8
0
 10
3459.5700784120522258
 20
165.1491421005675022
 30
0.0
 40
0.0439336581229258
 50
181.1511992689738122
 51
207.5684396242052117
  0
LINE
  5
2F7D3
  8
0
 10
3459.5261536215780325
 20
165.1482594353400088
 30
0.0
 11
3459.5259925783611834
 21
165.1759010211272027
 31
0.0
  0
ARC
  5
2F7D4
  8
0
 10
3459.5926977607900881
 20
165.1771441506278961
 30
0.0
 40
0.0612510676823524
 50
0.6072153843409606
 51
92.9927871613344337
  0
ARC
  5
2F7D5
  8
0
 10
3459.5930071804400541
 20
165.171225816727997
 30
0.0
 40
0.067177484531506
 50
92.9927871613344337
 51
176.0092851075881129
  0
ARC
  5
2F7D6
  8
0
 10
3459.6905986824549473
 20
164.5682944746370993
 30
0.0
 40
0.0220238406618899
 50
258.7712721879382229
 51
97.2749618250780088
  0
ARC
  5
2F7D7
  8
0
 10
3459.6869277667387905
 20
164.5684211829567971
 30
0.0
 40
0.0217377389120819
 50
87.6745777047264454
 51
268.3716563082900279
  0
LINE
  5
2F7D8
  8
0
 10
3459.7528884168559671
 20
164.6036915842751114
 30
0.0
 11
3459.7528550469560287
 21
164.5775463423750864
 31
0.0
  0
ARC
  5
2F7D9
  8
0
 10
3459.6918450321668388
 20
164.5802872803548951
 30
0.0
 40
0.0610715534888087
 50
293.6691102983589872
 51
357.4276575766850783
  0
ARC
  5
2F7DA
  8
0
 10
3459.6894662068330035
 20
164.5857143435449927
 30
0.0
 40
0.0669970766585589
 50
207.5684396242066896
 51
293.6691102983589872
  0
ARC
  5
2F7DB
  8
0
 10
3459.6690214401291996
 20
164.5750404132024869
 30
0.0
 40
0.0439336581229258
 50
181.1511992689738122
 51
207.5684396242052117
  0
LINE
  5
2F7DC
  8
0
 10
3459.6250966496550063
 20
164.5741577479751072
 30
0.0
 11
3459.6249356064381573
 21
164.6017993337621874
 31
0.0
  0
ARC
  5
2F7DD
  8
0
 10
3459.6916407888670619
 20
164.6030424632629092
 30
0.0
 40
0.0612510676823524
 50
0.6072153843409606
 51
92.9927871613344337
  0
ARC
  5
2F7DE
  8
0
 10
3459.6919502085170279
 20
164.5971241293630101
 30
0.0
 40
0.067177484531506
 50
92.9927871613344337
 51
176.0092851075881129
  0
ARC
  5
2F7DF
  8
0
 10
3459.8388101185892083
 20
164.3423095496067106
 30
0.0
 40
0.0220238406618899
 50
258.7712721879382229
 51
97.2749618250780088
  0
ARC
  5
2F7E0
  8
0
 10
3459.8351392028707778
 20
164.3424362579264084
 30
0.0
 40
0.0217377389120819
 50
87.6745777047264454
 51
268.3716563082900279
  0
LINE
  5
2F7E1
  8
0
 10
3459.9010998529879544
 20
164.3777066592446943
 30
0.0
 11
3459.901066483088016
 21
164.3515614173446977
 31
0.0
  0
ARC
  5
2F7E2
  8
0
 10
3459.8400564682988261
 20
164.3543023553245064
 30
0.0
 40
0.0610715534888087
 50
293.6691102983589872
 51
357.4276575766850783
  0
ARC
  5
2F7E3
  8
0
 10
3459.8376776429659003
 20
164.359729418514604
 30
0.0
 40
0.0669970766585589
 50
207.5684396242066896
 51
293.6691102983589872
  0
ARC
  5
2F7E4
  8
0
 10
3459.8172328762611869
 20
164.3490554881722119
 30
0.0
 40
0.0439336581229258
 50
181.1511992689738122
 51
207.5684396242052117
  0
LINE
  5
2F7E5
  8
0
 10
3459.7733080857879031
 20
164.3481728229446901
 30
0.0
 11
3459.7731470425701445
 21
164.3758144087317987
 31
0.0
  0
ARC
  5
2F7E6
  8
0
 10
3459.8398522249999587
 20
164.3770575382324921
 30
0.0
 40
0.0612510676823524
 50
0.6072153843409606
 51
92.9927871613344337
  0
ARC
  5
2F7E7
  8
0
 10
3459.8401616446490152
 20
164.3711392043327066
 30
0.0
 40
0.067177484531506
 50
92.9927871613344337
 51
176.0092851075881129
  0
ARC
  5
2F7E8
  8
0
 10
3459.8445199648549533
 20
163.6520913579225862
 30
0.0
 40
0.0220238406618899
 50
258.7712721879382229
 51
97.2749618250780088
  0
ARC
  5
2F7E9
  8
0
 10
3459.8408490491378871
 20
163.6522180662423125
 30
0.0
 40
0.0217377389120819
 50
87.6745777047264454
 51
268.3716563082900279
  0
LINE
  5
2F7EA
  8
0
 10
3459.9068096992541541
 20
163.6874884675605983
 30
0.0
 11
3459.9067763293542157
 21
163.6613432256606018
 31
0.0
  0
ARC
  5
2F7EB
  8
0
 10
3459.8457663145659353
 20
163.6640841636404105
 30
0.0
 40
0.0610715534888087
 50
293.6691102983589872
 51
357.4276575766850783
  0
ARC
  5
2F7EC
  8
0
 10
3459.8433874892330095
 20
163.6695112268305934
 30
0.0
 40
0.0669970766585589
 50
207.5684396242066896
 51
293.6691102983589872
  0
ARC
  5
2F7ED
  8
0
 10
3459.8229427225278414
 20
163.6588372964880875
 30
0.0
 40
0.0439336581229258
 50
181.1511992689738122
 51
207.5684396242052117
  0
LINE
  5
2F7EE
  8
0
 10
3459.7790179320541029
 20
163.6579546312605942
 30
0.0
 11
3459.778856888836799
 21
163.6855962170477881
 31
0.0
  0
ARC
  5
2F7EF
  8
0
 10
3459.8455620712670679
 20
163.6868393465485099
 30
0.0
 40
0.0612510676823524
 50
0.6072153843409606
 51
92.9927871613344337
  0
ARC
  5
2F7F0
  8
0
 10
3459.8458714909161245
 20
163.6809210126486107
 30
0.0
 40
0.067177484531506
 50
92.9927871613344337
 51
176.0092851075881129
  0
ARC
  5
2F7F1
  8
0
 10
3459.6901056365759359
 20
163.4271920651563903
 30
0.0
 40
0.0220238406618899
 50
258.7712721879382229
 51
97.2749618250780088
  0
ARC
  5
2F7F2
  8
0
 10
3459.6864347208588697
 20
163.4273187734760029
 30
0.0
 40
0.0217377389120819
 50
87.6745777047264454
 51
268.3716563082900279
  0
LINE
  5
2F7F3
  8
0
 10
3459.7523953709751368
 20
163.4625891747942887
 30
0.0
 11
3459.7523620010761078
 21
163.4364439328944059
 31
0.0
  0
ARC
  5
2F7F4
  8
0
 10
3459.691351986286918
 20
163.4391848708741009
 30
0.0
 40
0.0610715534888087
 50
293.6691102983589872
 51
357.4276575766850783
  0
ARC
  5
2F7F5
  8
0
 10
3459.6889731609530827
 20
163.4446119340641985
 30
0.0
 40
0.0669970766585589
 50
207.5684396242066896
 51
293.6691102983589872
  0
ARC
  5
2F7F6
  8
0
 10
3459.668528394248824
 20
163.4339380037218064
 30
0.0
 40
0.0439336581229258
 50
181.1511992689738122
 51
207.5684396242052117
  0
LINE
  5
2F7F7
  8
0
 10
3459.624603603775995
 20
163.433055338494313
 30
0.0
 11
3459.6244425605577817
 21
163.4606969242815069
 31
0.0
  0
ARC
  5
2F7F8
  8
0
 10
3459.6911477429871411
 20
163.4619400537822003
 30
0.0
 40
0.0612510676823524
 50
0.6072153843409606
 51
92.9927871613344337
  0
ARC
  5
2F7F9
  8
0
 10
3459.6914571626361976
 20
163.4560217198823011
 30
0.0
 40
0.067177484531506
 50
92.9927871613344337
 51
176.0092851075881129
  0
ARC
  5
2F7FA
  8
0
 10
3458.9711146596400795
 20
163.0709099412291039
 30
0.0
 40
0.0220238406618899
 50
258.7712721879382229
 51
97.2749618250780088
  0
ARC
  5
2F7FB
  8
0
 10
3458.9674437439230132
 20
163.0710366495488017
 30
0.0
 40
0.0217377389120819
 50
87.6745777047264454
 51
268.3716563082900279
  0
LINE
  5
2F7FC
  8
0
 10
3459.0334043940388256
 20
163.1063070508670876
 30
0.0
 11
3459.0333710241388872
 21
163.080161808967091
 31
0.0
  0
ARC
  5
2F7FD
  8
0
 10
3458.972361009350152
 20
163.0829027469468997
 30
0.0
 40
0.0610715534888087
 50
293.6691102983589872
 51
357.4276575766850783
  0
ARC
  5
2F7FE
  8
0
 10
3458.9699821840172262
 20
163.0883298101369974
 30
0.0
 40
0.0669970766585589
 50
207.5684396242066896
 51
293.6691102983589872
  0
ARC
  5
2F7FF
  8
0
 10
3458.9495374173129676
 20
163.0776558797946052
 30
0.0
 40
0.0439336581229258
 50
181.1511992689738122
 51
207.5684396242052117
  0
LINE
  5
2F800
  8
0
 10
3458.9056126268387743
 20
163.0767732145671118
 30
0.0
 11
3458.9054515836219252
 21
163.1044148003543057
 31
0.0
  0
ARC
  5
2F801
  8
0
 10
3458.9721567660508299
 20
163.1056579298549138
 30
0.0
 40
0.0612510676823524
 50
0.6072153843409606
 51
92.9927871613344337
  0
ARC
  5
2F802
  8
0
 10
3458.9724661857007959
 20
163.0997395959551
 30
0.0
 40
0.067177484531506
 50
92.9927871613344337
 51
176.0092851075881129
  0
ARC
  5
2F803
  8
0
 10
3459.0875753713121412
 20
162.7396638790457928
 30
0.0
 40
0.0220238406618899
 50
258.7712721879382229
 51
97.2749618250780088
  0
ARC
  5
2F804
  8
0
 10
3459.083904455595075
 20
162.7397905873654906
 30
0.0
 40
0.0217377389120819
 50
87.6745777047264454
 51
268.3716563082900279
  0
LINE
  5
2F805
  8
0
 10
3459.1498651057108873
 20
162.7750609886838049
 30
0.0
 11
3459.1498317358118584
 21
162.7489157467838083
 31
0.0
  0
ARC
  5
2F806
  8
0
 10
3459.0888217210240327
 20
162.7516566847635886
 30
0.0
 40
0.0610715534888087
 50
293.6691102983589872
 51
357.4276575766850783
  0
ARC
  5
2F807
  8
0
 10
3459.0864428956901975
 20
162.7570837479536863
 30
0.0
 40
0.0669970766585589
 50
207.5684396242066896
 51
293.6691102983589872
  0
ARC
  5
2F808
  8
0
 10
3459.0659981289850293
 20
162.7464098176112941
 30
0.0
 40
0.0439336581229258
 50
181.1511992689738122
 51
207.5684396242052117
  0
LINE
  5
2F809
  8
0
 10
3459.0220733385122003
 20
162.7455271523838007
 30
0.0
 11
3459.0219122952948965
 21
162.7731687381709946
 31
0.0
  0
ARC
  5
2F80A
  8
0
 10
3459.0886174777238011
 20
162.774411867671688
 30
0.0
 40
0.0612510676823524
 50
0.6072153843409606
 51
92.9927871613344337
  0
ARC
  5
2F80B
  8
0
 10
3459.0889268973728576
 20
162.7684935337717889
 30
0.0
 40
0.067177484531506
 50
92.9927871613344337
 51
176.0092851075881129
  0
ARC
  5
2F80C
  8
0
 10
3459.5908105628241174
 20
162.9045825854269083
 30
0.0
 40
0.0220238406618899
 50
258.7712721879382229
 51
97.2749618250780088
  0
ARC
  5
2F80D
  8
0
 10
3459.5871396471079606
 20
162.9047092937466061
 30
0.0
 40
0.0217377389120819
 50
87.6745777047264454
 51
268.3716563082900279
  0
LINE
  5
2F80E
  8
0
 10
3459.6531002972237729
 20
162.939979695064892
 30
0.0
 11
3459.6530669273238345
 21
162.9138344531648954
 31
0.0
  0
ARC
  5
2F80F
  8
0
 10
3459.5920569125360089
 20
162.9165753911447041
 30
0.0
 40
0.0610715534888087
 50
293.6691102983589872
 51
357.4276575766850783
  0
ARC
  5
2F810
  8
0
 10
3459.5896780872021736
 20
162.9220024543348018
 30
0.0
 40
0.0669970766585589
 50
207.5684396242066896
 51
293.6691102983589872
  0
ARC
  5
2F811
  8
0
 10
3459.5692333204970055
 20
162.9113285239924096
 30
0.0
 40
0.0439336581229258
 50
181.1511992689738122
 51
207.5684396242052117
  0
LINE
  5
2F812
  8
0
 10
3459.5253085300241764
 20
162.9104458587648878
 30
0.0
 11
3459.5251474868059631
 21
162.9380874445521101
 31
0.0
  0
ARC
  5
2F813
  8
0
 10
3459.5918526692357773
 20
162.9393305740528035
 30
0.0
 40
0.0612510676823524
 50
0.6072153843409606
 51
92.9927871613344337
  0
ARC
  5
2F814
  8
0
 10
3459.5921620888848338
 20
162.9334122401529044
 30
0.0
 40
0.067177484531506
 50
92.9927871613344337
 51
176.0092851075881129
  0
ARC
  5
2F815
  8
0
 10
3459.8706986997840431
 20
162.6756914840383104
 30
0.0
 40
0.0220238406618899
 50
258.7712721879382229
 51
97.2749618250780088
  0
ARC
  5
2F816
  8
0
 10
3459.8670277840669769
 20
162.6758181923580082
 30
0.0
 40
0.0217377389120819
 50
87.6745777047264454
 51
268.3716563082900279
  0
LINE
  5
2F817
  8
0
 10
3459.9329884341841534
 20
162.7110885936762941
 30
0.0
 11
3459.9329550642828508
 21
162.6849433517762975
 31
0.0
  0
ARC
  5
2F818
  8
0
 10
3459.8719450494941157
 20
162.6876842897561062
 30
0.0
 40
0.0610715534888087
 50
293.6691102983589872
 51
357.4276575766850783
  0
ARC
  5
2F819
  8
0
 10
3459.8695662241611899
 20
162.6931113529462039
 30
0.0
 40
0.0669970766585589
 50
207.5684396242066896
 51
293.6691102983589872
  0
ARC
  5
2F81A
  8
0
 10
3459.8491214574578407
 20
162.682437422603698
 30
0.0
 40
0.0439336581229258
 50
181.1511992689738122
 51
207.5684396242052117
  0
LINE
  5
2F81B
  8
0
 10
3459.8051966669841022
 20
162.6815547573762899
 30
0.0
 11
3459.8050356237658889
 21
162.7091963431633985
 31
0.0
  0
ARC
  5
2F81C
  8
0
 10
3459.8717408061947935
 20
162.7104394726640919
 30
0.0
 40
0.0612510676823524
 50
0.6072153843409606
 51
92.9927871613344337
  0
ARC
  5
2F81D
  8
0
 10
3459.8720502258452143
 20
162.7045211387643064
 30
0.0
 40
0.067177484531506
 50
92.9927871613344337
 51
176.0092851075881129
  0
ARC
  5
2F81E
  8
0
 10
3460.0010956898331642
 20
163.2048884553394998
 30
0.0
 40
0.0220238406618899
 50
258.7712721879382229
 51
97.2749618250780088
  0
ARC
  5
2F81F
  8
0
 10
3459.997424774116098
 20
163.2050151636591124
 30
0.0
 40
0.0217377389120819
 50
87.6745777047264454
 51
268.3716563082900279
  0
LINE
  5
2F820
  8
0
 10
3460.0633854242319103
 20
163.240285564977512
 30
0.0
 11
3460.0633520543319719
 21
163.214140323077487
 31
0.0
  0
ARC
  5
2F821
  8
0
 10
3460.002342039542782
 20
163.2168812610572104
 30
0.0
 40
0.0610715534888087
 50
293.6691102983589872
 51
357.4276575766850783
  0
ARC
  5
2F822
  8
0
 10
3459.9999632142098562
 20
163.2223083242473933
 30
0.0
 40
0.0669970766585589
 50
207.5684396242066896
 51
293.6691102983589872
  0
ARC
  5
2F823
  8
0
 10
3459.9795184475060523
 20
163.2116343939050012
 30
0.0
 40
0.0439336581229258
 50
181.1511992689738122
 51
207.5684396242052117
  0
LINE
  5
2F824
  8
0
 10
3459.935593657031859
 20
163.2107517286773941
 30
0.0
 11
3459.93543261381501
 21
163.238393314464588
 31
0.0
  0
ARC
  5
2F825
  8
0
 10
3460.0021377962439146
 20
163.2396364439653098
 30
0.0
 40
0.0612510676823524
 50
0.6072153843409606
 51
92.9927871613344337
  0
ARC
  5
2F826
  8
0
 10
3460.0024472158938806
 20
163.2337181100654107
 30
0.0
 40
0.067177484531506
 50
92.9927871613344337
 51
176.0092851075881129
  0
ARC
  5
2F827
  8
0
 10
3460.2139432323087931
 20
162.919238637927009
 30
0.0
 40
0.0220238406618899
 50
258.7712721879382229
 51
97.2749618250780088
  0
ARC
  5
2F828
  8
0
 10
3460.2102723165908174
 20
162.9193653462467068
 30
0.0
 40
0.0217377389120819
 50
87.6745777047264454
 51
268.3716563082900279
  0
LINE
  5
2F829
  8
0
 10
3460.2762329667079939
 20
162.9546357475649927
 30
0.0
 11
3460.2761995968080555
 21
162.9284905056649961
 31
0.0
  0
ARC
  5
2F82A
  8
0
 10
3460.2151895820188656
 20
162.9312314436448048
 30
0.0
 40
0.0610715534888087
 50
293.6691102983589872
 51
357.4276575766850783
  0
ARC
  5
2F82B
  8
0
 10
3460.2128107566859399
 20
162.9366585068349025
 30
0.0
 40
0.0669970766585589
 50
207.5684396242066896
 51
293.6691102983589872
  0
ARC
  5
2F82C
  8
0
 10
3460.1923659899821359
 20
162.9259845764923966
 30
0.0
 40
0.0439336581229258
 50
181.1511992689738122
 51
207.5684396242052117
  0
LINE
  5
2F82D
  8
0
 10
3460.1484411995079427
 20
162.9251019112649885
 30
0.0
 11
3460.1482801562910936
 21
162.9527434970520972
 31
0.0
  0
ARC
  5
2F82E
  8
0
 10
3460.2149853387199983
 20
162.9539866265527905
 30
0.0
 40
0.0612510676823524
 50
0.6072153843409606
 51
92.9927871613344337
  0
ARC
  5
2F82F
  8
0
 10
3460.2152947583699643
 20
162.9480682926530051
 30
0.0
 40
0.067177484531506
 50
92.9927871613344337
 51
176.0092851075881129
  0
ARC
  5
2F830
  8
0
 10
3460.4897632859187979
 20
163.2098614724104948
 30
0.0
 40
0.0220238406618899
 50
258.7712721879382229
 51
97.2749618250780088
  0
ARC
  5
2F831
  8
0
 10
3460.4860923702021864
 20
163.2099881807301927
 30
0.0
 40
0.0217377389120819
 50
87.6745777047264454
 51
268.3716563082900279
  0
LINE
  5
2F832
  8
0
 10
3460.5520530203189082
 20
163.2452585820485069
 30
0.0
 11
3460.5520196504189698
 21
163.2191133401485104
 31
0.0
  0
ARC
  5
2F833
  8
0
 10
3460.4910096356311442
 20
163.2218542781282906
 30
0.0
 40
0.0610715534888087
 50
293.6691102983589872
 51
357.4276575766850783
  0
ARC
  5
2F834
  8
0
 10
3460.4886308102968542
 20
163.2272813413183883
 30
0.0
 40
0.0669970766585589
 50
207.5684396242066896
 51
293.6691102983589872
  0
ARC
  5
2F835
  8
0
 10
3460.4681860435930503
 20
163.2166074109759961
 30
0.0
 40
0.0439336581229258
 50
181.1511992689738122
 51
207.5684396242052117
  0
LINE
  5
2F836
  8
0
 10
3460.424261253118857
 20
163.2157247457485028
 30
0.0
 11
3460.4241002099020079
 21
163.2433663315356966
 31
0.0
  0
ARC
  5
2F837
  8
0
 10
3460.4908053923309126
 20
163.24460946103639
 30
0.0
 40
0.0612510676823524
 50
0.6072153843409606
 51
92.9927871613344337
  0
ARC
  5
2F838
  8
0
 10
3460.4911148119808786
 20
163.2386911271364909
 30
0.0
 40
0.067177484531506
 50
92.9927871613344337
 51
176.0092851075881129
  0
ARC
  5
2F839
  8
0
 10
3460.6821830824928838
 20
163.5420865649994084
 30
0.0
 40
0.0220238406618899
 50
258.7712721879382229
 51
97.2749618250780088
  0
ARC
  5
2F83A
  8
0
 10
3460.6785121667758176
 20
163.5422132733189926
 30
0.0
 40
0.0217377389120819
 50
87.6745777047264454
 51
268.3716563082900279
  0
LINE
  5
2F83B
  8
0
 10
3460.7444728168929942
 20
163.5774836746373069
 30
0.0
 11
3460.7444394469930558
 21
163.5513384327373103
 31
0.0
  0
ARC
  5
2F83C
  8
0
 10
3460.6834294322038659
 20
163.5540793707170906
 30
0.0
 40
0.0610715534888087
 50
293.6691102983589872
 51
357.4276575766850783
  0
ARC
  5
2F83D
  8
0
 10
3460.6810506068709401
 20
163.5595064339073019
 30
0.0
 40
0.0669970766585589
 50
207.5684396242066896
 51
293.6691102983589872
  0
ARC
  5
2F83E
  8
0
 10
3460.6606058401671362
 20
163.5488325035647961
 30
0.0
 40
0.0439336581229258
 50
181.1511992689738122
 51
207.5684396242052117
  0
LINE
  5
2F83F
  8
0
 10
3460.6166810496929429
 20
163.5479498383373027
 30
0.0
 11
3460.6165200064760938
 21
163.5755914241244966
 31
0.0
  0
ARC
  5
2F840
  8
0
 10
3460.6832251889049985
 20
163.57683455362519
 30
0.0
 40
0.0612510676823524
 50
0.6072153843409606
 51
92.9927871613344337
  0
ARC
  5
2F841
  8
0
 10
3460.6835346085549645
 20
163.5709162197252908
 30
0.0
 40
0.067177484531506
 50
92.9927871613344337
 51
176.0092851075881129
  0
ARC
  5
2F842
  8
0
 10
3460.266403495864779
 20
163.596222917044912
 30
0.0
 40
0.0220238406618899
 50
258.7712721879382229
 51
97.2749618250780088
  0
ARC
  5
2F843
  8
0
 10
3460.2627325801468032
 20
163.5963496253646099
 30
0.0
 40
0.0217377389120819
 50
87.6745777047264454
 51
268.3716563082900279
  0
LINE
  5
2F844
  8
0
 10
3460.3286932302639798
 20
163.6316200266828957
 30
0.0
 11
3460.3286598603640414
 21
163.6054747847828992
 31
0.0
  0
ARC
  5
2F845
  8
0
 10
3460.2676498455748515
 20
163.6082157227627079
 30
0.0
 40
0.0610715534888087
 50
293.6691102983589872
 51
357.4276575766850783
  0
ARC
  5
2F846
  8
0
 10
3460.2652710202419257
 20
163.6136427859528055
 30
0.0
 40
0.0669970766585589
 50
207.5684396242066896
 51
293.6691102983589872
  0
ARC
  5
2F847
  8
0
 10
3460.2448262535381218
 20
163.6029688556104134
 30
0.0
 40
0.0439336581229258
 50
181.1511992689738122
 51
207.5684396242052117
  0
LINE
  5
2F848
  8
0
 10
3460.2009014630639285
 20
163.6020861903828916
 30
0.0
 11
3460.20074041984617
 21
163.6297277761701139
 31
0.0
  0
ARC
  5
2F849
  8
0
 10
3460.2674456022759841
 20
163.6309709056708073
 30
0.0
 40
0.0612510676823524
 50
0.6072153843409606
 51
92.9927871613344337
  0
ARC
  5
2F84A
  8
0
 10
3460.2677550219250406
 20
163.6250525717709081
 30
0.0
 40
0.067177484531506
 50
92.9927871613344337
 51
176.0092851075881129
  0
ARC
  5
2F84B
  8
0
 10
3460.7793549660527788
 20
163.8987367782225988
 30
0.0
 40
0.0220238406618899
 50
258.7712721879382229
 51
97.2749618250780088
  0
ARC
  5
2F84C
  8
0
 10
3460.7756840503361673
 20
163.8988634865422966
 30
0.0
 40
0.0217377389120819
 50
87.6745777047264454
 51
268.3716563082900279
  0
LINE
  5
2F84D
  8
0
 10
3460.8416447004528891
 20
163.9341338878606109
 30
0.0
 11
3460.8416113305529507
 21
163.9079886459605859
 31
0.0
  0
ARC
  5
2F84E
  8
0
 10
3460.7806013157642155
 20
163.9107295839403946
 30
0.0
 40
0.0610715534888087
 50
293.6691102983589872
 51
357.4276575766850783
  0
ARC
  5
2F84F
  8
0
 10
3460.778222490430835
 20
163.9161566471304923
 30
0.0
 40
0.0669970766585589
 50
207.5684396242066896
 51
293.6691102983589872
  0
ARC
  5
2F850
  8
0
 10
3460.7577777237270311
 20
163.9054827167881001
 30
0.0
 40
0.0439336581229258
 50
181.1511992689738122
 51
207.5684396242052117
  0
LINE
  5
2F851
  8
0
 10
3460.7138529332528378
 20
163.9046000515606067
 30
0.0
 11
3460.7136918900359888
 21
163.9322416373478006
 31
0.0
  0
ARC
  5
2F852
  8
0
 10
3460.7803970724648934
 20
163.9334847668484088
 30
0.0
 40
0.0612510676823524
 50
0.6072153843409606
 51
92.9927871613344337
  0
ARC
  5
2F853
  8
0
 10
3460.7807064921148594
 20
163.9275664329485949
 30
0.0
 40
0.067177484531506
 50
92.9927871613344337
 51
176.0092851075881129
  0
ARC
  5
2F854
  8
0
 10
3460.3613830536478417
 20
164.0338277278827945
 30
0.0
 40
0.0220238406618899
 50
258.7712721879382229
 51
97.2749618250780088
  0
ARC
  5
2F855
  8
0
 10
3460.3577121379307755
 20
164.0339544362024071
 30
0.0
 40
0.0217377389120819
 50
87.6745777047264454
 51
268.3716563082900279
  0
LINE
  5
2F856
  8
0
 10
3460.4236727880479521
 20
164.069224837520693
 30
0.0
 11
3460.4236394181489231
 21
164.0430795956206964
 31
0.0
  0
ARC
  5
2F857
  8
0
 10
3460.362629403360188
 20
164.0458205336005051
 30
0.0
 40
0.0610715534888087
 50
293.6691102983589872
 51
357.4276575766850783
  0
ARC
  5
2F858
  8
0
 10
3460.360250578025898
 20
164.0512475967906028
 30
0.0
 40
0.0669970766585589
 50
207.5684396242066896
 51
293.6691102983589872
  0
ARC
  5
2F859
  8
0
 10
3460.3398058113211846
 20
164.0405736664482106
 30
0.0
 40
0.0439336581229258
 50
181.1511992689738122
 51
207.5684396242052117
  0
LINE
  5
2F85A
  8
0
 10
3460.2958810208479008
 20
164.0396910012206888
 30
0.0
 11
3460.2957199776310517
 21
164.0673325870079111
 31
0.0
  0
ARC
  5
2F85B
  8
0
 10
3460.3624251600599564
 20
164.0685757165086045
 30
0.0
 40
0.0612510676823524
 50
0.6072153843409606
 51
92.9927871613344337
  0
ARC
  5
2F85C
  8
0
 10
3460.3627345797090129
 20
164.0626573826087053
 30
0.0
 40
0.067177484531506
 50
92.9927871613344337
 51
176.0092851075881129
  0
ARC
  5
2F85D
  8
0
 10
3460.2673941360180834
 20
164.4734777212582912
 30
0.0
 40
0.0220238406618899
 50
258.7712721879382229
 51
97.2749618250780088
  0
ARC
  5
2F85E
  8
0
 10
3460.2637232203010171
 20
164.4736044295779891
 30
0.0
 40
0.0217377389120819
 50
87.6745777047264454
 51
268.3716563082900279
  0
LINE
  5
2F85F
  8
0
 10
3460.3296838704181937
 20
164.5088748308963034
 30
0.0
 11
3460.3296505005178005
 21
164.4827295889963068
 31
0.0
  0
ARC
  5
2F860
  8
0
 10
3460.2686404857290654
 20
164.4854705269760871
 30
0.0
 40
0.0610715534888087
 50
293.6691102983589872
 51
357.4276575766850783
  0
ARC
  5
2F861
  8
0
 10
3460.2662616603947754
 20
164.4908975901662131
 30
0.0
 40
0.0669970766585589
 50
207.5684396242066896
 51
293.6691102983589872
  0
ARC
  5
2F862
  8
0
 10
3460.2458168936909715
 20
164.4802236598237926
 30
0.0
 40
0.0439336581229258
 50
181.1511992689738122
 51
207.5684396242052117
  0
LINE
  5
2F863
  8
0
 10
3460.2018921032181424
 20
164.4793409945962992
 30
0.0
 11
3460.2017310599999291
 21
164.5069825803834931
 31
0.0
  0
ARC
  5
2F864
  8
0
 10
3460.2684362424288338
 20
164.5082257098841865
 30
0.0
 40
0.0612510676823524
 50
0.6072153843409606
 51
92.9927871613344337
  0
ARC
  5
2F865
  8
0
 10
3460.2687456620787998
 20
164.5023073759842873
 30
0.0
 40
0.067177484531506
 50
92.9927871613344337
 51
176.0092851075881129
  0
ARC
  5
2F866
  8
0
 10
3459.9987523573850012
 20
164.854080419747703
 30
0.0
 40
0.0220238406618899
 50
258.7712721879382229
 51
97.2749618250780088
  0
ARC
  5
2F867
  8
0
 10
3459.995081441667935
 20
164.8542071280674008
 30
0.0
 40
0.0217377389120819
 50
87.6745777047264454
 51
268.3716563082900279
  0
LINE
  5
2F868
  8
0
 10
3460.0610420917851116
 20
164.8894775293856867
 30
0.0
 11
3460.0610087218851731
 21
164.8633322874856901
 31
0.0
  0
ARC
  5
2F869
  8
0
 10
3459.9999987070959833
 20
164.8660732254654988
 30
0.0
 40
0.0610715534888087
 50
293.6691102983589872
 51
357.4276575766850783
  0
ARC
  5
2F86A
  8
0
 10
3459.9976198817630575
 20
164.8715002886555965
 30
0.0
 40
0.0669970766585589
 50
207.5684396242066896
 51
293.6691102983589872
  0
ARC
  5
2F86B
  8
0
 10
3459.9771751150587988
 20
164.8608263583132043
 30
0.0
 40
0.0439336581229258
 50
181.1511992689738122
 51
207.5684396242052117
  0
LINE
  5
2F86C
  8
0
 10
3459.9332503245850603
 20
164.8599436930857109
 30
0.0
 11
3459.933089281366847
 21
164.8875852788729048
 31
0.0
  0
ARC
  5
2F86D
  8
0
 10
3459.9997944637971159
 20
164.8888284083735982
 30
0.0
 40
0.0612510676823524
 50
0.6072153843409606
 51
92.9927871613344337
  0
ARC
  5
2F86E
  8
0
 10
3460.0001038834470819
 20
164.8829100744736991
 30
0.0
 40
0.067177484531506
 50
92.9927871613344337
 51
176.0092851075881129
  0
ARC
  5
2F86F
  8
0
 10
3459.869343278453016
 20
165.4586801566198062
 30
0.0
 40
0.0220238406618899
 50
258.7712721879382229
 51
97.2749618250780088
  0
ARC
  5
2F870
  8
0
 10
3459.8656723627368592
 20
165.4588068649395041
 30
0.0
 40
0.0217377389120819
 50
87.6745777047264454
 51
268.3716563082900279
  0
LINE
  5
2F871
  8
0
 10
3459.9316330128531263
 20
165.4940772662577899
 30
0.0
 11
3459.9315996429531879
 21
165.4679320243577934
 31
0.0
  0
ARC
  5
2F872
  8
0
 10
3459.870589628163998
 20
165.4706729623374883
 30
0.0
 40
0.0610715534888087
 50
293.6691102983589872
 51
357.4276575766850783
  0
ARC
  5
2F873
  8
0
 10
3459.8682108028310722
 20
165.4761000255276997
 30
0.0
 40
0.0669970766585589
 50
207.5684396242066896
 51
293.6691102983589872
  0
ARC
  5
2F874
  8
0
 10
3459.8477660361259041
 20
165.4654260951853075
 30
0.0
 40
0.0439336581229258
 50
181.1511992689738122
 51
207.5684396242052117
  0
LINE
  5
2F875
  8
0
 10
3459.803841245653075
 20
165.4645434299578142
 30
0.0
 11
3459.803680202436226
 21
165.4921850157448944
 31
0.0
  0
ARC
  5
2F876
  8
0
 10
3459.8703853848651306
 20
165.4934281452455878
 30
0.0
 40
0.0612510676823524
 50
0.6072153843409606
 51
92.9927871613344337
  0
ARC
  5
2F877
  8
0
 10
3459.8706948045141871
 20
165.4875098113456886
 30
0.0
 40
0.067177484531506
 50
92.9927871613344337
 51
176.0092851075881129
  0
ARC
  5
2F878
  8
0
 10
3459.4704300454382064
 20
165.6184423457926016
 30
0.0
 40
0.0220238406618899
 50
258.7712721879382229
 51
97.2749618250780088
  0
ARC
  5
2F879
  8
0
 10
3459.4667591297211402
 20
165.6185690541122995
 30
0.0
 40
0.0217377389120819
 50
87.6745777047264454
 51
268.3716563082900279
  0
LINE
  5
2F87A
  8
0
 10
3459.532719779837862
 20
165.6538394554306137
 30
0.0
 11
3459.5326864099379236
 21
165.6276942135305887
 31
0.0
  0
ARC
  5
2F87B
  8
0
 10
3459.471676395150098
 20
165.6304351515103974
 30
0.0
 40
0.0610715534888087
 50
293.6691102983589872
 51
357.4276575766850783
  0
ARC
  5
2F87C
  8
0
 10
3459.4692975698158079
 20
165.6358622147004951
 30
0.0
 40
0.0669970766585589
 50
207.5684396242066896
 51
293.6691102983589872
  0
ARC
  5
2F87D
  8
0
 10
3459.448852803112004
 20
165.6251882843581029
 30
0.0
 40
0.0439336581229258
 50
181.1511992689738122
 51
207.5684396242052117
  0
LINE
  5
2F87E
  8
0
 10
3459.4049280126378108
 20
165.6243056191306096
 30
0.0
 11
3459.4047669694209617
 21
165.6519472049178034
 31
0.0
  0
ARC
  5
2F87F
  8
0
 10
3459.4714721518498663
 20
165.6531903344184968
 30
0.0
 40
0.0612510676823524
 50
0.6072153843409606
 51
92.9927871613344337
  0
ARC
  5
2F880
  8
0
 10
3459.4717815714998324
 20
165.6472720005185977
 30
0.0
 40
0.067177484531506
 50
92.9927871613344337
 51
176.0092851075881129
  0
ARC
  5
2F881
  8
0
 10
3460.2135593478778901
 20
165.2312075058464984
 30
0.0
 40
0.0220238406618899
 50
258.7712721879382229
 51
97.2749618250780088
  0
ARC
  5
2F882
  8
0
 10
3460.2098884321608239
 20
165.2313342141661963
 30
0.0
 40
0.0217377389120819
 50
87.6745777047264454
 51
268.3716563082900279
  0
LINE
  5
2F883
  8
0
 10
3460.2758490822780004
 20
165.2666046154845105
 30
0.0
 11
3460.275815712378062
 21
165.240459373584514
 31
0.0
  0
ARC
  5
2F884
  8
0
 10
3460.2148056975888721
 20
165.2432003115642942
 30
0.0
 40
0.0610715534888087
 50
293.6691102983589872
 51
357.4276575766850783
  0
ARC
  5
2F885
  8
0
 10
3460.2124268722559464
 20
165.2486273747543919
 30
0.0
 40
0.0669970766585589
 50
207.5684396242066896
 51
293.6691102983589872
  0
ARC
  5
2F886
  8
0
 10
3460.1919821055507782
 20
165.2379534444119997
 30
0.0
 40
0.0439336581229258
 50
181.1511992689738122
 51
207.5684396242052117
  0
LINE
  5
2F887
  8
0
 10
3460.1480573150770397
 20
165.2370707791845064
 30
0.0
 11
3460.1478962718601906
 21
165.2647123649715866
 31
0.0
  0
ARC
  5
2F888
  8
0
 10
3460.2146014542900048
 20
165.2659554944723084
 30
0.0
 40
0.0612510676823524
 50
0.6072153843409606
 51
92.9927871613344337
  0
ARC
  5
2F889
  8
0
 10
3460.2149108739390613
 20
165.2600371605724945
 30
0.0
 40
0.067177484531506
 50
92.9927871613344337
 51
176.0092851075881129
  0
ARC
  5
2F88A
  8
0
 10
3460.490468286946907
 20
164.9457351989524057
 30
0.0
 40
0.0220238406618899
 50
258.7712721879382229
 51
97.2749618250780088
  0
ARC
  5
2F88B
  8
0
 10
3460.4867973712298408
 20
164.9458619072719898
 30
0.0
 40
0.0217377389120819
 50
87.6745777047264454
 51
268.3716563082900279
  0
LINE
  5
2F88C
  8
0
 10
3460.5527580213461079
 20
164.9811323085903894
 30
0.0
 11
3460.5527246514461694
 21
164.9549870666903928
 31
0.0
  0
ARC
  5
2F88D
  8
0
 10
3460.4917146366578891
 20
164.9577280046700878
 30
0.0
 40
0.0610715534888087
 50
293.6691102983589872
 51
357.4276575766850783
  0
ARC
  5
2F88E
  8
0
 10
3460.4893358113240538
 20
164.9631550678602991
 30
0.0
 40
0.0669970766585589
 50
207.5684396242066896
 51
293.6691102983589872
  0
ARC
  5
2F88F
  8
0
 10
3460.4688910446197951
 20
164.952481137517907
 30
0.0
 40
0.0439336581229258
 50
181.1511992689738122
 51
207.5684396242052117
  0
LINE
  5
2F890
  8
0
 10
3460.4249662541469661
 20
164.9515984722904136
 30
0.0
 11
3460.4248052109292075
 21
164.9792400580774938
 31
0.0
  0
ARC
  5
2F891
  8
0
 10
3460.4915103933590217
 20
164.9804831875781872
 30
0.0
 40
0.0612510676823524
 50
0.6072153843409606
 51
92.9927871613344337
  0
ARC
  5
2F892
  8
0
 10
3460.4918198130080782
 20
164.9745648536784017
 30
0.0
 40
0.067177484531506
 50
92.9927871613344337
 51
176.0092851075881129
  0
ARC
  5
2F893
  8
0
 10
3460.6824286957548793
 20
164.6186132615140991
 30
0.0
 40
0.0220238406618899
 50
258.7712721879382229
 51
97.2749618250780088
  0
ARC
  5
2F894
  8
0
 10
3460.6787577800369036
 20
164.618739969833797
 30
0.0
 40
0.0217377389120819
 50
87.6745777047264454
 51
268.3716563082900279
  0
LINE
  5
2F895
  8
0
 10
3460.7447184301540801
 20
164.6540103711521112
 30
0.0
 11
3460.7446850602541417
 21
164.6278651292520863
 31
0.0
  0
ARC
  5
2F896
  8
0
 10
3460.6836750454658613
 20
164.6306060672318949
 30
0.0
 40
0.0610715534888087
 50
293.6691102983589872
 51
357.4276575766850783
  0
ARC
  5
2F897
  8
0
 10
3460.6812962201320261
 20
164.6360331304219926
 30
0.0
 40
0.0669970766585589
 50
207.5684396242066896
 51
293.6691102983589872
  0
ARC
  5
2F898
  8
0
 10
3460.6608514534282222
 20
164.6253592000796004
 30
0.0
 40
0.0439336581229258
 50
181.1511992689738122
 51
207.5684396242052117
  0
LINE
  5
2F899
  8
0
 10
3460.6169266629540289
 20
164.6244765348521071
 30
0.0
 11
3460.6167656197371798
 21
164.6521181206391873
 31
0.0
  0
ARC
  5
2F89A
  8
0
 10
3460.6834708021660845
 20
164.6533612501399091
 30
0.0
 40
0.0612510676823524
 50
0.6072153843409606
 51
92.9927871613344337
  0
ARC
  5
2F89B
  8
0
 10
3460.6837802218160505
 20
164.6474429162400952
 30
0.0
 40
0.067177484531506
 50
92.9927871613344337
 51
176.0092851075881129
  0
ARC
  5
2F89C
  8
0
 10
3460.7804693225170922
 20
164.2638454221016957
 30
0.0
 40
0.0220238406618899
 50
258.7712721879382229
 51
97.2749618250780088
  0
ARC
  5
2F89D
  8
0
 10
3460.7767984067991165
 20
164.2639721304213936
 30
0.0
 40
0.0217377389120819
 50
87.6745777047264454
 51
268.3716563082900279
  0
LINE
  5
2F89E
  8
0
 10
3460.8427590569158383
 20
164.2992425317397078
 30
0.0
 11
3460.8427256870158999
 21
164.2730972898397113
 31
0.0
  0
ARC
  5
2F89F
  8
0
 10
3460.7817156722271648
 20
164.2758382278194915
 30
0.0
 40
0.0610715534888087
 50
293.6691102983589872
 51
357.4276575766850783
  0
ARC
  5
2F8A0
  8
0
 10
3460.7793368468937842
 20
164.2812652910095892
 30
0.0
 40
0.0669970766585589
 50
207.5684396242066896
 51
293.6691102983589872
  0
ARC
  5
2F8A1
  8
0
 10
3460.7588920801890708
 20
164.270591360667197
 30
0.0
 40
0.0439336581229258
 50
181.1511992689738122
 51
207.5684396242052117
  0
LINE
  5
2F8A2
  8
0
 10
3460.714967289715787
 20
164.2697086954397037
 30
0.0
 11
3460.714806246498938
 21
164.2973502812268976
 31
0.0
  0
ARC
  5
2F8A3
  8
0
 10
3460.7815114289278426
 20
164.2985934107275909
 30
0.0
 40
0.0612510676823524
 50
0.6072153843409606
 51
92.9927871613344337
  0
ARC
  5
2F8A4
  8
0
 10
3460.7818208485768992
 20
164.2926750768276918
 30
0.0
 40
0.067177484531506
 50
92.9927871613344337
 51
176.0092851075881129
  0
ARC
  5
2F8A5
  8
0
 10
3456.8105744001468338
 20
166.5577742729686008
 30
0.0
 40
1.2401574802999991
 50
119.4762993809288929
 51
246.6201318815774073
  0
ARC
  5
2F8A6
  8
0
 10
3456.8105744001468338
 20
166.5577742729686008
 30
0.0
 40
1.2401574802999991
 50
355.571903969871812
 51
60.523700613749142
  0
ARC
  5
2F8A7
  8
0
 10
3456.8105744001468338
 20
166.5577742729686008
 30
0.0
 40
1.2401574802999991
 50
70.811863545509965
 51
71.4905950183034093
  0
ARC
  5
2F8A8
  8
0
 10
3456.8105744001468338
 20
166.5577742729686008
 30
0.0
 40
1.2401574802999991
 50
108.5094049816960933
 51
109.1881364544900066
  0
LINE
  5
2F8A9
  8
0
 10
3452.2556261241970788
 20
136.3509919140018951
 30
0.0
 11
3452.2556261241970788
 21
134.3826363379841951
 31
0.0
  0
LINE
  5
2F8AA
  8
0
 10
3452.2556261241970788
 20
134.3826363379841951
 30
0.0
 11
3452.5113618016971486
 21
134.3826606147515008
 31
0.0
  0
LINE
  5
2F8AB
  8
0
 10
3452.5389208567980859
 20
134.3826632309088041
 30
0.0
 11
3456.2593980674978411
 21
134.3830164126019042
 31
0.0
  0
LINE
  5
2F8AC
  8
0
 10
3457.3617506995969961
 20
134.3830918494018931
 30
0.0
 11
3461.0625429040969721
 21
134.3826576679456934
 31
0.0
  0
LINE
  5
2F8AD
  8
0
 10
3461.1097869964969505
 20
134.3826521252111093
 30
0.0
 11
3461.3655226760979531
 21
134.3826221219891863
 31
0.0
  0
ARC
  5
2F8AE
  8
0
 10
3453.857818494213916
 20
135.3669482955442049
 30
0.0
 40
1.191006219259457
 50
235.7516157778129013
 51
304.2489985196725115
  0
ARC
  5
2F8AF
  8
0
 10
3453.8578184946118199
 20
135.3669479571846921
 30
0.0
 40
1.1908838829171911
 50
55.6684961868910975
 51
124.3315038131088954
  0
LINE
  5
2F8B0
  8
0
 10
3456.525148155495117
 20
132.4295512846018994
 30
0.0
 11
3456.5251501921170529
 21
131.8629499503018963
 31
0.0
  0
LINE
  5
2F8B1
  8
0
 10
3457.0960142971948699
 20
132.4295512846018994
 30
0.0
 11
3457.0960074709969376
 21
131.8629499503018963
 31
0.0
  0
ARC
  5
2F8B2
  8
0
 10
3457.1326384392650652
 20
132.8377829216481985
 30
0.0
 40
1.774907121076724
 50
114.3946653443874055
 51
119.4716041670796045
  0
ARC
  5
2F8B3
  8
0
 10
3456.9023814246611437
 20
133.3560623480786944
 30
0.0
 40
1.20780578203452
 50
105.1871794960194961
 51
114.6014677463649036
  0
ARC
  5
2F8B4
  8
0
 10
3456.8137813382932109
 20
133.6715427147802018
 30
0.0
 40
0.8801373133407215
 50
90.3654293516788982
 51
105.0011058638978056
  0
ARC
  5
2F8B5
  8
0
 10
3456.8092459320778289
 20
133.6925582163819115
 30
0.0
 40
0.8591045869686608
 50
79.1283161517819451
 51
90.0718960297460143
  0
ARC
  5
2F8B6
  8
0
 10
3456.764199088956957
 20
133.4899680576633898
 30
0.0
 40
1.0665719908475699
 50
67.3127344157770864
 51
78.804504243176666
  0
ARC
  5
2F8B7
  8
0
 10
3456.5117165415931595
 20
132.8785937815852094
 30
0.0
 40
1.728025609138041
 50
60.5337610251442584
 51
67.4076042529258359
  0
LINE
  5
2F8B8
  8
0
 10
3456.4357623485948352
 20
132.4295512846018994
 30
0.0
 11
3457.1854001040960611
 21
132.4295512846018994
 31
0.0
  0
ARC
  5
2F8B9
  8
0
 10
3457.1854001040960611
 20
132.4492363240019017
 30
0.0
 40
0.0196850394000023
 50
270.0
 51
357.6140557158673801
  0
LINE
  5
2F8BA
  8
0
 10
3457.2050683745210335
 20
132.4487446213803139
 30
0.0
 11
3457.2629956922987731
 21
133.8390001000227016
 31
0.0
  0
ARC
  5
2F8BB
  8
0
 10
3457.2551285025469952
 20
133.8393278996306037
 30
0.0
 40
0.0078740159497551
 50
357.6140557158689717
 51
90.000043890760594
  0
LINE
  5
2F8BC
  8
0
 10
3457.2551284965152263
 20
133.8472019155803139
 30
0.0
 11
3456.3660345492148736
 21
133.8472012345002042
 31
0.0
  0
ARC
  5
2F8BD
  8
0
 10
3456.3660345552470972
 20
133.8393272127381124
 30
0.0
 40
0.007874021762048
 50
90.000043890760594
 51
179.9949999695595864
  0
LINE
  5
2F8BE
  8
0
 10
3456.3581605335148197
 20
133.8393278998804021
 30
0.0
 11
3456.4160946713150224
 21
132.4487446213803139
 31
0.0
  0
ARC
  5
2F8BF
  8
0
 10
3456.4357623485948352
 20
132.4492363240019017
 30
0.0
 40
0.0196850393999998
 50
182.3859442841115026
 51
270.0000002910614967
  0
LINE
  5
2F8C0
  8
0
 10
3456.2593980674978411
 20
134.3830164126019042
 30
0.0
 11
3456.2593932977979421
 21
134.2448153772018884
 31
0.0
  0
LINE
  5
2F8C1
  8
0
 10
3457.1708174467948993
 20
133.8786830212019083
 30
0.0
 11
3457.1708174467948993
 21
133.8783701822019054
 31
0.0
  0
ARC
  5
2F8C2
  8
0
 10
3456.8105527910652199
 20
134.3467735432637937
 30
0.0
 40
1.325625412314519
 50
89.999065121348707
 51
92.7024915148720652
  0
ARC
  5
2F8C3
  8
0
 10
3456.8016908183581108
 20
134.5345177163902122
 30
0.0
 40
1.1376722024372541
 50
92.7024915148720652
 51
97.8383706567822173
  0
ARC
  5
2F8C4
  8
0
 10
3456.7343073869669752
 20
135.0239906570926962
 30
0.0
 40
0.6435828517061103
 50
97.8383706567822173
 51
103.6807000147057067
  0
ARC
  5
2F8C5
  8
0
 10
3456.6649215339812145
 20
135.3090401208314972
 30
0.0
 40
0.3502100626264428
 50
103.6807000147057067
 51
111.3107005673069949
  0
ARC
  5
2F8C6
  8
0
 10
3456.5852706892578681
 20
135.5132212918904031
 30
0.0
 40
0.1310429855366077
 50
111.3107005673069949
 51
124.7730950094634039
  0
ARC
  5
2F8C7
  8
0
 10
3456.5352929330688312
 20
135.5852019606222996
 30
0.0
 40
0.04341312313396
 50
124.7730950094634039
 51
149.3228936829065958
  0
ARC
  5
2F8C8
  8
0
 10
3456.5131550608789439
 20
135.5983345059331953
 30
0.0
 40
0.0176730933851642
 50
149.3228936829052884
 51
210.7954160675631101
  0
ARC
  5
2F8C9
  8
0
 10
3457.1744071541897938
 20
154.8260605991812895
 30
0.0
 40
19.3054378791862185
 50
268.8131669463655271
 51
268.9201536160279034
  0
ARC
  5
2F8CA
  8
0
 10
3456.8084100215928629
 20
136.7805473884729111
 30
0.0
 40
1.256239740500112
 50
264.9845127119518224
 51
268.455042127030481
  0
ARC
  5
2F8CB
  8
0
 10
3456.7745581848148504
 20
136.3899535335187068
 30
0.0
 40
0.864184434355835
 50
256.789421614139485
 51
265.0667905094969115
  0
ARC
  5
2F8CC
  8
0
 10
3456.6318736045259357
 20
135.7821195297246106
 30
0.0
 40
0.2398279131114953
 50
241.0488929320655984
 51
256.789421614139485
  0
ARC
  5
2F8CD
  8
0
 10
3456.5391862192950612
 20
135.6145700286976989
 30
0.0
 40
0.0483500118400317
 50
211.5290210078163113
 51
241.0488929320655984
  0
ARC
  5
2F8CE
  8
0
 10
3456.5505010315428081
 20
135.6603800529728119
 30
0.0
 40
0.066805352764098
 50
224.217907204681012
 51
231.8161607878247992
  0
ARC
  5
2F8CF
  8
0
 10
3456.5656822643081796
 20
135.6796831594946866
 30
0.0
 40
0.0913630348548323
 50
231.8161607878247992
 51
245.0108887355034142
  0
ARC
  5
2F8D0
  8
0
 10
3456.8130245110351098
 20
136.1201949836577114
 30
0.0
 40
0.5963445040201196
 50
241.3482332718629948
 51
248.6073966432464886
  0
ARC
  5
2F8D1
  8
0
 10
3456.8130811330997858
 20
136.1265503700371085
 30
0.0
 40
0.602286936711522
 50
248.8229100658313087
 51
256.4112409429056925
  0
ARC
  5
2F8D2
  8
0
 10
3456.7533649811839496
 20
135.8324279182602936
 30
0.0
 40
0.3025696338377783
 50
254.3164161108539929
 51
262.0917291540637279
  0
ARC
  5
2F8D3
  8
0
 10
3456.8013285842512232
 20
136.0515325467895877
 30
0.0
 40
0.5264760235573755
 50
260.2019668523669225
 51
266.903884881529109
  0
ARC
  5
2F8D4
  8
0
 10
3456.5444880843961073
 20
130.9446634521262922
 30
0.0
 40
4.58685185778904
 50
86.7593776267473658
 51
87.1457430561771247
  0
ARC
  5
2F8D5
  8
0
 10
3456.833809619900876
 20
136.3780163629620006
 30
0.0
 40
0.8479776749870348
 50
263.2056002402993045
 51
268.4303379012790742
  0
ARC
  5
2F8D6
  8
0
 10
3456.8103557179138079
 20
136.1345170171958898
 30
0.0
 40
0.6034388815881144
 50
254.9479373903770067
 51
262.6816211114121984
  0
ARC
  5
2F8D7
  8
0
 10
3456.8093726691499796
 20
136.1308615189815896
 30
0.0
 40
0.5996535081499658
 50
247.2973823891416885
 51
254.9479373903770067
  0
ARC
  5
2F8D8
  8
0
 10
3456.8079599309289733
 20
136.1274846929013052
 30
0.0
 40
0.5959930732501777
 50
244.8089832038145914
 51
247.2973823891416885
  0
LINE
  5
2F8D9
  8
0
 10
3456.5542829758919652
 20
135.5881742573959059
 30
0.0
 11
3456.5537775603052069
 21
135.589337511979096
 31
0.0
  0
LINE
  5
2F8DA
  8
0
 10
3456.5542829758919652
 20
135.5881742573959059
 30
0.0
 11
3456.5707746750181286
 21
135.5980406093019042
 31
0.0
  0
LINE
  5
2F8DB
  8
0
 10
3456.5707746750181286
 20
135.5980406093019042
 30
0.0
 11
3456.5707746750181286
 21
135.5863035879019094
 31
0.0
  0
LINE
  5
2F8DC
  8
0
 10
3456.5707746750181286
 20
135.5863035879019094
 30
0.0
 11
3456.6049525308180819
 21
135.5863035879019094
 31
0.0
  0
LINE
  5
2F8DD
  8
0
 10
3456.6049525308180819
 20
135.5863035879019094
 30
0.0
 11
3456.6049525308180819
 21
135.5911966970739968
 31
0.0
  0
LINE
  5
2F8DE
  8
0
 10
3456.5537775603570481
 20
135.5893375119568134
 30
0.0
 11
3456.5501822335868383
 21
135.5910456992199897
 31
0.0
  0
LINE
  5
2F8DF
  8
0
 10
3456.5501822335868383
 20
135.5910456992199897
 30
0.0
 11
3456.5403397139248227
 21
135.5987324794768085
 31
0.0
  0
LINE
  5
2F8E0
  8
0
 10
3456.5403397139248227
 20
135.5987324794768085
 30
0.0
 11
3456.5501804549180633
 21
135.5973199772018916
 31
0.0
  0
LINE
  5
2F8E1
  8
0
 10
3456.5501804549180633
 20
135.5973199772018916
 30
0.0
 11
3456.5521999515631251
 21
135.5963601121960096
 31
0.0
  0
LINE
  5
2F8E2
  8
0
 10
3456.5521999515631251
 20
135.5963601121960096
 30
0.0
 11
3456.5680747957171661
 21
135.6059693797018895
 31
0.0
  0
LINE
  5
2F8E3
  8
0
 10
3456.5521999541169862
 20
135.596360079601908
 30
0.0
 11
3456.5520101920178604
 21
135.5987811793019091
 31
0.0
  0
LINE
  5
2F8E4
  8
0
 10
3456.5520101920178604
 20
135.5987811793019091
 30
0.0
 11
3456.5521999827237778
 21
135.6014349841734088
 31
0.0
  0
LINE
  5
2F8E5
  8
0
 10
3456.5521999827237778
 20
135.6014349841734088
 30
0.0
 11
3456.5631479072808361
 21
135.6081623862133938
 31
0.0
  0
LINE
  5
2F8E6
  8
0
 10
3456.5521999545180734
 20
135.6014349665018983
 30
0.0
 11
3456.5501811254180211
 21
135.6023950120959967
 31
0.0
  0
LINE
  5
2F8E7
  8
0
 10
3456.5501811254180211
 20
135.6023950120959967
 30
0.0
 11
3456.540339713828871
 21
135.6118246513929932
 31
0.0
  0
LINE
  5
2F8E8
  8
0
 10
3456.540339713828871
 20
135.6118246513929932
 30
0.0
 11
3456.5501812242177948
 21
135.6121551563018954
 31
0.0
  0
LINE
  5
2F8E9
  8
0
 10
3456.5501812242177948
 20
135.6121551563018954
 30
0.0
 11
3456.5536377005678332
 21
135.610512893951892
 31
0.0
  0
LINE
  5
2F8EA
  8
0
 10
3456.5536377005678332
 20
135.610512893951892
 30
0.0
 11
3456.5542838094870604
 21
135.6122434505087995
 31
0.0
  0
ARC
  5
2F8EB
  8
0
 10
3456.808304550586854
 20
136.1523111568087074
 30
0.0
 40
0.5968246512143286
 50
244.8100615749563929
 51
245.7468930816374098
  0
ARC
  5
2F8EC
  8
0
 10
3456.8082430250628931
 20
136.1521719657716858
 30
0.0
 40
0.596672472476718
 50
245.746789374289591
 51
247.9285878473436924
  0
ARC
  5
2F8ED
  8
0
 10
3456.8096233991550434
 20
136.1556616034810929
 30
0.0
 40
0.6004250692697949
 50
247.9316469837696957
 51
256.2098947786843155
  0
ARC
  5
2F8EE
  8
0
 10
3456.8293271050179101
 20
136.3312683952077009
 30
0.0
 40
0.777068001960955
 50
262.1254090604226121
 51
268.6176924822632941
  0
ARC
  5
2F8EF
  8
0
 10
3456.8104470103121457
 20
136.1593459398492882
 30
0.0
 40
0.6041995320994265
 50
256.2173245193998241
 51
261.6652717163983084
  0
LINE
  5
2F8F0
  8
0
 10
3456.5518913511641586
 20
135.5989282903541948
 30
0.0
 11
3456.5420334985128648
 21
135.6079941978742056
 31
0.0
  0
LINE
  5
2F8F1
  8
0
 10
3456.5420334985128648
 20
135.6079941978742056
 30
0.0
 11
3456.5223433840428697
 21
135.6182315623298109
 31
0.0
  0
LINE
  5
2F8F2
  8
0
 10
3456.5223433840428697
 20
135.6182315623298109
 30
0.0
 11
3456.5125008643622095
 21
135.6194196417478111
 31
0.0
  0
LINE
  5
2F8F3
  8
0
 10
3456.5125008643622095
 20
135.6194196417478111
 30
0.0
 11
3456.5223433839410063
 21
135.6102142772029993
 31
0.0
  0
LINE
  5
2F8F4
  8
0
 10
3456.5223433839410063
 20
135.6102142772029993
 30
0.0
 11
3456.5420284233177881
 21
135.5999793734000889
 31
0.0
  0
LINE
  5
2F8F5
  8
0
 10
3456.5420284233177881
 20
135.5999793734000889
 30
0.0
 11
3456.5518913511641586
 21
135.5989282903541948
 31
0.0
  0
LINE
  5
2F8F6
  8
0
 10
3456.5518709428738475
 20
135.5887002383890945
 30
0.0
 11
3456.5420284232709491
 21
135.5960165887028097
 31
0.0
  0
LINE
  5
2F8F7
  8
0
 10
3456.5420284232709491
 20
135.5960165887028097
 30
0.0
 11
3456.5223433839942118
 21
135.6062742758770128
 31
0.0
  0
LINE
  5
2F8F8
  8
0
 10
3456.5223433839942118
 20
135.6062742758770128
 30
0.0
 11
3456.5125008643899491
 21
135.6092914598677908
 31
0.0
  0
LINE
  5
2F8F9
  8
0
 10
3456.5125008643899491
 20
135.6092914598677908
 30
0.0
 11
3456.5223433839178142
 21
135.6018598297019082
 31
0.0
  0
LINE
  5
2F8FA
  8
0
 10
3456.5223433839178142
 20
135.6018598297019082
 30
0.0
 11
3456.5420284233427992
 21
135.5915291436909058
 31
0.0
  0
LINE
  5
2F8FB
  8
0
 10
3456.5420284233427992
 20
135.5915291436909058
 30
0.0
 11
3456.5518709429770752
 21
135.5887002383634865
 31
0.0
  0
LINE
  5
2F8FC
  8
0
 10
3456.540339713884805
 20
135.5914193338238078
 30
0.0
 11
3456.5501822335741053
 21
135.5881870461346921
 31
0.0
  0
LINE
  5
2F8FD
  8
0
 10
3456.5501822335741053
 20
135.5881870461346921
 30
0.0
 11
3456.561888794376955
 21
135.5827088052853924
 31
0.0
  0
LINE
  5
2F8FE
  8
0
 10
3456.561888794376955
 20
135.5827088052853924
 30
0.0
 11
3456.5667976193471986
 21
135.5788975371933986
 31
0.0
  0
LINE
  5
2F8FF
  8
0
 10
3456.5667976193471986
 20
135.5788975371933986
 30
0.0
 11
3456.5794674834678517
 21
135.5733895421018929
 31
0.0
  0
LINE
  5
2F900
  8
0
 10
3456.5794674834678517
 20
135.5733895421018929
 30
0.0
 11
3456.5698672730181897
 21
135.576331258454104
 31
0.0
  0
LINE
  5
2F901
  8
0
 10
3456.5698672730181897
 20
135.576331258454104
 30
0.0
 11
3456.5501822336182158
 21
135.5854603236946048
 31
0.0
  0
LINE
  5
2F902
  8
0
 10
3456.5501822336182158
 20
135.5854603236946048
 30
0.0
 11
3456.540339713884805
 21
135.5914193338238078
 31
0.0
  0
LINE
  5
2F903
  8
0
 10
3456.520084046008833
 20
135.6269005142677884
 30
0.0
 11
3456.5223433839178142
 21
135.624441334469509
 31
0.0
  0
LINE
  5
2F904
  8
0
 10
3456.5223433839178142
 20
135.624441334469509
 30
0.0
 11
3456.5420284233177881
 21
135.6141836473018998
 31
0.0
  0
LINE
  5
2F905
  8
0
 10
3456.5420284233177881
 20
135.6141836473018998
 30
0.0
 11
3456.5518709430621129
 21
135.6148845821228974
 31
0.0
  0
LINE
  5
2F906
  8
0
 10
3456.5518709430621129
 20
135.6148845821228974
 30
0.0
 11
3456.5420284233177881
 21
135.6257307726019121
 31
0.0
  0
LINE
  5
2F907
  8
0
 10
3456.5420284233177881
 20
135.6257307726019121
 30
0.0
 11
3456.5298583138919639
 21
135.6319720085816982
 31
0.0
  0
LINE
  5
2F908
  8
0
 10
3456.5403397138761648
 20
135.6306958495250115
 30
0.0
 11
3456.5501822336441364
 21
135.6327541245370867
 31
0.0
  0
LINE
  5
2F909
  8
0
 10
3456.5501822336441364
 20
135.6327541245370867
 30
0.0
 11
3456.5698672730181897
 21
135.6236250592309887
 31
0.0
  0
LINE
  5
2F90A
  8
0
 10
3456.5698672730181897
 20
135.6236250592309887
 30
0.0
 11
3456.5797097926829338
 21
135.6125291403184008
 31
0.0
  0
LINE
  5
2F90B
  8
0
 10
3456.5797097926829338
 20
135.6125291403184008
 30
0.0
 11
3456.566797619494082
 21
135.6177793038019104
 31
0.0
  0
LINE
  5
2F90C
  8
0
 10
3456.566797619494082
 20
135.6177793038019104
 30
0.0
 11
3456.5618887944178823
 21
135.6139680357019017
 31
0.0
  0
LINE
  5
2F90D
  8
0
 10
3456.5618887944178823
 20
135.6139680357019017
 30
0.0
 11
3456.5501822335968427
 21
135.6194462766233073
 31
0.0
  0
LINE
  5
2F90E
  8
0
 10
3456.5501822335968427
 20
135.6194462766233073
 30
0.0
 11
3456.540339713884805
 21
135.6306958495135859
 31
0.0
  0
LINE
  5
2F90F
  8
0
 10
3456.5530972954970821
 20
135.6409172481731105
 30
0.0
 11
3456.5698672729831742
 21
135.6331279493516035
 31
0.0
  0
LINE
  5
2F910
  8
0
 10
3456.5698672729831742
 20
135.6331279493516035
 30
0.0
 11
3456.5797097926661081
 21
135.6369643580142963
 31
0.0
  0
LINE
  5
2F911
  8
0
 10
3456.5797097926661081
 20
135.6369643580142963
 30
0.0
 11
3456.5722297960692231
 21
135.6467609074109077
 31
0.0
  0
LINE
  5
2F912
  8
0
 10
3456.5747854473152074
 20
135.6474519614124858
 30
0.0
 11
3456.5780210832090233
 21
135.6431247448192039
 31
0.0
  0
LINE
  5
2F913
  8
0
 10
3456.5780210832090233
 20
135.6431247448192039
 30
0.0
 11
3456.5977061226358273
 21
135.6350217261675937
 31
0.0
  0
LINE
  5
2F914
  8
0
 10
3456.5977061226358273
 20
135.6350217261675937
 30
0.0
 11
3456.6075486423201255
 21
135.6402338019861986
 31
0.0
  0
LINE
  5
2F915
  8
0
 10
3456.6075486423201255
 20
135.6402338019861986
 30
0.0
 11
3456.5981449852179139
 21
135.653004716840087
 31
0.0
  0
LINE
  5
2F916
  8
0
 10
3456.6009420062550817
 20
135.6536036828773888
 30
0.0
 11
3456.6058599328948731
 21
135.6468401904284065
 31
0.0
  0
LINE
  5
2F917
  8
0
 10
3456.6058599328948731
 20
135.6468401904284065
 30
0.0
 11
3456.6255449722689264
 21
135.6397819243757965
 31
0.0
  0
LINE
  5
2F918
  8
0
 10
3456.6255449722689264
 20
135.6397819243757965
 30
0.0
 11
3456.6353874920000635
 21
135.6463628344426127
 31
0.0
  0
LINE
  5
2F919
  8
0
 10
3456.6353874920000635
 20
135.6463628344426127
 30
0.0
 11
3456.6266412202621723
 21
135.6585037645673992
 31
0.0
  0
LINE
  5
2F91A
  8
0
 10
3456.6297670161798123
 20
135.6590497874227879
 30
0.0
 11
3456.6336987824711287
 21
135.6534352043150875
 31
0.0
  0
LINE
  5
2F91B
  8
0
 10
3456.6336987824711287
 20
135.6534352043150875
 30
0.0
 11
3456.6533838219179415
 21
135.6473787760018865
 31
0.0
  0
LINE
  5
2F91C
  8
0
 10
3456.6533838219179415
 20
135.6473787760018865
 30
0.0
 11
3456.6632263415672242
 21
135.6553444667588906
 31
0.0
  0
LINE
  5
2F91D
  8
0
 10
3456.6632263415672242
 20
135.6553444667588906
 30
0.0
 11
3456.6577851689207819
 21
135.6630518116919859
 31
0.0
  0
LINE
  5
2F91E
  8
0
 10
3456.6611457175449686
 20
135.6634752509484088
 30
0.0
 11
3456.6615376322179145
 21
135.6629106201019113
 31
0.0
  0
LINE
  5
2F91F
  8
0
 10
3456.6615376322179145
 20
135.6629106201019113
 30
0.0
 11
3456.6812226715710494
 21
135.6578297452088862
 31
0.0
  0
LINE
  5
2F920
  8
0
 10
3456.6812226715710494
 20
135.6578297452088862
 30
0.0
 11
3456.6905939289790695
 21
135.6667524629727097
 31
0.0
  0
LINE
  5
2F921
  8
0
 10
3456.6893764819178614
 20
135.6601486272745944
 30
0.0
 11
3456.6795339621880885
 21
135.6511727864740067
 31
0.0
  0
LINE
  5
2F922
  8
0
 10
3456.6795339621880885
 20
135.6511727864740067
 30
0.0
 11
3456.6893764818369164
 21
135.6382849733959119
 31
0.0
  0
LINE
  5
2F923
  8
0
 10
3456.6893764818369164
 20
135.6382849733959119
 30
0.0
 11
3456.7090615212050579
 21
135.6343552870816893
 31
0.0
  0
LINE
  5
2F924
  8
0
 10
3456.7090615212050579
 20
135.6343552870816893
 30
0.0
 11
3456.7189040409812151
 21
135.6432097148095011
 31
0.0
  0
LINE
  5
2F925
  8
0
 10
3456.7189040409812151
 20
135.6432097148095011
 30
0.0
 11
3456.7090615213242017
 21
135.656113316152414
 31
0.0
  0
LINE
  5
2F926
  8
0
 10
3456.7090615213242017
 20
135.656113316152414
 30
0.0
 11
3456.6893764819178614
 21
135.6601486272745944
 31
0.0
  0
LINE
  5
2F927
  8
0
 10
3456.7119966736840979
 20
135.6686486614798071
 30
0.0
 11
3456.7073728118411964
 21
135.6638448886751007
 31
0.0
  0
LINE
  5
2F928
  8
0
 10
3456.7073728118411964
 20
135.6638448886751007
 30
0.0
 11
3456.7172153315350442
 21
135.6504872606589061
 31
0.0
  0
LINE
  5
2F929
  8
0
 10
3456.7172153315350442
 20
135.6504872606589061
 30
0.0
 11
3456.7369003709181925
 21
135.6475053080019109
 31
0.0
  0
LINE
  5
2F92A
  8
0
 10
3456.7369003709181925
 20
135.6475053080019109
 30
0.0
 11
3456.7467428906161331
 21
135.657790162771505
 31
0.0
  0
LINE
  5
2F92B
  8
0
 10
3456.7467428906161331
 20
135.657790162771505
 30
0.0
 11
3456.7374992424847733
 21
135.6703775148625084
 31
0.0
  0
LINE
  5
2F92C
  8
0
 10
3456.7414490063538324
 20
135.6705938424861131
 30
0.0
 11
3456.7450541812181655
 21
135.6656106607426864
 31
0.0
  0
LINE
  5
2F92D
  8
0
 10
3456.7450541812181655
 20
135.6656106607426864
 30
0.0
 11
3456.7647392205171855
 21
135.6635875125728887
 31
0.0
  0
LINE
  5
2F92E
  8
0
 10
3456.7647392205171855
 20
135.6635875125728887
 30
0.0
 11
3456.7716855637218032
 21
135.6718290411253065
 31
0.0
  0
LINE
  5
2F92F
  8
0
 10
3456.707372811786172
 20
135.6282785566554026
 30
0.0
 11
3456.7172153315168543
 21
135.6367414822022113
 31
0.0
  0
LINE
  5
2F930
  8
0
 10
3456.7172153315168543
 20
135.6367414822022113
 30
0.0
 11
3456.7369003708849959
 21
135.6338082248047954
 31
0.0
  0
LINE
  5
2F931
  8
0
 10
3456.7369003708849959
 20
135.6338082248047954
 30
0.0
 11
3456.7467428905638371
 21
135.6224765681955944
 31
0.0
  0
LINE
  5
2F932
  8
0
 10
3456.7467428905638371
 20
135.6224765681955944
 30
0.0
 11
3456.7369003709181925
 21
135.6140978238892103
 31
0.0
  0
LINE
  5
2F933
  8
0
 10
3456.7369003709181925
 20
135.6140978238892103
 30
0.0
 11
3456.7172153315650576
 21
135.6169675350064097
 31
0.0
  0
LINE
  5
2F934
  8
0
 10
3456.7172153315650576
 20
135.6169675350064097
 30
0.0
 11
3456.7073728117838982
 21
135.6282785566542088
 31
0.0
  0
LINE
  5
2F935
  8
0
 10
3456.6516951126241111
 20
135.6413843134882882
 30
0.0
 11
3456.6615376322179145
 21
135.6489559584018991
 31
0.0
  0
LINE
  5
2F936
  8
0
 10
3456.6615376322179145
 20
135.6489559584018991
 30
0.0
 11
3456.6812226716178884
 21
135.6439617062532079
 31
0.0
  0
LINE
  5
2F937
  8
0
 10
3456.6812226716178884
 20
135.6439617062532079
 30
0.0
 11
3456.6910651912680805
 21
135.6315101706175028
 31
0.0
  0
LINE
  5
2F938
  8
0
 10
3456.6910651912680805
 20
135.6315101706175028
 30
0.0
 11
3456.6812226716178884
 21
135.6240283905659112
 31
0.0
  0
LINE
  5
2F939
  8
0
 10
3456.6812226716178884
 20
135.6240283905659112
 30
0.0
 11
3456.6615376322411066
 21
135.6289098840723
 31
0.0
  0
LINE
  5
2F93A
  8
0
 10
3456.6615376322411066
 20
135.6289098840723
 30
0.0
 11
3456.6516951125831838
 21
135.6413843134587864
 31
0.0
  0
LINE
  5
2F93B
  8
0
 10
3456.6238562628609543
 20
135.6344255032996102
 30
0.0
 11
3456.6336987825179676
 21
135.6406261555796959
 31
0.0
  0
LINE
  5
2F93C
  8
0
 10
3456.6336987825179676
 20
135.6406261555796959
 30
0.0
 11
3456.6533838219179415
 21
135.6346591872018905
 31
0.0
  0
LINE
  5
2F93D
  8
0
 10
3456.6533838219179415
 20
135.6346591872018905
 30
0.0
 11
3456.6632263415881425
 21
135.6226077388450051
 31
0.0
  0
LINE
  5
2F93E
  8
0
 10
3456.6632263415881425
 20
135.6226077388450051
 30
0.0
 11
3456.6533838218888377
 21
135.6164646205212989
 31
0.0
  0
LINE
  5
2F93F
  8
0
 10
3456.6533838218888377
 20
135.6164646205212989
 30
0.0
 11
3456.6336987824802236
 21
135.6223165366712919
 31
0.0
  0
LINE
  5
2F940
  8
0
 10
3456.6336987824802236
 20
135.6223165366712919
 30
0.0
 11
3456.6238562628609543
 21
135.6344255032996102
 31
0.0
  0
LINE
  5
2F941
  8
0
 10
3456.6058599329171557
 20
135.6351295598817046
 30
0.0
 11
3456.6255449723180391
 21
135.6281607532019109
 31
0.0
  0
LINE
  5
2F942
  8
0
 10
3456.6255449723180391
 20
135.6281607532019109
 30
0.0
 11
3456.6353874919727787
 21
135.6164651950940083
 31
0.0
  0
LINE
  5
2F943
  8
0
 10
3456.6353874919727787
 20
135.6164651950940083
 30
0.0
 11
3456.6255449723180391
 21
135.6116481200392059
 31
0.0
  0
LINE
  5
2F944
  8
0
 10
3456.6255449723180391
 20
135.6116481200392059
 30
0.0
 11
3456.6058599329171557
 21
135.61850418020191
 31
0.0
  0
LINE
  5
2F945
  8
0
 10
3456.6058599329171557
 20
135.61850418020191
 30
0.0
 11
3456.6058599329171557
 21
135.6298903076022953
 31
0.0
  0
LINE
  5
2F946
  8
0
 10
3456.6058599329171557
 20
135.6298903076022953
 30
0.0
 11
3456.6058599376069651
 21
135.6351295582219905
 31
0.0
  0
LINE
  5
2F947
  8
0
 10
3456.6058599376069651
 20
135.6351295582219905
 30
0.0
 11
3456.5960174132951579
 21
135.6302895837060021
 31
0.0
  0
LINE
  5
2F948
  8
0
 10
3456.5960174132951579
 20
135.6302895837060021
 30
0.0
 11
3456.6058599328430319
 21
135.6185041802278022
 31
0.0
  0
LINE
  5
2F949
  8
0
 10
3456.6255449723180391
 20
135.6116481200392059
 30
0.0
 11
3456.6255449680629681
 21
135.628160754708091
 31
0.0
  0
LINE
  5
2F94A
  8
0
 10
3456.5681785635438246
 20
135.6290164105257077
 30
0.0
 11
3456.5780210832181183
 21
135.6324835717003907
 31
0.0
  0
LINE
  5
2F94B
  8
0
 10
3456.5780210832181183
 20
135.6324835717003907
 30
0.0
 11
3456.5977061226431033
 21
135.6244671742767878
 31
0.0
  0
LINE
  5
2F94C
  8
0
 10
3456.5977061226431033
 20
135.6244671742767878
 30
0.0
 11
3456.607548642277834
 21
135.6130888669993908
 31
0.0
  0
LINE
  5
2F94D
  8
0
 10
3456.607548642277834
 20
135.6130888669993908
 30
0.0
 11
3456.5977061226558362
 21
135.6096059117022889
 31
0.0
  0
LINE
  5
2F94E
  8
0
 10
3456.5977061226558362
 20
135.6096059117022889
 30
0.0
 11
3456.578021083303156
 21
135.617516707682114
 31
0.0
  0
LINE
  5
2F94F
  8
0
 10
3456.578021083303156
 20
135.617516707682114
 30
0.0
 11
3456.5681785635438246
 21
135.6290164105257077
 31
0.0
  0
LINE
  5
2F950
  8
0
 10
3456.5960168055248687
 20
135.6059974199872045
 30
0.0
 11
3456.6058610163108824
 21
135.6091239644202915
 31
0.0
  0
LINE
  5
2F951
  8
0
 10
3456.6058610163108824
 20
135.6091239644202915
 30
0.0
 11
3456.6255449722261801
 21
135.6023225650577047
 31
0.0
  0
LINE
  5
2F952
  8
0
 10
3456.6255449722261801
 20
135.6023225650577047
 30
0.0
 11
3456.635387492000973
 21
135.5924587288392047
 31
0.0
  0
LINE
  5
2F953
  8
0
 10
3456.635387492000973
 20
135.5924587288392047
 30
0.0
 11
3456.5960168055248687
 21
135.6059974199872045
 31
0.0
  0
LINE
  5
2F954
  8
0
 10
3456.6238562628709587
 20
135.6074334886666861
 30
0.0
 11
3456.6336987825179676
 21
135.6118925313444095
 31
0.0
  0
LINE
  5
2F955
  8
0
 10
3456.6336987825179676
 20
135.6118925313444095
 30
0.0
 11
3456.6533838219179415
 21
135.6060986845612035
 31
0.0
  0
LINE
  5
2F956
  8
0
 10
3456.6533838219179415
 20
135.6060986845612035
 30
0.0
 11
3456.6632263416659043
 21
135.5959169346610906
 31
0.0
  0
LINE
  5
2F957
  8
0
 10
3456.6632263416659043
 20
135.5959169346610906
 30
0.0
 11
3456.6533838219529571
 21
135.5914677700951074
 31
0.0
  0
LINE
  5
2F958
  8
0
 10
3456.6533838219529571
 20
135.5914677700951074
 30
0.0
 11
3456.6336987825111464
 21
135.5971906413120109
 31
0.0
  0
LINE
  5
2F959
  8
0
 10
3456.6336987825111464
 20
135.5971906413120109
 30
0.0
 11
3456.6238562628709587
 21
135.6074334886666861
 31
0.0
  0
LINE
  5
2F95A
  8
0
 10
3456.6516918804181842
 20
135.5877355253018948
 30
0.0
 11
3456.6615376322961311
 21
135.5918340183999931
 31
0.0
  0
LINE
  5
2F95B
  8
0
 10
3456.6615376322961311
 20
135.5918340183999931
 30
0.0
 11
3456.6812226715578618
 21
135.5871198793954022
 31
0.0
  0
LINE
  5
2F95C
  8
0
 10
3456.6812226715578618
 20
135.5871198793954022
 30
0.0
 11
3456.6910651912921821
 21
135.5783457641776124
 31
0.0
  0
LINE
  5
2F95D
  8
0
 10
3456.6910651912921821
 20
135.5783457641776124
 30
0.0
 11
3456.6516918804181842
 21
135.5877355253018948
 31
0.0
  0
LINE
  5
2F95E
  8
0
 10
3456.6516951124631305
 20
135.6116427398266069
 30
0.0
 11
3456.6615376321119584
 21
135.6174219140833088
 31
0.0
  0
LINE
  5
2F95F
  8
0
 10
3456.6615376321119584
 20
135.6174219140833088
 30
0.0
 11
3456.6812226716178884
 21
135.6125984900384083
 31
0.0
  0
LINE
  5
2F960
  8
0
 10
3456.6812226716178884
 20
135.6125984900384083
 30
0.0
 11
3456.6910651912648973
 21
135.6020698348467874
 31
0.0
  0
LINE
  5
2F961
  8
0
 10
3456.6910651912648973
 20
135.6020698348467874
 30
0.0
 11
3456.6812226716178884
 21
135.5963273540018861
 31
0.0
  0
LINE
  5
2F962
  8
0
 10
3456.6812226716178884
 20
135.5963273540018861
 30
0.0
 11
3456.6615376321678923
 21
135.6010773974686003
 31
0.0
  0
LINE
  5
2F963
  8
0
 10
3456.6615376321678923
 20
135.6010773974686003
 30
0.0
 11
3456.6516951125358901
 21
135.6116427397531083
 31
0.0
  0
LINE
  5
2F964
  8
0
 10
3456.6795339622021856
 20
135.6185890386215931
 30
0.0
 11
3456.6893764818441923
 21
135.6256959162747933
 31
0.0
  0
LINE
  5
2F965
  8
0
 10
3456.6893764818441923
 20
135.6256959162747933
 30
0.0
 11
3456.7090615212609919
 21
135.6218212766418105
 31
0.0
  0
LINE
  5
2F966
  8
0
 10
3456.7090615212609919
 20
135.6218212766418105
 30
0.0
 11
3456.7179765568598668
 21
135.6119076327325956
 31
0.0
  0
LINE
  5
2F967
  8
0
 10
3456.7179765568598668
 20
135.6119076327325956
 30
0.0
 11
3456.7090615212177909
 21
135.603865806419293
 31
0.0
  0
LINE
  5
2F968
  8
0
 10
3456.7090615212177909
 20
135.603865806419293
 30
0.0
 11
3456.6893764818651107
 21
135.6076694649121066
 31
0.0
  0
LINE
  5
2F969
  8
0
 10
3456.6893764818651107
 20
135.6076694649121066
 30
0.0
 11
3456.6795339622049141
 21
135.6185890386178983
 31
0.0
  0
LINE
  5
2F96A
  8
0
 10
3456.6795339622281062
 20
135.5919977464133126
 30
0.0
 11
3456.6893764819178614
 21
135.5973884821019055
 31
0.0
  0
LINE
  5
2F96B
  8
0
 10
3456.6893764819178614
 20
135.5973884821019055
 30
0.0
 11
3456.7090615212177909
 21
135.5936207283272097
 31
0.0
  0
LINE
  5
2F96C
  8
0
 10
3456.7090615212177909
 20
135.5936207283272097
 30
0.0
 11
3456.7189040409380141
 21
135.5845064524116026
 31
0.0
  0
LINE
  5
2F96D
  8
0
 10
3456.7189040409380141
 20
135.5845064524116026
 30
0.0
 11
3456.7090615212177909
 21
135.5791376957018883
 31
0.0
  0
LINE
  5
2F96E
  8
0
 10
3456.7090615212177909
 20
135.5791376957018883
 30
0.0
 11
3456.6893764819178614
 21
135.5828614937396139
 31
0.0
  0
LINE
  5
2F96F
  8
0
 10
3456.6893764819178614
 20
135.5828614937396139
 30
0.0
 11
3456.6795339622299252
 21
135.5919977464149042
 31
0.0
  0
LINE
  5
2F970
  8
0
 10
3456.7073728118680265
 20
135.5989344915032007
 30
0.0
 11
3456.7172153315182186
 21
135.6056198036440037
 31
0.0
  0
LINE
  5
2F971
  8
0
 10
3456.7172153315182186
 20
135.6056198036440037
 30
0.0
 11
3456.7369003709181925
 21
135.6027828874019008
 31
0.0
  0
LINE
  5
2F972
  8
0
 10
3456.7369003709181925
 20
135.6027828874019008
 30
0.0
 11
3456.7467428905611087
 21
135.5933025709236119
 31
0.0
  0
LINE
  5
2F973
  8
0
 10
3456.7467428905611087
 20
135.5933025709236119
 30
0.0
 11
3456.7369003709181925
 21
135.5866571847018918
 31
0.0
  0
LINE
  5
2F974
  8
0
 10
3456.7369003709181925
 20
135.5866571847018918
 30
0.0
 11
3456.7172153315182186
 21
135.5894525929018926
 31
0.0
  0
LINE
  5
2F975
  8
0
 10
3456.7172153315182186
 20
135.5894525929018926
 30
0.0
 11
3456.7073728118680265
 21
135.5989344915032007
 31
0.0
  0
LINE
  5
2F976
  8
0
 10
3456.7073728118020881
 20
135.5752700182968056
 30
0.0
 11
3456.7168949199981398
 21
135.5801218443496055
 31
0.0
  0
LINE
  5
2F977
  8
0
 10
3456.7168949199981398
 20
135.5801218443496055
 30
0.0
 11
3456.7369003708708988
 21
135.577520933294295
 31
0.0
  0
LINE
  5
2F978
  8
0
 10
3456.7369003708708988
 20
135.577520933294295
 30
0.0
 11
3456.7467428905561064
 21
135.5697435048886064
 31
0.0
  0
LINE
  5
2F979
  8
0
 10
3456.7467428905561064
 20
135.5697435048886064
 30
0.0
 11
3456.7073728118020881
 21
135.5752700182968056
 31
0.0
  0
LINE
  5
2F97A
  8
0
 10
3456.7352116614811166
 20
135.5821996468432928
 30
0.0
 11
3456.7450541812181655
 21
135.5884953958019139
 31
0.0
  0
LINE
  5
2F97B
  8
0
 10
3456.7450541812181655
 20
135.5884953958019139
 30
0.0
 11
3456.764739220428055
 21
135.5866383389985117
 31
0.0
  0
LINE
  5
2F97C
  8
0
 10
3456.764739220428055
 20
135.5866383389985117
 30
0.0
 11
3456.7745817402001194
 21
135.57850676098181
 31
0.0
  0
LINE
  5
2F97D
  8
0
 10
3456.7745817402001194
 20
135.57850676098181
 30
0.0
 11
3456.7647392205421966
 21
135.5722352237349924
 31
0.0
  0
LINE
  5
2F97E
  8
0
 10
3456.7647392205421966
 20
135.5722352237349924
 30
0.0
 11
3456.745054181298201
 21
135.5740712179793945
 31
0.0
  0
LINE
  5
2F97F
  8
0
 10
3456.745054181298201
 20
135.5740712179793945
 30
0.0
 11
3456.7352116614811166
 21
135.5821996468432928
 31
0.0
  0
LINE
  5
2F980
  8
0
 10
3456.7630505110910235
 20
135.5682269025215021
 30
0.0
 11
3456.7728930308871895
 21
135.5741567074163072
 31
0.0
  0
LINE
  5
2F981
  8
0
 10
3456.7728930308871895
 20
135.5741567074163072
 30
0.0
 11
3456.7925780701498297
 21
135.573240215125594
 31
0.0
  0
LINE
  5
2F982
  8
0
 10
3456.7925780701498297
 20
135.573240215125594
 30
0.0
 11
3456.8024205899268964
 21
135.5664015942074911
 31
0.0
  0
LINE
  5
2F983
  8
0
 10
3456.8024205899268964
 20
135.5664015942074911
 30
0.0
 11
3456.7630505110910235
 21
135.5682269025215021
 31
0.0
  0
LINE
  5
2F984
  8
0
 10
3456.763050511225174
 20
135.5917574123388931
 30
0.0
 11
3456.7728930307512201
 21
135.5993445301488975
 31
0.0
  0
LINE
  5
2F985
  8
0
 10
3456.7728930307512201
 20
135.5993445301488975
 30
0.0
 11
3456.7925780702671545
 21
135.5984080008203136
 31
0.0
  0
LINE
  5
2F986
  8
0
 10
3456.7925780702671545
 20
135.5984080008203136
 30
0.0
 11
3456.8024205898650507
 21
135.5898979429788085
 31
0.0
  0
LINE
  5
2F987
  8
0
 10
3456.8024205898650507
 20
135.5898979429788085
 30
0.0
 11
3456.7925780702180418
 21
135.5823454922389999
 31
0.0
  0
LINE
  5
2F988
  8
0
 10
3456.7925780702180418
 20
135.5823454922389999
 30
0.0
 11
3456.7728930308180679
 21
135.5832685760757954
 31
0.0
  0
LINE
  5
2F989
  8
0
 10
3456.7728930308180679
 20
135.5832685760757954
 30
0.0
 11
3456.7630505110741979
 21
135.5917574123307929
 31
0.0
  0
LINE
  5
2F98A
  8
0
 10
3456.7352116615102204
 20
135.6085484892828958
 30
0.0
 11
3456.7450541811908806
 21
135.6165529668739111
 31
0.0
  0
LINE
  5
2F98B
  8
0
 10
3456.7450541811908806
 20
135.6165529668739111
 30
0.0
 11
3456.7647392205171855
 21
135.6146447798842019
 31
0.0
  0
LINE
  5
2F98C
  8
0
 10
3456.7647392205171855
 20
135.6146447798842019
 30
0.0
 11
3456.7745817402869761
 21
135.604766495962906
 31
0.0
  0
LINE
  5
2F98D
  8
0
 10
3456.7745817402869761
 20
135.604766495962906
 30
0.0
 11
3456.764739220589945
 21
135.5968181772832111
 31
0.0
  0
LINE
  5
2F98E
  8
0
 10
3456.764739220589945
 20
135.5968181772832111
 30
0.0
 11
3456.745054181219075
 21
135.598692423496999
 31
0.0
  0
LINE
  5
2F98F
  8
0
 10
3456.745054181219075
 20
135.598692423496999
 30
0.0
 11
3456.7352116615102204
 21
135.6085484892828958
 31
0.0
  0
LINE
  5
2F990
  8
0
 10
3456.7630505111451384
 20
135.6208853798698897
 30
0.0
 11
3456.7728930308271629
 21
135.6302544955532028
 31
0.0
  0
LINE
  5
2F991
  8
0
 10
3456.7728930308271629
 20
135.6302544955532028
 30
0.0
 11
3456.7925780702571501
 21
135.6292868025716984
 31
0.0
  0
LINE
  5
2F992
  8
0
 10
3456.7925780702571501
 20
135.6292868025716984
 30
0.0
 11
3456.8024205898718719
 21
135.6189708707626949
 31
0.0
  0
LINE
  5
2F993
  8
0
 10
3456.8024205898718719
 20
135.6189708707626949
 30
0.0
 11
3456.792578070233958
 21
135.6096730339297096
 31
0.0
  0
LINE
  5
2F994
  8
0
 10
3456.792578070233958
 20
135.6096730339297096
 30
0.0
 11
3456.7728930308180679
 21
135.6096730339297096
 31
0.0
  0
LINE
  5
2F995
  8
0
 10
3456.7728930308180679
 20
135.6096730339297096
 30
0.0
 11
3456.7630505111451384
 21
135.6208853798698897
 31
0.0
  0
LINE
  5
2F996
  8
0
 10
3456.7352116615152227
 20
135.6407604225456964
 30
0.0
 11
3456.7450541812008851
 21
135.6506304585645069
 31
0.0
  0
LINE
  5
2F997
  8
0
 10
3456.7450541812008851
 20
135.6506304585645069
 30
0.0
 11
3456.76473922055402
 21
135.648645650935606
 31
0.0
  0
LINE
  5
2F998
  8
0
 10
3456.76473922055402
 20
135.648645650935606
 30
0.0
 11
3456.7745817402369539
 21
135.6368420942235957
 31
0.0
  0
LINE
  5
2F999
  8
0
 10
3456.7745817402369539
 20
135.6368420942235957
 30
0.0
 11
3456.7647392205740289
 21
135.6270789505144023
 31
0.0
  0
LINE
  5
2F99A
  8
0
 10
3456.7647392205740289
 20
135.6270789505144023
 30
0.0
 11
3456.7450541812181655
 21
135.6290134208018969
 31
0.0
  0
LINE
  5
2F99B
  8
0
 10
3456.7450541812181655
 20
135.6290134208018969
 30
0.0
 11
3456.7352116615152227
 21
135.6407604225456964
 31
0.0
  0
LINE
  5
2F99C
  8
0
 10
3456.7630505111051207
 20
135.6561306728810905
 30
0.0
 11
3456.7728930307362134
 21
135.6674855586742865
 31
0.0
  0
LINE
  5
2F99D
  8
0
 10
3456.7728930307362134
 20
135.6674855586742865
 30
0.0
 11
3456.7925780701639269
 21
135.6664721854967866
 31
0.0
  0
LINE
  5
2F99E
  8
0
 10
3456.7925780701639269
 20
135.6664721854967866
 30
0.0
 11
3456.8024205898841501
 21
135.65413455017719
 31
0.0
  0
LINE
  5
2F99F
  8
0
 10
3456.8024205898841501
 20
135.65413455017719
 30
0.0
 11
3456.7925780701762051
 21
135.6429098960209103
 31
0.0
  0
LINE
  5
2F9A0
  8
0
 10
3456.7925780701762051
 20
135.6429098960209103
 30
0.0
 11
3456.7728930307539486
 21
135.6438933167569871
 31
0.0
  0
LINE
  5
2F9A1
  8
0
 10
3456.7728930307539486
 20
135.6438933167569871
 30
0.0
 11
3456.7630505111228558
 21
135.6561306728783052
 31
0.0
  0
LINE
  5
2F9A2
  8
0
 10
3456.792574906963182
 20
135.672277043620312
 30
0.0
 11
3456.8007318805180148
 21
135.661744882301889
 31
0.0
  0
LINE
  5
2F9A3
  8
0
 10
3456.8007318805180148
 20
135.661744882301889
 30
0.0
 11
3456.8204169198129421
 21
135.6617448822624112
 31
0.0
  0
LINE
  5
2F9A4
  8
0
 10
3456.8204169198129421
 20
135.6617448822624112
 30
0.0
 11
3456.8285784463851087
 21
135.6722777667295929
 31
0.0
  0
LINE
  5
2F9A5
  8
0
 10
3456.7908893608209837
 20
135.6360341942024093
 30
0.0
 11
3456.8007318805639443
 21
135.6468376851705955
 31
0.0
  0
LINE
  5
2F9A6
  8
0
 10
3456.8007318805639443
 20
135.6468376851705955
 30
0.0
 11
3456.8204169198179443
 21
135.6468376850916115
 31
0.0
  0
LINE
  5
2F9A7
  8
0
 10
3456.8204169198179443
 20
135.6468376850916115
 30
0.0
 11
3456.8302594395449887
 21
135.6360341942396133
 31
0.0
  0
LINE
  5
2F9A8
  8
0
 10
3456.8302594395449887
 20
135.6360341942396133
 30
0.0
 11
3456.8204169198179443
 21
135.625316518151692
 31
0.0
  0
LINE
  5
2F9A9
  8
0
 10
3456.8204169198179443
 20
135.625316518151692
 30
0.0
 11
3456.8007318805180148
 21
135.6253165180885105
 31
0.0
  0
LINE
  5
2F9AA
  8
0
 10
3456.8007318805180148
 20
135.6253165180885105
 30
0.0
 11
3456.7908893608141625
 21
135.6360341942095999
 31
0.0
  0
LINE
  5
2F9AB
  8
0
 10
3456.790889360734127
 20
135.6039864690179115
 30
0.0
 11
3456.8007318803847738
 21
135.612906132029309
 31
0.0
  0
LINE
  5
2F9AC
  8
0
 10
3456.8007318803847738
 20
135.612906132029309
 30
0.0
 11
3456.8204169197888405
 21
135.6129061320282858
 31
0.0
  0
LINE
  5
2F9AD
  8
0
 10
3456.8204169197888405
 20
135.6129061320282858
 30
0.0
 11
3456.8302594395531742
 21
135.6039864689718968
 31
0.0
  0
LINE
  5
2F9AE
  8
0
 10
3456.8302594395531742
 20
135.6039864689718968
 30
0.0
 11
3456.8204169198179443
 21
135.5951102532191044
 31
0.0
  0
LINE
  5
2F9AF
  8
0
 10
3456.8204169198179443
 20
135.5951102532191044
 30
0.0
 11
3456.8007318805180148
 21
135.5951102532191044
 31
0.0
  0
LINE
  5
2F9B0
  8
0
 10
3456.8007318805180148
 20
135.5951102532191044
 30
0.0
 11
3456.7908893607827849
 21
135.6039864689718968
 31
0.0
  0
LINE
  5
2F9B1
  8
0
 10
3456.7908893607309437
 20
135.5777449650774997
 30
0.0
 11
3456.801191561430187
 21
135.5849385276382861
 31
0.0
  0
LINE
  5
2F9B2
  8
0
 10
3456.801191561430187
 20
135.5849385276382861
 30
0.0
 11
3456.8204169198179443
 21
135.5849459791197091
 31
0.0
  0
LINE
  5
2F9B3
  8
0
 10
3456.8204169198179443
 20
135.5849459791197091
 30
0.0
 11
3456.8302594395267988
 21
135.5777449650393862
 31
0.0
  0
LINE
  5
2F9B4
  8
0
 10
3456.8302594395267988
 20
135.5777449650393862
 30
0.0
 11
3456.8204169198179443
 21
135.5705619391507071
 31
0.0
  0
LINE
  5
2F9B5
  8
0
 10
3456.8204169198179443
 20
135.5705619391507071
 30
0.0
 11
3456.8007318805180148
 21
135.5705619390035963
 31
0.0
  0
LINE
  5
2F9B6
  8
0
 10
3456.8007318805180148
 20
135.5705619390035963
 30
0.0
 11
3456.7908893607432219
 21
135.5777449650686037
 31
0.0
  0
LINE
  5
2F9B7
  8
0
 10
3456.8105756993181785
 20
135.5261297668018869
 30
0.0
 11
3456.8007318805180148
 21
135.5261297668018869
 31
0.0
  0
LINE
  5
2F9B8
  8
0
 10
3456.8007318805180148
 20
135.5261297668018869
 30
0.0
 11
3456.790889361408972
 21
135.525376277582609
 31
0.0
  0
LINE
  5
2F9B9
  8
0
 10
3456.790889361408972
 20
135.525376277582609
 30
0.0
 11
3456.8007318805198338
 21
135.5245600065283043
 31
0.0
  0
LINE
  5
2F9BA
  8
0
 10
3456.8007318805198338
 20
135.5245600065283043
 30
0.0
 11
3456.810574106356853
 21
135.5244784880028988
 31
0.0
  0
LINE
  5
2F9BB
  8
0
 10
3456.8024205899619119
 20
135.5271250785939117
 30
0.0
 11
3456.7925780701639269
 21
135.5259464142557988
 31
0.0
  0
LINE
  5
2F9BC
  8
0
 10
3456.7925780701639269
 20
135.5259464142557988
 30
0.0
 11
3456.7728930308621784
 21
135.5268629066177084
 31
0.0
  0
LINE
  5
2F9BD
  8
0
 10
3456.7728930308621784
 20
135.5268629066177084
 30
0.0
 11
3456.7630506308569238
 21
135.5289503560894104
 31
0.0
  0
LINE
  5
2F9BE
  8
0
 10
3456.7630506308569238
 20
135.5289503560894104
 30
0.0
 11
3456.7728919342948757
 21
135.5283326801659882
 31
0.0
  0
LINE
  5
2F9BF
  8
0
 10
3456.7728919342948757
 20
135.5283326801659882
 30
0.0
 11
3456.7925780702180418
 21
135.52742051214139
 31
0.0
  0
LINE
  5
2F9C0
  8
0
 10
3456.7925780702180418
 20
135.52742051214139
 30
0.0
 11
3456.8024205899619119
 21
135.5271250785939117
 31
0.0
  0
LINE
  5
2F9C1
  8
0
 10
3456.7745817402869761
 20
135.5261380734868908
 30
0.0
 11
3456.7647392205171855
 21
135.5263295176260954
 31
0.0
  0
LINE
  5
2F9C2
  8
0
 10
3456.7745817402092143
 20
135.5261380734982026
 30
0.0
 11
3456.764739220555839
 21
135.5278838214115069
 31
0.0
  0
LINE
  5
2F9C3
  8
0
 10
3456.764739220555839
 20
135.5278838214115069
 30
0.0
 11
3456.7450541811658695
 21
135.5297198156935963
 31
0.0
  0
LINE
  5
2F9C4
  8
0
 10
3456.7450541811658695
 20
135.5297198156935963
 30
0.0
 11
3456.7352116614401893
 21
135.5298309593682973
 31
0.0
  0
LINE
  5
2F9C5
  8
0
 10
3456.7352116614401893
 20
135.5298309593682973
 30
0.0
 11
3456.7448995537952214
 21
135.5280893618088953
 31
0.0
  0
LINE
  5
2F9C6
  8
0
 10
3456.7467428905520137
 20
135.5304669893197911
 30
0.0
 11
3456.7369003709231947
 21
135.5302271325317918
 31
0.0
  0
LINE
  5
2F9C7
  8
0
 10
3456.7369003709231947
 20
135.5302271325317918
 30
0.0
 11
3456.717215331576881
 21
135.5330022045440899
 31
0.0
  0
LINE
  5
2F9C8
  8
0
 10
3456.717215331576881
 20
135.5330022045440899
 30
0.0
 11
3456.7073728118771214
 21
135.5359935027013023
 31
0.0
  0
LINE
  5
2F9C9
  8
0
 10
3456.7073728118771214
 20
135.5359935027013023
 30
0.0
 11
3456.7172153315182186
 21
135.5344419862705934
 31
0.0
  0
LINE
  5
2F9CA
  8
0
 10
3456.7172153315182186
 20
135.5344419862705934
 30
0.0
 11
3456.7369003709181925
 21
135.5316804673759066
 31
0.0
  0
LINE
  5
2F9CB
  8
0
 10
3456.7369003709181925
 20
135.5316804673759066
 30
0.0
 11
3456.7467428906179521
 21
135.5304669893019138
 31
0.0
  0
LINE
  5
2F9CC
  8
0
 10
3456.7189040409298286
 20
135.5321377649750048
 30
0.0
 11
3456.7090615216111473
 21
135.5347862933334966
 31
0.0
  0
LINE
  5
2F9CD
  8
0
 10
3456.7090615216111473
 20
135.5347862933334966
 30
0.0
 11
3456.6893764819178614
 21
135.5385100914498082
 31
0.0
  0
LINE
  5
2F9CE
  8
0
 10
3456.6893764819178614
 20
135.5385100914498082
 30
0.0
 11
3456.6795339624168264
 21
135.539629058936498
 31
0.0
  0
LINE
  5
2F9CF
  8
0
 10
3456.6795339624168264
 20
135.539629058936498
 30
0.0
 11
3456.6893764819178614
 21
135.5370025094779862
 31
0.0
  0
LINE
  5
2F9D0
  8
0
 10
3456.6893764819178614
 20
135.5370025094779862
 30
0.0
 11
3456.7090615212541707
 21
135.5332347556422121
 31
0.0
  0
LINE
  5
2F9D1
  8
0
 10
3456.7090615212541707
 20
135.5332347556422121
 30
0.0
 11
3456.7189040409061818
 21
135.5321377649252099
 31
0.0
  0
LINE
  5
2F9D2
  8
0
 10
3456.691065191234884
 20
135.5390692485349859
 30
0.0
 11
3456.6812226715651377
 21
135.5398260787663958
 31
0.0
  0
LINE
  5
2F9D3
  8
0
 10
3456.6812226715651377
 20
135.5398260787663958
 30
0.0
 11
3456.6615376322179145
 21
135.5445402175382981
 31
0.0
  0
LINE
  5
2F9D4
  8
0
 10
3456.6615376322179145
 20
135.5445402175382981
 30
0.0
 11
3456.6516918885881751
 21
135.5484563760167873
 31
0.0
  0
LINE
  5
2F9D5
  8
0
 10
3456.6516918885881751
 20
135.5484563760167873
 30
0.0
 11
3456.6615376322179145
 21
135.5459245586019108
 31
0.0
  0
LINE
  5
2F9D6
  8
0
 10
3456.6615376322179145
 20
135.5459245586019108
 30
0.0
 11
3456.6812226716178884
 21
135.5412341527018896
 31
0.0
  0
LINE
  5
2F9D7
  8
0
 10
3456.6812226716178884
 20
135.5412341527018896
 30
0.0
 11
3456.691065191234884
 21
135.5390692485349859
 31
0.0
  0
LINE
  5
2F9D8
  8
0
 10
3456.6632263416490787
 20
135.5435482471440025
 30
0.0
 11
3456.6533838219179415
 21
135.5471163676866126
 31
0.0
  0
LINE
  5
2F9D9
  8
0
 10
3456.6533838219179415
 20
135.5471163676866126
 30
0.0
 11
3456.6336987825338838
 21
135.552839238945495
 31
0.0
  0
LINE
  5
2F9DA
  8
0
 10
3456.6336987825338838
 20
135.552839238945495
 30
0.0
 11
3456.6238562632638605
 21
135.5550648011150088
 31
0.0
  0
LINE
  5
2F9DB
  8
0
 10
3456.6238562632638605
 20
135.5550648011150088
 30
0.0
 11
3456.6264805789810453
 21
135.553898829101712
 31
0.0
  0
LINE
  5
2F9DC
  8
0
 10
3456.658376102981947
 20
135.5444714168102962
 30
0.0
 11
3456.6632263416490787
 21
135.5435482471440025
 31
0.0
  0
LINE
  5
2F9DD
  8
0
 10
3456.6353874919659575
 20
135.5531822132059858
 30
0.0
 11
3456.6255449723180391
 21
135.5563554227503005
 31
0.0
  0
LINE
  5
2F9DE
  8
0
 10
3456.6255449723180391
 20
135.5563554227503005
 30
0.0
 11
3456.6058599329171557
 21
135.5631227016019125
 31
0.0
  0
LINE
  5
2F9DF
  8
0
 10
3456.6058599329171557
 20
135.5631227016019125
 30
0.0
 11
3456.5962596709809986
 21
135.5666644362910063
 31
0.0
  0
LINE
  5
2F9E0
  8
0
 10
3456.5962596709809986
 20
135.5666644362910063
 30
0.0
 11
3456.6058599329171557
 21
135.5618297785019024
 31
0.0
  0
LINE
  5
2F9E1
  8
0
 10
3456.6058599329171557
 20
135.5618297785019024
 30
0.0
 11
3456.6255449723121274
 21
135.5550287643640104
 31
0.0
  0
LINE
  5
2F9E2
  8
0
 10
3456.6255449723121274
 20
135.5550287643640104
 30
0.0
 11
3456.6353874919282134
 21
135.5531822132435877
 31
0.0
  0
LINE
  5
2F9E3
  8
0
 10
3456.5681785635961205
 20
135.5766477230914973
 30
0.0
 11
3456.5700934459209748
 21
135.5755746892529885
 31
0.0
  0
LINE
  5
2F9E4
  8
0
 10
3456.5681785635961205
 20
135.5766477230914973
 30
0.0
 11
3456.5780210833131605
 21
135.5731653054145909
 31
0.0
  0
LINE
  5
2F9E5
  8
0
 10
3456.5780210833131605
 20
135.5731653054145909
 30
0.0
 11
3456.5977061225939906
 21
135.5652545095352934
 31
0.0
  0
LINE
  5
2F9E6
  8
0
 10
3456.5977061225939906
 20
135.5652545095352934
 30
0.0
 11
3456.6075486420731977
 21
135.5607201796291008
 31
0.0
  0
LINE
  5
2F9E7
  8
0
 10
3456.6075486420731977
 20
135.5607201796291008
 30
0.0
 11
3456.6055162997959087
 21
135.5611598907144071
 31
0.0
  0
LINE
  5
2F9E8
  8
0
 10
3456.8007318805639443
 20
135.6468376851705955
 30
0.0
 11
3456.8007318806321564
 21
135.6253165180885105
 31
0.0
  0
LINE
  5
2F9E9
  8
0
 10
3456.8204169198179443
 20
135.625316518151692
 30
0.0
 11
3456.8204169198179443
 21
135.6468376850916115
 31
0.0
  0
LINE
  5
2F9EA
  8
0
 10
3456.8204169197888405
 20
135.6129061320282858
 30
0.0
 11
3456.8204169198179443
 21
135.5951102532191044
 31
0.0
  0
LINE
  5
2F9EB
  8
0
 10
3456.8007318805180148
 20
135.5951102532191044
 30
0.0
 11
3456.8007318805189243
 21
135.612906132029309
 31
0.0
  0
LINE
  5
2F9EC
  8
0
 10
3456.8204169198179443
 20
135.5849459791197091
 30
0.0
 11
3456.8204169199261742
 21
135.5705619391507071
 31
0.0
  0
LINE
  5
2F9ED
  8
0
 10
3456.8007318805180148
 20
135.5705619390035963
 30
0.0
 11
3456.801191561430187
 21
135.5849385276382861
 31
0.0
  0
LINE
  5
2F9EE
  8
0
 10
3456.7728930307362134
 20
135.6674855586742865
 30
0.0
 11
3456.7728930307539486
 21
135.6438933167569871
 31
0.0
  0
LINE
  5
2F9EF
  8
0
 10
3456.7925780701762051
 20
135.6429098960209103
 30
0.0
 11
3456.7925780701639269
 21
135.6664721854967866
 31
0.0
  0
LINE
  5
2F9F0
  8
0
 10
3456.76473922055402
 20
135.648645650935606
 30
0.0
 11
3456.7647392205740289
 21
135.6270789505144023
 31
0.0
  0
LINE
  5
2F9F1
  8
0
 10
3456.7450541812181655
 20
135.6290134208018969
 30
0.0
 11
3456.7450541812008851
 21
135.6506304585645069
 31
0.0
  0
LINE
  5
2F9F2
  8
0
 10
3456.7728930308271629
 20
135.6302544955532028
 30
0.0
 11
3456.7728930308271629
 21
135.6096730339297096
 31
0.0
  0
LINE
  5
2F9F3
  8
0
 10
3456.792578070233958
 20
135.6096730339297096
 30
0.0
 11
3456.7925780702571501
 21
135.6292868025716984
 31
0.0
  0
LINE
  5
2F9F4
  8
0
 10
3456.7450541811908806
 20
135.6165529668739111
 30
0.0
 11
3456.745054181219075
 21
135.598692423496999
 31
0.0
  0
LINE
  5
2F9F5
  8
0
 10
3456.764739220589945
 20
135.5968181772832111
 30
0.0
 11
3456.7647392205171855
 21
135.6146447798842019
 31
0.0
  0
LINE
  5
2F9F6
  8
0
 10
3456.7728930307512201
 20
135.5993445301488975
 30
0.0
 11
3456.7728930308180679
 21
135.5832685760757954
 31
0.0
  0
LINE
  5
2F9F7
  8
0
 10
3456.7925780702180418
 20
135.5823454922389999
 30
0.0
 11
3456.7925780702671545
 21
135.5984080008203136
 31
0.0
  0
LINE
  5
2F9F8
  8
0
 10
3456.7728930308871895
 20
135.5741567074163072
 30
0.0
 11
3456.7728930308871895
 21
135.567770575438999
 31
0.0
  0
LINE
  5
2F9F9
  8
0
 10
3456.7925780701498297
 20
135.573240215125594
 30
0.0
 11
3456.7925780701498297
 21
135.5668579212891132
 31
0.0
  0
LINE
  5
2F9FA
  8
0
 10
3456.764739220428055
 20
135.5866383389985117
 30
0.0
 11
3456.7647392205421966
 21
135.5722352237349924
 31
0.0
  0
LINE
  5
2F9FB
  8
0
 10
3456.745054181298201
 20
135.5740712179793945
 30
0.0
 11
3456.7450541812181655
 21
135.5884953958019139
 31
0.0
  0
LINE
  5
2F9FC
  8
0
 10
3456.7369003708708988
 20
135.577520933294295
 30
0.0
 11
3456.7360199194458801
 21
135.571248725235904
 31
0.0
  0
LINE
  5
2F9FD
  8
0
 10
3456.7168949199981398
 20
135.5801218443496055
 30
0.0
 11
3456.7160430088270004
 21
135.574052952910705
 31
0.0
  0
LINE
  5
2F9FE
  8
0
 10
3456.7369003709181925
 20
135.6027828874019008
 30
0.0
 11
3456.7369003709181925
 21
135.5866571847018918
 31
0.0
  0
LINE
  5
2F9FF
  8
0
 10
3456.7172153315182186
 20
135.5894525929018926
 30
0.0
 11
3456.7172153315182186
 21
135.6056198036440037
 31
0.0
  0
LINE
  5
2FA00
  8
0
 10
3456.7172153315168543
 20
135.6367414822022113
 30
0.0
 11
3456.7172153315650576
 21
135.6169675350064097
 31
0.0
  0
LINE
  5
2FA01
  8
0
 10
3456.7369003708849959
 20
135.6338082248047954
 30
0.0
 11
3456.7369003709181925
 21
135.6140978238892103
 31
0.0
  0
LINE
  5
2FA02
  8
0
 10
3456.7369003709181925
 20
135.6475053080019109
 30
0.0
 11
3456.7369003709181925
 21
135.6703435120645054
 31
0.0
  0
LINE
  5
2FA03
  8
0
 10
3456.7172153315350442
 20
135.6504872606589061
 30
0.0
 11
3456.7172153315350442
 21
135.669049307984011
 31
0.0
  0
LINE
  5
2FA04
  8
0
 10
3456.7450541812181655
 20
135.6656106607426864
 30
0.0
 11
3456.7450541812181655
 21
135.6707792758614062
 31
0.0
  0
LINE
  5
2FA05
  8
0
 10
3456.7647392205171855
 20
135.6635875125728887
 30
0.0
 11
3456.7647392205171855
 21
135.671607061305906
 31
0.0
  0
LINE
  5
2FA06
  8
0
 10
3456.8007318805180148
 20
135.661744882301889
 30
0.0
 11
3456.8007318805180148
 21
135.6723625759169067
 31
0.0
  0
LINE
  5
2FA07
  8
0
 10
3456.6893764819178614
 20
135.6601486272745944
 30
0.0
 11
3456.6893764818369164
 21
135.6382849733959119
 31
0.0
  0
LINE
  5
2FA08
  8
0
 10
3456.7090615213242017
 20
135.656113316152414
 30
0.0
 11
3456.7090615212050579
 21
135.6343552870816893
 31
0.0
  0
LINE
  5
2FA09
  8
0
 10
3456.6615376322179145
 20
135.6489559584018991
 30
0.0
 11
3456.6615376322411066
 21
135.6289098840723
 31
0.0
  0
LINE
  5
2FA0A
  8
0
 10
3456.6812226716178884
 20
135.6240283905659112
 30
0.0
 11
3456.6812226716178884
 21
135.6439617062532079
 31
0.0
  0
LINE
  5
2FA0B
  8
0
 10
3456.6893764818441923
 20
135.6256959162747933
 30
0.0
 11
3456.6893764818651107
 21
135.6076694649121066
 31
0.0
  0
LINE
  5
2FA0C
  8
0
 10
3456.7090615212177909
 20
135.603865806419293
 30
0.0
 11
3456.7090615212609919
 21
135.6218212766418105
 31
0.0
  0
LINE
  5
2FA0D
  8
0
 10
3456.6812226716178884
 20
135.6125984900384083
 30
0.0
 11
3456.6812226716178884
 21
135.5963273540018861
 31
0.0
  0
LINE
  5
2FA0E
  8
0
 10
3456.6615376321678923
 20
135.6010773974686003
 30
0.0
 11
3456.6615376321119584
 21
135.6174219140833088
 31
0.0
  0
LINE
  5
2FA0F
  8
0
 10
3456.6533838219179415
 20
135.6346591872018905
 30
0.0
 11
3456.6533838218888377
 21
135.6164646205212989
 31
0.0
  0
LINE
  5
2FA10
  8
0
 10
3456.6336987824802236
 20
135.6223165366712919
 30
0.0
 11
3456.6336987825179676
 21
135.6406261555796959
 31
0.0
  0
LINE
  5
2FA11
  8
0
 10
3456.6336987825179676
 20
135.6118925313444095
 30
0.0
 11
3456.6336987825111464
 21
135.5971906413120109
 31
0.0
  0
LINE
  5
2FA12
  8
0
 10
3456.6533838219529571
 20
135.5914677700951074
 30
0.0
 11
3456.6533838219179415
 21
135.6060986845612035
 31
0.0
  0
LINE
  5
2FA13
  8
0
 10
3456.6615376322961311
 20
135.5918340183999931
 30
0.0
 11
3456.6615376322961311
 21
135.5853875069063008
 31
0.0
  0
LINE
  5
2FA14
  8
0
 10
3456.6812226715578618
 20
135.5871198793954022
 30
0.0
 11
3456.6812226715578618
 21
135.5806930117701086
 31
0.0
  0
LINE
  5
2FA15
  8
0
 10
3456.6255449722261801
 20
135.6023225650577047
 30
0.0
 11
3456.6255449722261801
 21
135.5958433494108135
 31
0.0
  0
LINE
  5
2FA16
  8
0
 10
3456.6058610163108824
 20
135.6091239644202915
 30
0.0
 11
3456.6058610163108824
 21
135.6026122179154072
 31
0.0
  0
LINE
  5
2FA17
  8
0
 10
3456.5977061226431033
 20
135.6244671742767878
 30
0.0
 11
3456.5977061226558362
 21
135.6096059117022889
 31
0.0
  0
LINE
  5
2FA18
  8
0
 10
3456.578021083303156
 20
135.617516707682114
 30
0.0
 11
3456.5780210832181183
 21
135.6324835717003907
 31
0.0
  0
LINE
  5
2FA19
  8
0
 10
3456.5501822336441364
 20
135.6327541245370867
 30
0.0
 11
3456.5501822335968427
 21
135.6194462766233073
 31
0.0
  0
LINE
  5
2FA1A
  8
0
 10
3456.5420284233177881
 20
135.6141836473018998
 30
0.0
 11
3456.5420284233177881
 21
135.6257307726019121
 31
0.0
  0
LINE
  5
2FA1B
  8
0
 10
3456.5223433840428697
 20
135.6182315623298109
 30
0.0
 11
3456.5223433839410063
 21
135.6102142772029993
 31
0.0
  0
LINE
  5
2FA1C
  8
0
 10
3456.5420284233177881
 20
135.5999793734000889
 30
0.0
 11
3456.5420284233177881
 21
135.6079844364593043
 31
0.0
  0
LINE
  5
2FA1D
  8
0
 10
3456.5223433839942118
 20
135.6062742758770128
 30
0.0
 11
3456.5223433839178142
 21
135.6018598297019082
 31
0.0
  0
LINE
  5
2FA1E
  8
0
 10
3456.5420284233427992
 20
135.5915291436909058
 30
0.0
 11
3456.5420284232709491
 21
135.5960165887028097
 31
0.0
  0
LINE
  5
2FA1F
  8
0
 10
3456.5698672729831742
 20
135.6331279493516035
 30
0.0
 11
3456.5698672729831742
 21
135.6461035798878925
 31
0.0
  0
LINE
  5
2FA20
  8
0
 10
3456.5962256821849223
 20
135.6356311248246129
 30
0.0
 11
3456.5962256821849223
 21
135.6525861787237091
 31
0.0
  0
LINE
  5
2FA21
  8
0
 10
3456.5780210832090233
 20
135.6431247448192039
 30
0.0
 11
3456.5780210832090233
 21
135.6482972498949948
 31
0.0
  0
LINE
  5
2FA22
  8
0
 10
3456.6255449722689264
 20
135.6397819243757965
 30
0.0
 11
3456.6255449722689264
 21
135.6583167752363863
 31
0.0
  0
LINE
  5
2FA23
  8
0
 10
3456.6058599328948731
 20
135.6468401904284065
 30
0.0
 11
3456.6058599328948731
 21
135.6546253679615006
 31
0.0
  0
LINE
  5
2FA24
  8
0
 10
3456.6336987824711287
 20
135.6534352043150875
 30
0.0
 11
3456.6336987824711287
 21
135.6596610085418888
 31
0.0
  0
LINE
  5
2FA25
  8
0
 10
3456.6533838219179415
 20
135.6473787760018865
 30
0.0
 11
3456.6533838219179415
 21
135.6624818448115946
 31
0.0
  0
LINE
  5
2FA26
  8
0
 10
3456.6812226715710494
 20
135.6578297452088862
 30
0.0
 11
3456.6812226715710494
 21
135.6657937507019085
 31
0.0
  0
LINE
  5
2FA27
  8
0
 10
3456.6893764819178614
 20
135.5973884821019055
 30
0.0
 11
3456.6893764819178614
 21
135.5828614937396139
 31
0.0
  0
LINE
  5
2FA28
  8
0
 10
3456.7090615212177909
 20
135.5791376957018883
 30
0.0
 11
3456.7090615212177909
 21
135.5936207283272097
 31
0.0
  0
ARC
  5
2FA29
  8
0
 10
3456.8101572463679076
 20
134.317219060338914
 30
0.0
 40
1.456276216777989
 50
89.983599046645196
 51
94.6118452310065265
  0
ARC
  5
2FA2A
  8
0
 10
3456.7734626393307735
 20
134.7721136857012141
 30
0.0
 40
0.9999039845277348
 50
94.6118452310065265
 51
102.6905403806811989
  0
ARC
  5
2FA2B
  8
0
 10
3456.6218562723761352
 20
135.4453624519067887
 30
0.0
 40
0.3097964626888201
 50
102.6905403806811989
 51
114.9841311417425942
  0
ARC
  5
2FA2C
  8
0
 10
3456.5311110726211155
 20
135.6401069625914033
 30
0.0
 40
0.0949474093504723
 50
114.9841311417425942
 51
136.3880402042670141
  0
ARC
  5
2FA2D
  8
0
 10
3456.4784700555542258
 20
135.6902790753356101
 30
0.0
 40
0.0222265972563359
 50
136.4287141226178051
 51
180.2624731203121087
  0
LINE
  5
2FA2E
  8
0
 10
3456.4562436915180115
 20
135.6901772552018031
 30
0.0
 11
3456.4562436915180115
 21
135.6333218822018978
 31
0.0
  0
ARC
  5
2FA2F
  8
0
 10
3456.5134439615321753
 20
135.6333218822018978
 30
0.0
 40
0.0572002700141861
 50
180.0
 51
196.8785898129196994
  0
ARC
  5
2FA30
  8
0
 10
3456.5195895356800975
 20
135.6351865422232947
 30
0.0
 40
0.0636225000478887
 50
196.8785898129196994
 51
221.8100080722599046
  0
ARC
  5
2FA31
  8
0
 10
3456.576856194938955
 20
135.6864068474027931
 30
0.0
 40
0.140453417817401
 50
221.8100080722599046
 51
235.4125522456903923
  0
ARC
  5
2FA32
  8
0
 10
3456.5432157108380125
 20
135.6376193261654066
 30
0.0
 40
0.081192094857019
 50
235.4125522456903923
 51
249.1498966682908076
  0
ARC
  5
2FA33
  8
0
 10
3456.6510410750797746
 20
135.8862016330083975
 30
0.0
 40
0.3520880945457473
 50
247.1498614551470041
 51
257.8267799918854166
  0
ARC
  5
2FA34
  8
0
 10
3456.8755526153991013
 20
137.9532381355168127
 30
0.0
 40
2.4351629914501451
 50
265.3293134417232864
 51
268.471144972767604
  0
ARC
  5
2FA35
  8
0
 10
3456.7627222078540399
 20
136.3931725471553875
 30
0.0
 40
0.8712124611658374
 50
257.6777533369522075
 51
264.370522346405096
  0
ARC
  5
2FA36
  8
0
 10
3456.8106739614518119
 20
134.2875785662149895
 30
0.0
 40
1.388742041846398
 50
90.0038137686578068
 51
94.5201689388756279
  0
ARC
  5
2FA37
  8
0
 10
3456.77299913427305
 20
134.729065622025189
 30
0.0
 40
0.9456630494470569
 50
94.3527011003414344
 51
100.771417906137799
  0
ARC
  5
2FA38
  8
0
 10
3456.6646050339609246
 20
135.2700110651821035
 30
0.0
 40
0.3940276429766695
 50
99.9881718519143448
 51
112.2917980942848999
  0
ARC
  5
2FA39
  8
0
 10
3456.5555399977470188
 20
135.5358136125059048
 30
0.0
 40
0.1067191899003035
 50
112.2441518589109961
 51
130.8882502240143992
  0
ARC
  5
2FA3A
  8
0
 10
3456.5096248878348888
 20
135.5903465738365981
 30
0.0
 40
0.0354512552373187
 50
132.4807892110785872
 51
153.0606302546449058
  0
ARC
  5
2FA3B
  8
0
 10
3456.4967411937759607
 20
135.5972688280081115
 30
0.0
 40
0.0208321879964717
 50
153.979758642751591
 51
175.62057213128341
  0
ARC
  5
2FA3C
  8
0
 10
3456.5058334132208984
 20
135.5975969965988099
 30
0.0
 40
0.0298902610401469
 50
177.5790405562883905
 51
185.2895874553780118
  0
ARC
  5
2FA3D
  8
0
 10
3456.4990325135381681
 20
135.5986396893312076
 30
0.0
 40
0.023274097195206
 50
189.3925154842023062
 51
222.0122631631637944
  0
ARC
  5
2FA3E
  8
0
 10
3456.5742888384811522
 20
136.0491352890113887
 30
0.0
 40
0.4368397400084885
 50
242.8350731787205916
 51
254.3566209579780946
  0
ARC
  5
2FA3F
  8
0
 10
3456.532480016207046
 20
135.9676614827614003
 30
0.0
 40
0.3452648595837748
 50
231.5166505058242024
 51
242.8350731787205916
  0
ARC
  5
2FA40
  8
0
 10
3456.4597099319198605
 20
135.8761223580821138
 30
0.0
 40
0.2283251464221232
 50
222.3153064907425005
 51
231.5166505058242024
  0
ARC
  5
2FA41
  8
0
 10
3456.9891619043410174
 20
136.4374191998419121
 30
0.0
 40
0.9994203606592158
 50
198.2219238329304005
 51
225.6778204310361104
  0
LINE
  5
2FA42
  8
0
 10
3456.0398600070088833
 20
136.1249020562744079
 30
0.0
 11
3456.031269065350898
 21
136.3509919140018951
 31
0.0
  0
ARC
  5
2FA43
  8
0
 10
3456.8427953940881707
 20
133.1306503201404894
 30
0.0
 40
2.679893542942938
 50
90.6887450137391653
 51
95.5733189240244343
  0
ARC
  5
2FA44
  8
0
 10
3456.6212792097089732
 20
135.2179611894715094
 30
0.0
 40
0.5812075418292356
 50
93.8231864219719398
 51
110.1050268671693999
  0
ARC
  5
2FA45
  8
0
 10
3456.4719950988478558
 20
135.6164690682873015
 30
0.0
 40
0.1557008261659444
 50
108.9261289687771068
 51
129.4882784111798912
  0
ARC
  5
2FA46
  8
0
 10
3456.4029597908079268
 20
135.7002505094368985
 30
0.0
 40
0.0471411483970503
 50
129.4882784111597971
 51
156.8197473316901096
  0
ARC
  5
2FA47
  8
0
 10
3456.3824945314217985
 20
135.7090135828607913
 30
0.0
 40
0.0248786620678465
 50
156.8197473316870116
 51
213.9888929759993914
  0
ARC
  5
2FA48
  8
0
 10
3456.4374024074982117
 20
135.7460339281539916
 30
0.0
 40
0.0911008699799343
 50
213.9888929759993914
 51
221.9678300847778019
  0
ARC
  5
2FA49
  8
0
 10
3456.578122249738044
 20
136.0521215276015141
 30
0.0
 40
0.426950826154494
 50
247.0377717010692038
 51
253.4134884655751989
  0
ARC
  5
2FA4A
  8
0
 10
3456.4800496030661634
 20
135.8206527093242926
 30
0.0
 40
0.1755625649728374
 50
235.3722459458440994
 51
247.0377717010692038
  0
ARC
  5
2FA4B
  8
0
 10
3456.4220693206398209
 20
135.7366925457995137
 30
0.0
 40
0.073528148184749
 50
224.5463584327274873
 51
235.3722459458440994
  0
ARC
  5
2FA4C
  8
0
 10
3456.1636719978600922
 20
135.4823549068921125
 30
0.0
 40
0.289041584397697
 50
44.5463584327275299
 51
48.9931508706927872
  0
ARC
  5
2FA4D
  8
0
 10
3456.3889194577459421
 20
135.7414099185847931
 30
0.0
 40
0.0542453469997692
 50
212.6287003244345044
 51
228.9931508706928014
  0
ARC
  5
2FA4E
  8
0
 10
3456.3704634941132099
 20
135.7295938072780928
 30
0.0
 40
0.0323308978847463
 50
179.5823150590622106
 51
212.6287003244331117
  0
ARC
  5
2FA4F
  8
0
 10
3456.3624776604510771
 20
135.7296520248567901
 30
0.0
 40
0.024344852018686
 50
144.395154641694802
 51
179.5823150590622106
  0
ARC
  5
2FA50
  8
0
 10
3456.4076901226458176
 20
135.697277297516905
 30
0.0
 40
0.0799532120744611
 50
114.5967565960197021
 51
144.395154641694802
  0
ARC
  5
2FA51
  8
0
 10
3456.707535544619077
 20
136.0350390330312962
 30
0.0
 40
0.5175600726419285
 50
218.1597360729570028
 51
219.7632381794634
  0
ARC
  5
2FA52
  8
0
 10
3456.3196050863871278
 20
135.7322101520830131
 30
0.0
 40
0.0254777312477094
 50
186.6585165029648863
 51
221.7004533298326123
  0
ARC
  5
2FA53
  8
0
 10
3456.8141721251968193
 20
134.0957215879674038
 30
0.0
 40
1.7333430391864439
 50
90.1186877046310144
 51
97.0074883875796843
  0
ARC
  5
2FA54
  8
0
 10
3456.8059872562189412
 20
134.1623041394616109
 30
0.0
 40
1.6662592986592819
 50
97.00746360472003
 51
101.7565556061667991
  0
ARC
  5
2FA55
  8
0
 10
3456.6761890760990354
 20
134.7859750338280094
 30
0.0
 40
1.0292248003450799
 50
101.7565556061667991
 51
106.8414763512815995
  0
ARC
  5
2FA56
  8
0
 10
3455.9189923089961667
 20
137.2873860331316962
 30
0.0
 40
1.5842793476424739
 50
286.7060264364021123
 51
286.841476351281699
  0
ARC
  5
2FA57
  8
0
 10
3456.6541207005798242
 20
134.838011535554898
 30
0.0
 40
0.9730335353448346
 50
106.7060264364020981
 51
109.2032383744013941
  0
ARC
  5
2FA58
  8
0
 10
3456.4006881492009597
 20
135.5656382697121956
 30
0.0
 40
0.2025345266764623
 50
109.2032383744013941
 51
118.6662397557149973
  0
ARC
  5
2FA59
  8
0
 10
3456.314054474320983
 20
135.7240995045391969
 30
0.0
 40
0.0219373047538143
 50
118.6662397557149973
 51
145.0204501021308943
  0
ARC
  5
2FA5A
  8
0
 10
3456.3046156915320353
 20
135.7307035920053124
 30
0.0
 40
0.0104175568488933
 50
145.0204501021322017
 51
187.9876738954407926
  0
ARC
  5
2FA5B
  8
0
 10
3456.8105954216489408
 20
134.3467735432637937
 30
0.0
 40
1.325625412314519
 50
87.2975084851279348
 51
90.0009348786513073
  0
ARC
  5
2FA5C
  8
0
 10
3456.8194573943560499
 20
134.5345177163902122
 30
0.0
 40
1.1376722024372541
 50
82.1616293432177685
 51
87.2975084851279348
  0
ARC
  5
2FA5D
  8
0
 10
3456.8868408257471856
 20
135.0239906570926962
 30
0.0
 40
0.6435828517061103
 50
76.3192999852942506
 51
82.1616293432177685
  0
ARC
  5
2FA5E
  8
0
 10
3456.9562266787329463
 20
135.3090401208314972
 30
0.0
 40
0.3502100626264428
 50
68.689299432692934
 51
76.3192999852942506
  0
ARC
  5
2FA5F
  8
0
 10
3457.0358775234558379
 20
135.5132212918904031
 30
0.0
 40
0.1310429855366077
 50
55.2269049905365534
 51
68.689299432692934
  0
ARC
  5
2FA60
  8
0
 10
3457.0858552796439653
 20
135.5852019606222996
 30
0.0
 40
0.04341312313396
 50
30.6771063170933189
 51
55.2269049905365534
  0
ARC
  5
2FA61
  8
0
 10
3457.1079931518338526
 20
135.5983345059331953
 30
0.0
 40
0.0176730933851642
 50
329.2045839324368899
 51
30.6771063170947187
  0
ARC
  5
2FA62
  8
0
 10
3456.4401315763529965
 20
155.1524517118683946
 30
0.0
 40
19.6318958716854191
 50
271.0812240654034895
 51
271.186388375839897
  0
ARC
  5
2FA63
  8
0
 10
3456.8127381911199336
 20
136.7805473884729111
 30
0.0
 40
1.256239740500112
 50
271.544957872969519
 51
275.0154872880481776
  0
ARC
  5
2FA64
  8
0
 10
3456.8465900278988556
 20
136.3899535335187068
 30
0.0
 40
0.864184434355835
 50
274.9332094905030885
 51
283.210578385860515
  0
ARC
  5
2FA65
  8
0
 10
3456.9892746081882251
 20
135.7821195297246106
 30
0.0
 40
0.2398279131114953
 50
283.210578385860515
 51
298.9511070679342879
  0
ARC
  5
2FA66
  8
0
 10
3457.0819619934190996
 20
135.6145700286976989
 30
0.0
 40
0.0483500118400317
 50
298.9511070679342879
 51
328.4709789921838023
  0
ARC
  5
2FA67
  8
0
 10
3457.070647181170898
 20
135.6603800529728119
 30
0.0
 40
0.066805352764098
 50
308.1838392121752008
 51
315.782092795318988
  0
ARC
  5
2FA68
  8
0
 10
3457.0554659484059812
 20
135.6796831594946866
 30
0.0
 40
0.0913630348548323
 50
294.9891112644967279
 51
308.1838392121752008
  0
ARC
  5
2FA69
  8
0
 10
3456.808123701679051
 20
136.1201949836577114
 30
0.0
 40
0.5963445040201196
 50
291.3926033567535114
 51
298.6517667281369768
  0
ARC
  5
2FA6A
  8
0
 10
3456.8080670796130107
 20
136.1265503700371085
 30
0.0
 40
0.602286936711522
 50
283.5887590570943075
 51
291.1770899341686913
  0
ARC
  5
2FA6B
  8
0
 10
3456.8677832315302112
 20
135.8324279182602936
 30
0.0
 40
0.3025696338377783
 50
277.9082708459362721
 51
285.6835838891460071
  0
ARC
  5
2FA6C
  8
0
 10
3456.8198196284629375
 20
136.0515325467895877
 30
0.0
 40
0.5264760235573755
 50
273.0961151184449136
 51
279.7980331476330775
  0
ARC
  5
2FA6D
  8
0
 10
3457.0766601283180535
 20
130.9446634521262922
 30
0.0
 40
4.58685185778904
 50
92.8542569438228753
 51
93.2406223732526342
  0
ARC
  5
2FA6E
  8
0
 10
3456.7873198773831973
 20
136.378211128132989
 30
0.0
 40
0.8481732865137088
 50
271.5715671173601891
 51
276.7940986081089818
  0
ARC
  5
2FA6F
  8
0
 10
3456.8107924947998981
 20
136.1345170171958898
 30
0.0
 40
0.6034388815881144
 50
277.3183788885876879
 51
285.0520626096230217
  0
ARC
  5
2FA70
  8
0
 10
3456.8117755435641811
 20
136.1308615189815896
 30
0.0
 40
0.5996535081499658
 50
285.0520626096230217
 51
292.7026176108582831
  0
ARC
  5
2FA71
  8
0
 10
3456.8131882817838232
 20
136.1274846929013052
 30
0.0
 40
0.5959930732501777
 50
292.7026176108582831
 51
295.1910167961847264
  0
LINE
  5
2FA72
  8
0
 10
3457.0668652368208313
 20
135.5881742573959059
 30
0.0
 11
3457.0673706524089539
 21
135.589337511979096
 31
0.0
  0
LINE
  5
2FA73
  8
0
 10
3457.0668652368208313
 20
135.5881742573959059
 30
0.0
 11
3457.0503735376960321
 21
135.5980406093019042
 31
0.0
  0
LINE
  5
2FA74
  8
0
 10
3457.0503735376960321
 20
135.5980406093019042
 30
0.0
 11
3457.0503735376960321
 21
135.5863035879019094
 31
0.0
  0
LINE
  5
2FA75
  8
0
 10
3457.0503735376960321
 20
135.5863035879019094
 30
0.0
 11
3457.0161956818960789
 21
135.5863035879019094
 31
0.0
  0
LINE
  5
2FA76
  8
0
 10
3457.0161956818960789
 20
135.5863035879019094
 30
0.0
 11
3457.0161956818960789
 21
135.5911966970739968
 31
0.0
  0
LINE
  5
2FA77
  8
0
 10
3457.0673706523571127
 20
135.5893375119568134
 30
0.0
 11
3457.0709659791259583
 21
135.5910456992199897
 31
0.0
  0
LINE
  5
2FA78
  8
0
 10
3457.0709659791259583
 20
135.5910456992199897
 30
0.0
 11
3457.0808084987888833
 21
135.5987324794768085
 31
0.0
  0
LINE
  5
2FA79
  8
0
 10
3457.0808084987888833
 20
135.5987324794768085
 30
0.0
 11
3457.0709677577960974
 21
135.5973199772018916
 31
0.0
  0
LINE
  5
2FA7A
  8
0
 10
3457.0709677577960974
 20
135.5973199772018916
 30
0.0
 11
3457.0689482611501262
 21
135.5963601121960096
 31
0.0
  0
LINE
  5
2FA7B
  8
0
 10
3457.0689482611501262
 20
135.5963601121960096
 30
0.0
 11
3457.0530734169960851
 21
135.6059693797018895
 31
0.0
  0
LINE
  5
2FA7C
  8
0
 10
3457.0689482585971746
 20
135.596360079601908
 30
0.0
 11
3457.0691380206958456
 21
135.5987811793019091
 31
0.0
  0
LINE
  5
2FA7D
  8
0
 10
3457.0691380206958456
 20
135.5987811793019091
 30
0.0
 11
3457.0689482299899282
 21
135.6014349841734088
 31
0.0
  0
LINE
  5
2FA7E
  8
0
 10
3457.0689482299899282
 20
135.6014349841734088
 30
0.0
 11
3457.0580003054319604
 21
135.6081623862133938
 31
0.0
  0
LINE
  5
2FA7F
  8
0
 10
3457.0689482581951779
 20
135.6014349665018983
 30
0.0
 11
3457.0709670872961397
 21
135.6023950120959967
 31
0.0
  0
LINE
  5
2FA80
  8
0
 10
3457.0709670872961397
 20
135.6023950120959967
 30
0.0
 11
3457.080808498884835
 21
135.6118246513929932
 31
0.0
  0
LINE
  5
2FA81
  8
0
 10
3457.080808498884835
 20
135.6118246513929932
 30
0.0
 11
3457.0709669884959112
 21
135.6121551563018954
 31
0.0
  0
LINE
  5
2FA82
  8
0
 10
3457.0709669884959112
 20
135.6121551563018954
 30
0.0
 11
3457.0675105121449633
 21
135.610512893951892
 31
0.0
  0
LINE
  5
2FA83
  8
0
 10
3457.0675105121449633
 20
135.610512893951892
 30
0.0
 11
3457.0668644032271004
 21
135.6122434505087995
 31
0.0
  0
ARC
  5
2FA84
  8
0
 10
3456.812843662126852
 20
136.1523111568087074
 30
0.0
 40
0.5968246512143286
 50
294.2531069183626187
 51
295.1899384250435219
  0
ARC
  5
2FA85
  8
0
 10
3456.8129051876508129
 20
136.1521719657716858
 30
0.0
 40
0.596672472476718
 50
292.0714121526563076
 51
294.2532106257103806
  0
ARC
  5
2FA86
  8
0
 10
3456.8115248135591173
 20
136.1556616034810929
 30
0.0
 40
0.6004250692697949
 50
283.7901052213156277
 51
292.0683530162302759
  0
ARC
  5
2FA87
  8
0
 10
3456.7918089751369735
 20
136.3313790621060093
 30
0.0
 40
0.7771792875367352
 50
271.3840980997845804
 51
277.8743591704960068
  0
ARC
  5
2FA88
  8
0
 10
3456.810701202402015
 20
136.1593459398492882
 30
0.0
 40
0.6041995320994265
 50
278.3347282836018053
 51
283.7826754806001759
  0
LINE
  5
2FA89
  8
0
 10
3457.0692568615500022
 20
135.5989282903541948
 30
0.0
 11
3457.0791147142008413
 21
135.6079941978742056
 31
0.0
  0
LINE
  5
2FA8A
  8
0
 10
3457.0791147142008413
 20
135.6079941978742056
 30
0.0
 11
3457.0988048286708363
 21
135.6182315623298109
 31
0.0
  0
LINE
  5
2FA8B
  8
0
 10
3457.0988048286708363
 20
135.6182315623298109
 30
0.0
 11
3457.1086473483519512
 21
135.6194196417478111
 31
0.0
  0
LINE
  5
2FA8C
  8
0
 10
3457.1086473483519512
 20
135.6194196417478111
 30
0.0
 11
3457.0988048287731544
 21
135.6102142772029993
 31
0.0
  0
LINE
  5
2FA8D
  8
0
 10
3457.0988048287731544
 20
135.6102142772029993
 30
0.0
 11
3457.0791197893950084
 21
135.5999793734000889
 31
0.0
  0
LINE
  5
2FA8E
  8
0
 10
3457.0791197893950084
 20
135.5999793734000889
 30
0.0
 11
3457.0692568615500022
 21
135.5989282903541948
 31
0.0
  0
LINE
  5
2FA8F
  8
0
 10
3457.0692772698398585
 20
135.5887002383890945
 30
0.0
 11
3457.0791197894432116
 21
135.5960165887028097
 31
0.0
  0
LINE
  5
2FA90
  8
0
 10
3457.0791197894432116
 20
135.5960165887028097
 30
0.0
 11
3457.0988048287190395
 21
135.6062742758770128
 31
0.0
  0
LINE
  5
2FA91
  8
0
 10
3457.0988048287190395
 20
135.6062742758770128
 30
0.0
 11
3457.1086473483242116
 21
135.6092914598677908
 31
0.0
  0
LINE
  5
2FA92
  8
0
 10
3457.1086473483242116
 20
135.6092914598677908
 30
0.0
 11
3457.0988048287958918
 21
135.6018598297019082
 31
0.0
  0
LINE
  5
2FA93
  8
0
 10
3457.0988048287958918
 20
135.6018598297019082
 30
0.0
 11
3457.0791197893709068
 21
135.5915291436909058
 31
0.0
  0
LINE
  5
2FA94
  8
0
 10
3457.0791197893709068
 20
135.5915291436909058
 30
0.0
 11
3457.0692772697361761
 21
135.5887002383634865
 31
0.0
  0
LINE
  5
2FA95
  8
0
 10
3457.0808084988279916
 20
135.5914193338238078
 30
0.0
 11
3457.0709659791400554
 21
135.5881870461346921
 31
0.0
  0
LINE
  5
2FA96
  8
0
 10
3457.0709659791400554
 20
135.5881870461346921
 30
0.0
 11
3457.0592594183372057
 21
135.5827088052853924
 31
0.0
  0
LINE
  5
2FA97
  8
0
 10
3457.0592594183372057
 20
135.5827088052853924
 30
0.0
 11
3457.0543505933669621
 21
135.5788975371933986
 31
0.0
  0
LINE
  5
2FA98
  8
0
 10
3457.0543505933669621
 20
135.5788975371933986
 30
0.0
 11
3457.0416807292458543
 21
135.5733895421018929
 31
0.0
  0
LINE
  5
2FA99
  8
0
 10
3457.0416807292458543
 20
135.5733895421018929
 30
0.0
 11
3457.051280939695971
 21
135.576331258454104
 31
0.0
  0
LINE
  5
2FA9A
  8
0
 10
3457.051280939695971
 20
135.576331258454104
 30
0.0
 11
3457.0709659790959449
 21
135.5854603236946048
 31
0.0
  0
LINE
  5
2FA9B
  8
0
 10
3457.0709659790959449
 20
135.5854603236946048
 30
0.0
 11
3457.0808084988279916
 21
135.5914193338238078
 31
0.0
  0
LINE
  5
2FA9C
  8
0
 10
3457.1010641667048731
 20
135.6269005142677884
 30
0.0
 11
3457.0988048287958918
 21
135.624441334469509
 31
0.0
  0
LINE
  5
2FA9D
  8
0
 10
3457.0988048287958918
 20
135.624441334469509
 30
0.0
 11
3457.0791197893950084
 21
135.6141836473018998
 31
0.0
  0
LINE
  5
2FA9E
  8
0
 10
3457.0791197893950084
 20
135.6141836473018998
 30
0.0
 11
3457.0692772696520478
 21
135.6148845821228974
 31
0.0
  0
LINE
  5
2FA9F
  8
0
 10
3457.0692772696520478
 20
135.6148845821228974
 30
0.0
 11
3457.0791197893950084
 21
135.6257307726019121
 31
0.0
  0
LINE
  5
2FAA0
  8
0
 10
3457.0791197893950084
 20
135.6257307726019121
 30
0.0
 11
3457.0912898988208326
 21
135.6319720085816982
 31
0.0
  0
LINE
  5
2FAA1
  8
0
 10
3457.080808498837996
 20
135.6306958495250115
 30
0.0
 11
3457.0709659790709338
 21
135.6327541245370867
 31
0.0
  0
LINE
  5
2FAA2
  8
0
 10
3457.0709659790709338
 20
135.6327541245370867
 30
0.0
 11
3457.051280939695971
 21
135.6236250592309887
 31
0.0
  0
LINE
  5
2FAA3
  8
0
 10
3457.051280939695971
 20
135.6236250592309887
 30
0.0
 11
3457.0414384200298628
 21
135.6125291403184008
 31
0.0
  0
LINE
  5
2FAA4
  8
0
 10
3457.0414384200298628
 20
135.6125291403184008
 30
0.0
 11
3457.0543505932200787
 21
135.6177793038019104
 31
0.0
  0
LINE
  5
2FAA5
  8
0
 10
3457.0543505932200787
 20
135.6177793038019104
 30
0.0
 11
3457.0592594182958237
 21
135.6139680357019017
 31
0.0
  0
LINE
  5
2FAA6
  8
0
 10
3457.0592594182958237
 20
135.6139680357019017
 30
0.0
 11
3457.0709659791168633
 21
135.6194462766233073
 31
0.0
  0
LINE
  5
2FAA7
  8
0
 10
3457.0709659791168633
 20
135.6194462766233073
 30
0.0
 11
3457.0808084988279916
 21
135.6306958495135859
 31
0.0
  0
LINE
  5
2FAA8
  8
0
 10
3457.0680509172161692
 20
135.6409172481731105
 30
0.0
 11
3457.0512809397300771
 21
135.6331279493516035
 31
0.0
  0
LINE
  5
2FAA9
  8
0
 10
3457.0512809397300771
 20
135.6331279493516035
 30
0.0
 11
3457.0414384200480526
 21
135.6369643580142963
 31
0.0
  0
LINE
  5
2FAAA
  8
0
 10
3457.0414384200480526
 20
135.6369643580142963
 30
0.0
 11
3457.0489184166440282
 21
135.6467609074109077
 31
0.0
  0
LINE
  5
2FAAB
  8
0
 10
3457.0463627653989533
 20
135.6474519614124858
 30
0.0
 11
3457.0431271295051374
 21
135.6431247448192039
 31
0.0
  0
LINE
  5
2FAAC
  8
0
 10
3457.0431271295051374
 20
135.6431247448192039
 30
0.0
 11
3457.0234420900778787
 21
135.6350217261675937
 31
0.0
  0
LINE
  5
2FAAD
  8
0
 10
3457.0234420900778787
 20
135.6350217261675937
 30
0.0
 11
3457.0135995703940353
 21
135.6402338019861986
 31
0.0
  0
LINE
  5
2FAAE
  8
0
 10
3457.0135995703940353
 20
135.6402338019861986
 30
0.0
 11
3457.0230032274957921
 21
135.653004716840087
 31
0.0
  0
LINE
  5
2FAAF
  8
0
 10
3457.0202062064581696
 20
135.6536036828773888
 30
0.0
 11
3457.0152882798179235
 21
135.6468401904284065
 31
0.0
  0
LINE
  5
2FAB0
  8
0
 10
3457.0152882798179235
 20
135.6468401904284065
 30
0.0
 11
3456.9956032404438702
 21
135.6397819243757965
 31
0.0
  0
LINE
  5
2FAB1
  8
0
 10
3456.9956032404438702
 20
135.6397819243757965
 30
0.0
 11
3456.9857607207140973
 21
135.6463628344426127
 31
0.0
  0
LINE
  5
2FAB2
  8
0
 10
3456.9857607207140973
 20
135.6463628344426127
 30
0.0
 11
3456.994506992451079
 21
135.6585037645673992
 31
0.0
  0
LINE
  5
2FAB3
  8
0
 10
3456.9913811965338937
 20
135.6590497874227879
 30
0.0
 11
3456.9874494302430321
 21
135.6534352043150875
 31
0.0
  0
LINE
  5
2FAB4
  8
0
 10
3456.9874494302430321
 20
135.6534352043150875
 30
0.0
 11
3456.9677643907962192
 21
135.6473787760018865
 31
0.0
  0
LINE
  5
2FAB5
  8
0
 10
3456.9677643907962192
 20
135.6473787760018865
 30
0.0
 11
3456.9579218711469366
 21
135.6553444667588906
 31
0.0
  0
LINE
  5
2FAB6
  8
0
 10
3456.9579218711469366
 20
135.6553444667588906
 30
0.0
 11
3456.9633630437920147
 21
135.6630518116919859
 31
0.0
  0
LINE
  5
2FAB7
  8
0
 10
3456.9600024951691921
 20
135.6634752509484088
 30
0.0
 11
3456.9596105804957915
 21
135.6629106201019113
 31
0.0
  0
LINE
  5
2FAB8
  8
0
 10
3456.9596105804957915
 20
135.6629106201019113
 30
0.0
 11
3456.9399255411431113
 21
135.6578297452088862
 31
0.0
  0
LINE
  5
2FAB9
  8
0
 10
3456.9399255411431113
 20
135.6578297452088862
 30
0.0
 11
3456.9305542837350913
 21
135.6667524629727097
 31
0.0
  0
LINE
  5
2FABA
  8
0
 10
3456.9317717307958446
 20
135.6601486272745944
 30
0.0
 11
3456.9416142505260723
 21
135.6511727864740067
 31
0.0
  0
LINE
  5
2FABB
  8
0
 10
3456.9416142505260723
 20
135.6511727864740067
 30
0.0
 11
3456.9317717308767897
 21
135.6382849733959119
 31
0.0
  0
LINE
  5
2FABC
  8
0
 10
3456.9317717308767897
 20
135.6382849733959119
 30
0.0
 11
3456.9120866915091028
 21
135.6343552870816893
 31
0.0
  0
LINE
  5
2FABD
  8
0
 10
3456.9120866915091028
 20
135.6343552870816893
 30
0.0
 11
3456.9022441717329457
 21
135.6432097148095011
 31
0.0
  0
LINE
  5
2FABE
  8
0
 10
3456.9022441717329457
 20
135.6432097148095011
 30
0.0
 11
3456.912086691389959
 21
135.656113316152414
 31
0.0
  0
LINE
  5
2FABF
  8
0
 10
3456.912086691389959
 20
135.656113316152414
 30
0.0
 11
3456.9317717307958446
 21
135.6601486272745944
 31
0.0
  0
LINE
  5
2FAC0
  8
0
 10
3456.9091515390300628
 20
135.6686486614798071
 30
0.0
 11
3456.9137754008729644
 21
135.6638448886751007
 31
0.0
  0
LINE
  5
2FAC1
  8
0
 10
3456.9137754008729644
 20
135.6638448886751007
 30
0.0
 11
3456.9039328811791165
 21
135.6504872606589061
 31
0.0
  0
LINE
  5
2FAC2
  8
0
 10
3456.9039328811791165
 20
135.6504872606589061
 30
0.0
 11
3456.8842478417959683
 21
135.6475053080019109
 31
0.0
  0
LINE
  5
2FAC3
  8
0
 10
3456.8842478417959683
 20
135.6475053080019109
 30
0.0
 11
3456.8744053220980277
 21
135.657790162771505
 31
0.0
  0
LINE
  5
2FAC4
  8
0
 10
3456.8744053220980277
 20
135.657790162771505
 30
0.0
 11
3456.8836489702289327
 21
135.6703775148625084
 31
0.0
  0
LINE
  5
2FAC5
  8
0
 10
3456.8796992063589641
 20
135.6705938424861131
 30
0.0
 11
3456.8760940314959953
 21
135.6656106607426864
 31
0.0
  0
LINE
  5
2FAC6
  8
0
 10
3456.8760940314959953
 20
135.6656106607426864
 30
0.0
 11
3456.8564089921960658
 21
135.6635875125728887
 31
0.0
  0
LINE
  5
2FAC7
  8
0
 10
3456.8564089921960658
 20
135.6635875125728887
 30
0.0
 11
3456.8494626489919028
 21
135.6718290411253065
 31
0.0
  0
LINE
  5
2FAC8
  8
0
 10
3456.9137754009279888
 20
135.6282785566554026
 30
0.0
 11
3456.9039328811968517
 21
135.6367414822022113
 31
0.0
  0
LINE
  5
2FAC9
  8
0
 10
3456.9039328811968517
 20
135.6367414822022113
 30
0.0
 11
3456.8842478418278006
 21
135.6338082248047954
 31
0.0
  0
LINE
  5
2FACA
  8
0
 10
3456.8842478418278006
 20
135.6338082248047954
 30
0.0
 11
3456.8744053221498689
 21
135.6224765681955944
 31
0.0
  0
LINE
  5
2FACB
  8
0
 10
3456.8744053221498689
 20
135.6224765681955944
 30
0.0
 11
3456.8842478417959683
 21
135.6140978238892103
 31
0.0
  0
LINE
  5
2FACC
  8
0
 10
3456.8842478417959683
 20
135.6140978238892103
 30
0.0
 11
3456.9039328811491032
 21
135.6169675350064097
 31
0.0
  0
LINE
  5
2FACD
  8
0
 10
3456.9039328811491032
 20
135.6169675350064097
 30
0.0
 11
3456.9137754009298078
 21
135.6282785566542088
 31
0.0
  0
LINE
  5
2FACE
  8
0
 10
3456.9694531000900497
 20
135.6413843134882882
 30
0.0
 11
3456.9596105804957915
 21
135.6489559584018991
 31
0.0
  0
LINE
  5
2FACF
  8
0
 10
3456.9596105804957915
 20
135.6489559584018991
 30
0.0
 11
3456.9399255410958176
 21
135.6439617062532079
 31
0.0
  0
LINE
  5
2FAD0
  8
0
 10
3456.9399255410958176
 20
135.6439617062532079
 30
0.0
 11
3456.9300830214460802
 21
135.6315101706175028
 31
0.0
  0
LINE
  5
2FAD1
  8
0
 10
3456.9300830214460802
 20
135.6315101706175028
 30
0.0
 11
3456.9399255410958176
 21
135.6240283905659112
 31
0.0
  0
LINE
  5
2FAD2
  8
0
 10
3456.9399255410958176
 20
135.6240283905659112
 30
0.0
 11
3456.9596105804721446
 21
135.6289098840723
 31
0.0
  0
LINE
  5
2FAD3
  8
0
 10
3456.9596105804721446
 20
135.6289098840723
 30
0.0
 11
3456.9694531001300675
 21
135.6413843134587864
 31
0.0
  0
LINE
  5
2FAD4
  8
0
 10
3456.9972919498532065
 20
135.6344255032996102
 30
0.0
 11
3456.9874494301961931
 21
135.6406261555796959
 31
0.0
  0
LINE
  5
2FAD5
  8
0
 10
3456.9874494301961931
 20
135.6406261555796959
 30
0.0
 11
3456.9677643907962192
 21
135.6346591872018905
 31
0.0
  0
LINE
  5
2FAD6
  8
0
 10
3456.9677643907962192
 20
135.6346591872018905
 30
0.0
 11
3456.9579218711260182
 21
135.6226077388450051
 31
0.0
  0
LINE
  5
2FAD7
  8
0
 10
3456.9579218711260182
 20
135.6226077388450051
 30
0.0
 11
3456.9677643908239588
 21
135.6164646205212989
 31
0.0
  0
LINE
  5
2FAD8
  8
0
 10
3456.9677643908239588
 20
135.6164646205212989
 30
0.0
 11
3456.9874494302330277
 21
135.6223165366712919
 31
0.0
  0
LINE
  5
2FAD9
  8
0
 10
3456.9874494302330277
 20
135.6223165366712919
 30
0.0
 11
3456.9972919498532065
 21
135.6344255032996102
 31
0.0
  0
LINE
  5
2FADA
  8
0
 10
3457.0152882797960956
 20
135.6351295598817046
 30
0.0
 11
3456.9956032403961217
 21
135.6281607532019109
 31
0.0
  0
LINE
  5
2FADB
  8
0
 10
3456.9956032403961217
 20
135.6281607532019109
 30
0.0
 11
3456.9857607207400179
 21
135.6164651950940083
 31
0.0
  0
LINE
  5
2FADC
  8
0
 10
3456.9857607207400179
 20
135.6164651950940083
 30
0.0
 11
3456.9956032403961217
 21
135.6116481200392059
 31
0.0
  0
LINE
  5
2FADD
  8
0
 10
3456.9956032403961217
 20
135.6116481200392059
 30
0.0
 11
3457.0152882797960956
 21
135.61850418020191
 31
0.0
  0
LINE
  5
2FADE
  8
0
 10
3457.0152882797960956
 20
135.61850418020191
 30
0.0
 11
3457.0152882797960956
 21
135.6298903076022953
 31
0.0
  0
LINE
  5
2FADF
  8
0
 10
3457.0152882797960956
 20
135.6298903076022953
 30
0.0
 11
3457.0152882751071957
 21
135.6351295582219905
 31
0.0
  0
LINE
  5
2FAE0
  8
0
 10
3457.0152882751071957
 20
135.6351295582219905
 30
0.0
 11
3457.0251307994190029
 21
135.6302895837060021
 31
0.0
  0
LINE
  5
2FAE1
  8
0
 10
3457.0251307994190029
 20
135.6302895837060021
 30
0.0
 11
3457.0152882798702194
 21
135.6185041802278022
 31
0.0
  0
LINE
  5
2FAE2
  8
0
 10
3456.9956032403961217
 20
135.6116481200392059
 30
0.0
 11
3456.9956032446511927
 21
135.628160754708091
 31
0.0
  0
LINE
  5
2FAE3
  8
0
 10
3457.052969649168972
 20
135.6290164105257077
 30
0.0
 11
3457.0431271294960425
 21
135.6324835717003907
 31
0.0
  0
LINE
  5
2FAE4
  8
0
 10
3457.0431271294960425
 20
135.6324835717003907
 30
0.0
 11
3457.023442090070148
 21
135.6244671742767878
 31
0.0
  0
LINE
  5
2FAE5
  8
0
 10
3457.023442090070148
 20
135.6244671742767878
 30
0.0
 11
3457.013599570435872
 21
135.6130888669993908
 31
0.0
  0
LINE
  5
2FAE6
  8
0
 10
3457.013599570435872
 20
135.6130888669993908
 30
0.0
 11
3457.0234420900578698
 21
135.6096059117022889
 31
0.0
  0
LINE
  5
2FAE7
  8
0
 10
3457.0234420900578698
 20
135.6096059117022889
 30
0.0
 11
3457.0431271294110047
 21
135.617516707682114
 31
0.0
  0
LINE
  5
2FAE8
  8
0
 10
3457.0431271294110047
 20
135.617516707682114
 30
0.0
 11
3457.052969649168972
 21
135.6290164105257077
 31
0.0
  0
LINE
  5
2FAE9
  8
0
 10
3457.0251314071879278
 20
135.6059974199872045
 30
0.0
 11
3457.0152871964028236
 21
135.6091239644202915
 31
0.0
  0
LINE
  5
2FAEA
  8
0
 10
3457.0152871964028236
 20
135.6091239644202915
 30
0.0
 11
3456.9956032404879807
 21
135.6023225650577047
 31
0.0
  0
LINE
  5
2FAEB
  8
0
 10
3456.9956032404879807
 20
135.6023225650577047
 30
0.0
 11
3456.9857607207131878
 21
135.5924587288392047
 31
0.0
  0
LINE
  5
2FAEC
  8
0
 10
3456.9857607207131878
 20
135.5924587288392047
 30
0.0
 11
3457.0251314071879278
 21
135.6059974199872045
 31
0.0
  0
LINE
  5
2FAED
  8
0
 10
3456.997291949843202
 20
135.6074334886666861
 30
0.0
 11
3456.9874494301961931
 21
135.6118925313444095
 31
0.0
  0
LINE
  5
2FAEE
  8
0
 10
3456.9874494301961931
 20
135.6118925313444095
 30
0.0
 11
3456.9677643907962192
 21
135.6060986845612035
 31
0.0
  0
LINE
  5
2FAEF
  8
0
 10
3456.9677643907962192
 20
135.6060986845612035
 30
0.0
 11
3456.9579218710478017
 21
135.5959169346610906
 31
0.0
  0
LINE
  5
2FAF0
  8
0
 10
3456.9579218710478017
 20
135.5959169346610906
 30
0.0
 11
3456.9677643907612037
 21
135.5914677700951074
 31
0.0
  0
LINE
  5
2FAF1
  8
0
 10
3456.9677643907612037
 20
135.5914677700951074
 30
0.0
 11
3456.9874494302030143
 21
135.5971906413120109
 31
0.0
  0
LINE
  5
2FAF2
  8
0
 10
3456.9874494302030143
 20
135.5971906413120109
 30
0.0
 11
3456.997291949843202
 21
135.6074334886666861
 31
0.0
  0
LINE
  5
2FAF3
  8
0
 10
3456.9694563322950671
 20
135.5877355253018948
 30
0.0
 11
3456.9596105804180297
 21
135.5918340183999931
 31
0.0
  0
LINE
  5
2FAF4
  8
0
 10
3456.9596105804180297
 20
135.5918340183999931
 30
0.0
 11
3456.9399255411549348
 21
135.5871198793954022
 31
0.0
  0
LINE
  5
2FAF5
  8
0
 10
3456.9399255411549348
 20
135.5871198793954022
 30
0.0
 11
3456.9300830214219786
 21
135.5783457641776124
 31
0.0
  0
LINE
  5
2FAF6
  8
0
 10
3456.9300830214219786
 20
135.5783457641776124
 30
0.0
 11
3456.9694563322950671
 21
135.5877355253018948
 31
0.0
  0
LINE
  5
2FAF7
  8
0
 10
3456.9694531002510303
 20
135.6116427398266069
 30
0.0
 11
3456.9596105806022024
 21
135.6174219140833088
 31
0.0
  0
LINE
  5
2FAF8
  8
0
 10
3456.9596105806022024
 20
135.6174219140833088
 30
0.0
 11
3456.9399255410958176
 21
135.6125984900384083
 31
0.0
  0
LINE
  5
2FAF9
  8
0
 10
3456.9399255410958176
 20
135.6125984900384083
 30
0.0
 11
3456.9300830214488087
 21
135.6020698348467874
 31
0.0
  0
LINE
  5
2FAFA
  8
0
 10
3456.9300830214488087
 20
135.6020698348467874
 30
0.0
 11
3456.9399255410958176
 21
135.5963273540018861
 31
0.0
  0
LINE
  5
2FAFB
  8
0
 10
3456.9399255410958176
 20
135.5963273540018861
 30
0.0
 11
3456.9596105805458137
 21
135.6010773974686003
 31
0.0
  0
LINE
  5
2FAFC
  8
0
 10
3456.9596105805458137
 20
135.6010773974686003
 30
0.0
 11
3456.9694531001769064
 21
135.6116427397531083
 31
0.0
  0
LINE
  5
2FAFD
  8
0
 10
3456.9416142505119751
 20
135.6185890386215931
 30
0.0
 11
3456.9317717308699685
 21
135.6256959162747933
 31
0.0
  0
LINE
  5
2FAFE
  8
0
 10
3456.9317717308699685
 20
135.6256959162747933
 30
0.0
 11
3456.9120866914531689
 21
135.6218212766418105
 31
0.0
  0
LINE
  5
2FAFF
  8
0
 10
3456.9120866914531689
 20
135.6218212766418105
 30
0.0
 11
3456.9031716558538392
 21
135.6119076327325956
 31
0.0
  0
LINE
  5
2FB00
  8
0
 10
3456.9031716558538392
 20
135.6119076327325956
 30
0.0
 11
3456.9120866914959151
 21
135.603865806419293
 31
0.0
  0
LINE
  5
2FB01
  8
0
 10
3456.9120866914959151
 20
135.603865806419293
 30
0.0
 11
3456.9317717308490501
 21
135.6076694649121066
 31
0.0
  0
LINE
  5
2FB02
  8
0
 10
3456.9317717308490501
 20
135.6076694649121066
 30
0.0
 11
3456.9416142505087919
 21
135.6185890386178983
 31
0.0
  0
LINE
  5
2FB03
  8
0
 10
3456.9416142504860545
 20
135.5919977464133126
 30
0.0
 11
3456.9317717307958446
 21
135.5973884821019055
 31
0.0
  0
LINE
  5
2FB04
  8
0
 10
3456.9317717307958446
 20
135.5973884821019055
 30
0.0
 11
3456.9120866914959151
 21
135.5936207283272097
 31
0.0
  0
LINE
  5
2FB05
  8
0
 10
3456.9120866914959151
 20
135.5936207283272097
 30
0.0
 11
3456.9022441717761467
 21
135.5845064524116026
 31
0.0
  0
LINE
  5
2FB06
  8
0
 10
3456.9022441717761467
 20
135.5845064524116026
 30
0.0
 11
3456.9120866914959151
 21
135.5791376957018883
 31
0.0
  0
LINE
  5
2FB07
  8
0
 10
3456.9120866914959151
 20
135.5791376957018883
 30
0.0
 11
3456.9317717307958446
 21
135.5828614937396139
 31
0.0
  0
LINE
  5
2FB08
  8
0
 10
3456.9317717307958446
 20
135.5828614937396139
 30
0.0
 11
3456.9416142504828713
 21
135.5919977464149042
 31
0.0
  0
LINE
  5
2FB09
  8
0
 10
3456.9137754008461343
 20
135.5989344915032007
 30
0.0
 11
3456.9039328811950327
 21
135.6056198036440037
 31
0.0
  0
LINE
  5
2FB0A
  8
0
 10
3456.9039328811950327
 20
135.6056198036440037
 30
0.0
 11
3456.8842478417959683
 21
135.6027828874019008
 31
0.0
  0
LINE
  5
2FB0B
  8
0
 10
3456.8842478417959683
 20
135.6027828874019008
 30
0.0
 11
3456.8744053221530521
 21
135.5933025709236119
 31
0.0
  0
LINE
  5
2FB0C
  8
0
 10
3456.8744053221530521
 20
135.5933025709236119
 30
0.0
 11
3456.8842478417959683
 21
135.5866571847018918
 31
0.0
  0
LINE
  5
2FB0D
  8
0
 10
3456.8842478417959683
 20
135.5866571847018918
 30
0.0
 11
3456.9039328811950327
 21
135.5894525929018926
 31
0.0
  0
LINE
  5
2FB0E
  8
0
 10
3456.9039328811950327
 20
135.5894525929018926
 30
0.0
 11
3456.9137754008461343
 21
135.5989344915032007
 31
0.0
  0
LINE
  5
2FB0F
  8
0
 10
3456.9137754009111632
 20
135.5752700182968056
 30
0.0
 11
3456.904253292716021
 21
135.5801218443496055
 31
0.0
  0
LINE
  5
2FB10
  8
0
 10
3456.904253292716021
 20
135.5801218443496055
 30
0.0
 11
3456.8842478418428072
 21
135.577520933294295
 31
0.0
  0
LINE
  5
2FB11
  8
0
 10
3456.8842478418428072
 20
135.577520933294295
 30
0.0
 11
3456.8744053221571448
 21
135.5697435048886064
 31
0.0
  0
LINE
  5
2FB12
  8
0
 10
3456.8744053221571448
 20
135.5697435048886064
 30
0.0
 11
3456.9137754009111632
 21
135.5752700182968056
 31
0.0
  0
LINE
  5
2FB13
  8
0
 10
3456.8859365512321347
 20
135.5821996468432928
 30
0.0
 11
3456.8760940314959953
 21
135.5884953958019139
 31
0.0
  0
LINE
  5
2FB14
  8
0
 10
3456.8760940314959953
 20
135.5884953958019139
 30
0.0
 11
3456.8564089922851963
 21
135.5866383389985117
 31
0.0
  0
LINE
  5
2FB15
  8
0
 10
3456.8564089922851963
 20
135.5866383389985117
 30
0.0
 11
3456.8465664725131319
 21
135.57850676098181
 31
0.0
  0
LINE
  5
2FB16
  8
0
 10
3456.8465664725131319
 20
135.57850676098181
 30
0.0
 11
3456.8564089921719642
 21
135.5722352237349924
 31
0.0
  0
LINE
  5
2FB17
  8
0
 10
3456.8564089921719642
 20
135.5722352237349924
 30
0.0
 11
3456.8760940314150503
 21
135.5740712179793945
 31
0.0
  0
LINE
  5
2FB18
  8
0
 10
3456.8760940314150503
 20
135.5740712179793945
 30
0.0
 11
3456.8859365512321347
 21
135.5821996468432928
 31
0.0
  0
LINE
  5
2FB19
  8
0
 10
3456.8580977016231373
 20
135.5682269025215021
 30
0.0
 11
3456.8482551818269712
 21
135.5741567074163072
 31
0.0
  0
LINE
  5
2FB1A
  8
0
 10
3456.8482551818269712
 20
135.5741567074163072
 30
0.0
 11
3456.8285701425638763
 21
135.573240215125594
 31
0.0
  0
LINE
  5
2FB1B
  8
0
 10
3456.8285701425638763
 20
135.573240215125594
 30
0.0
 11
3456.8187276227868097
 21
135.5664015942074911
 31
0.0
  0
LINE
  5
2FB1C
  8
0
 10
3456.8187276227868097
 20
135.5664015942074911
 30
0.0
 11
3456.8580977016231373
 21
135.5682269025215021
 31
0.0
  0
LINE
  5
2FB1D
  8
0
 10
3456.8580977014889868
 20
135.5917574123388931
 30
0.0
 11
3456.8482551819629407
 21
135.5993445301488975
 31
0.0
  0
LINE
  5
2FB1E
  8
0
 10
3456.8482551819629407
 20
135.5993445301488975
 30
0.0
 11
3456.8285701424470062
 21
135.5984080008203136
 31
0.0
  0
LINE
  5
2FB1F
  8
0
 10
3456.8285701424470062
 20
135.5984080008203136
 30
0.0
 11
3456.81872762284911
 21
135.5898979429788085
 31
0.0
  0
LINE
  5
2FB20
  8
0
 10
3456.81872762284911
 20
135.5898979429788085
 30
0.0
 11
3456.8285701424961189
 21
135.5823454922389999
 31
0.0
  0
LINE
  5
2FB21
  8
0
 10
3456.8285701424961189
 20
135.5823454922389999
 30
0.0
 11
3456.8482551818960928
 21
135.5832685760757954
 31
0.0
  0
LINE
  5
2FB22
  8
0
 10
3456.8482551818960928
 20
135.5832685760757954
 30
0.0
 11
3456.8580977016399629
 21
135.5917574123307929
 31
0.0
  0
LINE
  5
2FB23
  8
0
 10
3456.8859365512030308
 20
135.6085484892828958
 30
0.0
 11
3456.8760940315219159
 21
135.6165529668739111
 31
0.0
  0
LINE
  5
2FB24
  8
0
 10
3456.8760940315219159
 20
135.6165529668739111
 30
0.0
 11
3456.8564089921960658
 21
135.6146447798842019
 31
0.0
  0
LINE
  5
2FB25
  8
0
 10
3456.8564089921960658
 20
135.6146447798842019
 30
0.0
 11
3456.8465664724271846
 21
135.604766495962906
 31
0.0
  0
LINE
  5
2FB26
  8
0
 10
3456.8465664724271846
 20
135.604766495962906
 30
0.0
 11
3456.8564089921251252
 21
135.5968181772832111
 31
0.0
  0
LINE
  5
2FB27
  8
0
 10
3456.8564089921251252
 20
135.5968181772832111
 30
0.0
 11
3456.8760940314950858
 21
135.598692423496999
 31
0.0
  0
LINE
  5
2FB28
  8
0
 10
3456.8760940314950858
 20
135.598692423496999
 30
0.0
 11
3456.8859365512030308
 21
135.6085484892828958
 31
0.0
  0
LINE
  5
2FB29
  8
0
 10
3456.8580977015690223
 20
135.6208853798698897
 30
0.0
 11
3456.8482551818860884
 21
135.6302544955532028
 31
0.0
  0
LINE
  5
2FB2A
  8
0
 10
3456.8482551818860884
 20
135.6302544955532028
 30
0.0
 11
3456.8285701424570107
 21
135.6292868025716984
 31
0.0
  0
LINE
  5
2FB2B
  8
0
 10
3456.8285701424570107
 20
135.6292868025716984
 30
0.0
 11
3456.8187276228409246
 21
135.6189708707626949
 31
0.0
  0
LINE
  5
2FB2C
  8
0
 10
3456.8187276228409246
 20
135.6189708707626949
 30
0.0
 11
3456.8285701424802028
 21
135.6096730339297096
 31
0.0
  0
LINE
  5
2FB2D
  8
0
 10
3456.8285701424802028
 20
135.6096730339297096
 30
0.0
 11
3456.8482551818960928
 21
135.6096730339297096
 31
0.0
  0
LINE
  5
2FB2E
  8
0
 10
3456.8482551818960928
 20
135.6096730339297096
 30
0.0
 11
3456.8580977015690223
 21
135.6208853798698897
 31
0.0
  0
LINE
  5
2FB2F
  8
0
 10
3456.8859365511980286
 20
135.6407604225456964
 30
0.0
 11
3456.8760940315128209
 21
135.6506304585645069
 31
0.0
  0
LINE
  5
2FB30
  8
0
 10
3456.8760940315128209
 20
135.6506304585645069
 30
0.0
 11
3456.8564089921601408
 21
135.648645650935606
 31
0.0
  0
LINE
  5
2FB31
  8
0
 10
3456.8564089921601408
 20
135.648645650935606
 30
0.0
 11
3456.8465664724772068
 21
135.6368420942235957
 31
0.0
  0
LINE
  5
2FB32
  8
0
 10
3456.8465664724772068
 20
135.6368420942235957
 30
0.0
 11
3456.8564089921392224
 21
135.6270789505144023
 31
0.0
  0
LINE
  5
2FB33
  8
0
 10
3456.8564089921392224
 20
135.6270789505144023
 30
0.0
 11
3456.8760940314959953
 21
135.6290134208018969
 31
0.0
  0
LINE
  5
2FB34
  8
0
 10
3456.8760940314959953
 20
135.6290134208018969
 30
0.0
 11
3456.8859365511980286
 21
135.6407604225456964
 31
0.0
  0
LINE
  5
2FB35
  8
0
 10
3456.8580977016090401
 20
135.6561306728810905
 30
0.0
 11
3456.8482551819779474
 21
135.6674855586742865
 31
0.0
  0
LINE
  5
2FB36
  8
0
 10
3456.8482551819779474
 20
135.6674855586742865
 30
0.0
 11
3456.8285701425488696
 21
135.6664721854967866
 31
0.0
  0
LINE
  5
2FB37
  8
0
 10
3456.8285701425488696
 20
135.6664721854967866
 30
0.0
 11
3456.8187276228291012
 21
135.65413455017719
 31
0.0
  0
LINE
  5
2FB38
  8
0
 10
3456.8187276228291012
 20
135.65413455017719
 30
0.0
 11
3456.8285701425379557
 21
135.6429098960209103
 31
0.0
  0
LINE
  5
2FB39
  8
0
 10
3456.8285701425379557
 20
135.6429098960209103
 30
0.0
 11
3456.8482551819611217
 21
135.6438933167569871
 31
0.0
  0
LINE
  5
2FB3A
  8
0
 10
3456.8482551819611217
 20
135.6438933167569871
 30
0.0
 11
3456.8580977015908502
 21
135.6561306728783052
 31
0.0
  0
LINE
  5
2FB3B
  8
0
 10
3456.8105725133959822
 20
135.5261297668018869
 30
0.0
 11
3456.820416332196146
 21
135.5261297668018869
 31
0.0
  0
LINE
  5
2FB3C
  8
0
 10
3456.820416332196146
 20
135.5261297668018869
 30
0.0
 11
3456.8302588513038245
 21
135.525376277582609
 31
0.0
  0
LINE
  5
2FB3D
  8
0
 10
3456.8302588513038245
 20
135.525376277582609
 30
0.0
 11
3456.8204163321938722
 21
135.5245600065283043
 31
0.0
  0
LINE
  5
2FB3E
  8
0
 10
3456.8204163321938722
 20
135.5245600065283043
 30
0.0
 11
3456.810574106356853
 21
135.5244784880028988
 31
0.0
  0
LINE
  5
2FB3F
  8
0
 10
3456.8187276227517941
 20
135.5271250785939117
 30
0.0
 11
3456.8285701425497791
 21
135.5259464142557988
 31
0.0
  0
LINE
  5
2FB40
  8
0
 10
3456.8285701425497791
 20
135.5259464142557988
 30
0.0
 11
3456.8482551818519823
 21
135.5268629066177084
 31
0.0
  0
LINE
  5
2FB41
  8
0
 10
3456.8482551818519823
 20
135.5268629066177084
 30
0.0
 11
3456.8580975818567822
 21
135.5289503560894104
 31
0.0
  0
LINE
  5
2FB42
  8
0
 10
3456.8580975818567822
 20
135.5289503560894104
 30
0.0
 11
3456.8482562784179208
 21
135.5283326801659882
 31
0.0
  0
LINE
  5
2FB43
  8
0
 10
3456.8482562784179208
 20
135.5283326801659882
 30
0.0
 11
3456.8285701424961189
 21
135.52742051214139
 31
0.0
  0
LINE
  5
2FB44
  8
0
 10
3456.8285701424961189
 20
135.52742051214139
 30
0.0
 11
3456.8187276227517941
 21
135.5271250785939117
 31
0.0
  0
LINE
  5
2FB45
  8
0
 10
3456.8465664724271846
 20
135.5261380734868908
 30
0.0
 11
3456.8564089921960658
 21
135.5263295176260954
 31
0.0
  0
LINE
  5
2FB46
  8
0
 10
3456.8465664725049464
 20
135.5261380734982026
 30
0.0
 11
3456.856408992157867
 21
135.5278838214115069
 31
0.0
  0
LINE
  5
2FB47
  8
0
 10
3456.856408992157867
 20
135.5278838214115069
 30
0.0
 11
3456.8760940315478365
 21
135.5297198156935963
 31
0.0
  0
LINE
  5
2FB48
  8
0
 10
3456.8760940315478365
 20
135.5297198156935963
 30
0.0
 11
3456.8859365512739714
 21
135.5298309593682973
 31
0.0
  0
LINE
  5
2FB49
  8
0
 10
3456.8859365512739714
 20
135.5298309593682973
 30
0.0
 11
3456.8762486589180298
 21
135.5280893618088953
 31
0.0
  0
LINE
  5
2FB4A
  8
0
 10
3456.8744053221607828
 20
135.5304669893197911
 30
0.0
 11
3456.8842478417900566
 21
135.5302271325317918
 31
0.0
  0
LINE
  5
2FB4B
  8
0
 10
3456.8842478417900566
 20
135.5302271325317918
 30
0.0
 11
3456.903932881136825
 21
135.5330022045440899
 31
0.0
  0
LINE
  5
2FB4C
  8
0
 10
3456.903932881136825
 20
135.5330022045440899
 30
0.0
 11
3456.9137754008370393
 21
135.5359935027013023
 31
0.0
  0
LINE
  5
2FB4D
  8
0
 10
3456.9137754008370393
 20
135.5359935027013023
 30
0.0
 11
3456.9039328811950327
 21
135.5344419862705934
 31
0.0
  0
LINE
  5
2FB4E
  8
0
 10
3456.9039328811950327
 20
135.5344419862705934
 30
0.0
 11
3456.8842478417959683
 21
135.5316804673759066
 31
0.0
  0
LINE
  5
2FB4F
  8
0
 10
3456.8842478417959683
 20
135.5316804673759066
 30
0.0
 11
3456.8744053220962087
 21
135.5304669893019138
 31
0.0
  0
LINE
  5
2FB50
  8
0
 10
3456.9022441717838774
 20
135.5321377649750048
 30
0.0
 11
3456.9120866911021039
 21
135.5347862933334966
 31
0.0
  0
LINE
  5
2FB51
  8
0
 10
3456.9120866911021039
 20
135.5347862933334966
 30
0.0
 11
3456.9317717307958446
 21
135.5385100914498082
 31
0.0
  0
LINE
  5
2FB52
  8
0
 10
3456.9317717307958446
 20
135.5385100914498082
 30
0.0
 11
3456.9416142502968796
 21
135.539629058936498
 31
0.0
  0
LINE
  5
2FB53
  8
0
 10
3456.9416142502968796
 20
135.539629058936498
 30
0.0
 11
3456.9317717307958446
 21
135.5370025094779862
 31
0.0
  0
LINE
  5
2FB54
  8
0
 10
3456.9317717307958446
 20
135.5370025094779862
 30
0.0
 11
3456.9120866914599901
 21
135.5332347556422121
 31
0.0
  0
LINE
  5
2FB55
  8
0
 10
3456.9120866914599901
 20
135.5332347556422121
 30
0.0
 11
3456.9022441718070695
 21
135.5321377649252099
 31
0.0
  0
LINE
  5
2FB56
  8
0
 10
3456.930083021478822
 20
135.5390692485349859
 30
0.0
 11
3456.939925541149023
 21
135.5398260787663958
 31
0.0
  0
LINE
  5
2FB57
  8
0
 10
3456.939925541149023
 20
135.5398260787663958
 30
0.0
 11
3456.9596105804957915
 21
135.5445402175382981
 31
0.0
  0
LINE
  5
2FB58
  8
0
 10
3456.9596105804957915
 20
135.5445402175382981
 30
0.0
 11
3456.9694563241259857
 21
135.5484563760167873
 31
0.0
  0
LINE
  5
2FB59
  8
0
 10
3456.9694563241259857
 20
135.5484563760167873
 30
0.0
 11
3456.9596105804957915
 21
135.5459245586019108
 31
0.0
  0
LINE
  5
2FB5A
  8
0
 10
3456.9596105804957915
 20
135.5459245586019108
 30
0.0
 11
3456.9399255410958176
 21
135.5412341527018896
 31
0.0
  0
LINE
  5
2FB5B
  8
0
 10
3456.9399255410958176
 20
135.5412341527018896
 30
0.0
 11
3456.930083021478822
 21
135.5390692485349859
 31
0.0
  0
LINE
  5
2FB5C
  8
0
 10
3456.9579218710650821
 20
135.5435482471440025
 30
0.0
 11
3456.9677643907962192
 21
135.5471163676866126
 31
0.0
  0
LINE
  5
2FB5D
  8
0
 10
3456.9677643907962192
 20
135.5471163676866126
 30
0.0
 11
3456.9874494301789127
 21
135.552839238945495
 31
0.0
  0
LINE
  5
2FB5E
  8
0
 10
3456.9874494301789127
 20
135.552839238945495
 30
0.0
 11
3456.9972919494489361
 21
135.5550648011150088
 31
0.0
  0
LINE
  5
2FB5F
  8
0
 10
3456.9972919494489361
 20
135.5550648011150088
 30
0.0
 11
3456.9946676337331155
 21
135.553898829101712
 31
0.0
  0
LINE
  5
2FB60
  8
0
 10
3456.9627721097322137
 20
135.5444714168102962
 30
0.0
 11
3456.9579218710650821
 21
135.5435482471440025
 31
0.0
  0
LINE
  5
2FB61
  8
0
 10
3456.9857607207468391
 20
135.5531822132059858
 30
0.0
 11
3456.9956032403961217
 21
135.5563554227503005
 31
0.0
  0
LINE
  5
2FB62
  8
0
 10
3456.9956032403961217
 20
135.5563554227503005
 30
0.0
 11
3457.0152882797960956
 21
135.5631227016019125
 31
0.0
  0
LINE
  5
2FB63
  8
0
 10
3457.0152882797960956
 20
135.5631227016019125
 30
0.0
 11
3457.0248885417317979
 21
135.5666644362910063
 31
0.0
  0
LINE
  5
2FB64
  8
0
 10
3457.0248885417317979
 20
135.5666644362910063
 30
0.0
 11
3457.0152882797960956
 21
135.5618297785019024
 31
0.0
  0
LINE
  5
2FB65
  8
0
 10
3457.0152882797960956
 20
135.5618297785019024
 30
0.0
 11
3456.9956032404020334
 21
135.5550287643640104
 31
0.0
  0
LINE
  5
2FB66
  8
0
 10
3456.9956032404020334
 20
135.5550287643640104
 30
0.0
 11
3456.9857607207859473
 21
135.5531822132435877
 31
0.0
  0
LINE
  5
2FB67
  8
0
 10
3457.0529696491180403
 20
135.5766477230914973
 30
0.0
 11
3457.0510547667918217
 21
135.5755746892529885
 31
0.0
  0
LINE
  5
2FB68
  8
0
 10
3457.0529696491180403
 20
135.5766477230914973
 30
0.0
 11
3457.0431271294010003
 21
135.5731653054145909
 31
0.0
  0
LINE
  5
2FB69
  8
0
 10
3457.0431271294010003
 20
135.5731653054145909
 30
0.0
 11
3457.0234420901188059
 21
135.5652545095352934
 31
0.0
  0
LINE
  5
2FB6A
  8
0
 10
3457.0234420901188059
 20
135.5652545095352934
 30
0.0
 11
3457.0135995706409631
 21
135.5607201796291008
 31
0.0
  0
LINE
  5
2FB6B
  8
0
 10
3457.0135995706409631
 20
135.5607201796291008
 30
0.0
 11
3457.0156319129177973
 21
135.5611598907144071
 31
0.0
  0
LINE
  5
2FB6C
  8
0
 10
3456.8482551819779474
 20
135.6674855586742865
 30
0.0
 11
3456.8482551819611217
 21
135.6438933167569871
 31
0.0
  0
LINE
  5
2FB6D
  8
0
 10
3456.8285701425379557
 20
135.6429098960209103
 30
0.0
 11
3456.8285701425488696
 21
135.6664721854967866
 31
0.0
  0
LINE
  5
2FB6E
  8
0
 10
3456.8564089921601408
 20
135.648645650935606
 30
0.0
 11
3456.8564089921392224
 21
135.6270789505144023
 31
0.0
  0
LINE
  5
2FB6F
  8
0
 10
3456.8760940314959953
 20
135.6290134208018969
 30
0.0
 11
3456.8760940315128209
 21
135.6506304585645069
 31
0.0
  0
LINE
  5
2FB70
  8
0
 10
3456.8482551818860884
 20
135.6302544955532028
 30
0.0
 11
3456.8482551818860884
 21
135.6096730339297096
 31
0.0
  0
LINE
  5
2FB71
  8
0
 10
3456.8285701424802028
 20
135.6096730339297096
 30
0.0
 11
3456.8285701424570107
 21
135.6292868025716984
 31
0.0
  0
LINE
  5
2FB72
  8
0
 10
3456.8760940315219159
 20
135.6165529668739111
 30
0.0
 11
3456.8760940314950858
 21
135.598692423496999
 31
0.0
  0
LINE
  5
2FB73
  8
0
 10
3456.8564089921251252
 20
135.5968181772832111
 30
0.0
 11
3456.8564089921960658
 21
135.6146447798842019
 31
0.0
  0
LINE
  5
2FB74
  8
0
 10
3456.8482551819629407
 20
135.5993445301488975
 30
0.0
 11
3456.8482551818960928
 21
135.5832685760757954
 31
0.0
  0
LINE
  5
2FB75
  8
0
 10
3456.8285701424961189
 20
135.5823454922389999
 30
0.0
 11
3456.8285701424470062
 21
135.5984080008203136
 31
0.0
  0
LINE
  5
2FB76
  8
0
 10
3456.8482551818269712
 20
135.5741567074163072
 30
0.0
 11
3456.8482551818269712
 21
135.567770575438999
 31
0.0
  0
LINE
  5
2FB77
  8
0
 10
3456.8285701425638763
 20
135.573240215125594
 30
0.0
 11
3456.8285701425638763
 21
135.5668579212891132
 31
0.0
  0
LINE
  5
2FB78
  8
0
 10
3456.8564089922851963
 20
135.5866383389985117
 30
0.0
 11
3456.8564089921719642
 21
135.5722352237349924
 31
0.0
  0
LINE
  5
2FB79
  8
0
 10
3456.8760940314150503
 20
135.5740712179793945
 30
0.0
 11
3456.8760940314959953
 21
135.5884953958019139
 31
0.0
  0
LINE
  5
2FB7A
  8
0
 10
3456.8842478418428072
 20
135.577520933294295
 30
0.0
 11
3456.8851282932669164
 21
135.571248725235904
 31
0.0
  0
LINE
  5
2FB7B
  8
0
 10
3456.904253292716021
 20
135.5801218443496055
 30
0.0
 11
3456.9051052038880698
 21
135.574052952910705
 31
0.0
  0
LINE
  5
2FB7C
  8
0
 10
3456.8842478417959683
 20
135.6027828874019008
 30
0.0
 11
3456.8842478417959683
 21
135.5866571847018918
 31
0.0
  0
LINE
  5
2FB7D
  8
0
 10
3456.9039328811950327
 20
135.5894525929018926
 30
0.0
 11
3456.9039328811950327
 21
135.6056198036440037
 31
0.0
  0
LINE
  5
2FB7E
  8
0
 10
3456.9039328811968517
 20
135.6367414822022113
 30
0.0
 11
3456.9039328811491032
 21
135.6169675350064097
 31
0.0
  0
LINE
  5
2FB7F
  8
0
 10
3456.8842478418278006
 20
135.6338082248047954
 30
0.0
 11
3456.8842478417959683
 21
135.6140978238892103
 31
0.0
  0
LINE
  5
2FB80
  8
0
 10
3456.8842478417959683
 20
135.6475053080019109
 30
0.0
 11
3456.8842478417959683
 21
135.6703435120645054
 31
0.0
  0
LINE
  5
2FB81
  8
0
 10
3456.9039328811791165
 20
135.6504872606589061
 30
0.0
 11
3456.9039328811791165
 21
135.669049307984011
 31
0.0
  0
LINE
  5
2FB82
  8
0
 10
3456.8760940314959953
 20
135.6656106607426864
 30
0.0
 11
3456.8760940314959953
 21
135.6707792758614062
 31
0.0
  0
LINE
  5
2FB83
  8
0
 10
3456.8564089921960658
 20
135.6635875125728887
 30
0.0
 11
3456.8564089921960658
 21
135.671607061305906
 31
0.0
  0
LINE
  5
2FB84
  8
0
 10
3456.9317717307958446
 20
135.6601486272745944
 30
0.0
 11
3456.9317717308767897
 21
135.6382849733959119
 31
0.0
  0
LINE
  5
2FB85
  8
0
 10
3456.912086691389959
 20
135.656113316152414
 30
0.0
 11
3456.9120866915091028
 21
135.6343552870816893
 31
0.0
  0
LINE
  5
2FB86
  8
0
 10
3456.9596105804957915
 20
135.6489559584018991
 30
0.0
 11
3456.9596105804721446
 21
135.6289098840723
 31
0.0
  0
LINE
  5
2FB87
  8
0
 10
3456.9399255410958176
 20
135.6240283905659112
 30
0.0
 11
3456.9399255410958176
 21
135.6439617062532079
 31
0.0
  0
LINE
  5
2FB88
  8
0
 10
3456.9317717308699685
 20
135.6256959162747933
 30
0.0
 11
3456.9317717308490501
 21
135.6076694649121066
 31
0.0
  0
LINE
  5
2FB89
  8
0
 10
3456.9120866914959151
 20
135.603865806419293
 30
0.0
 11
3456.9120866914531689
 21
135.6218212766418105
 31
0.0
  0
LINE
  5
2FB8A
  8
0
 10
3456.9399255410958176
 20
135.6125984900384083
 30
0.0
 11
3456.9399255410958176
 21
135.5963273540018861
 31
0.0
  0
LINE
  5
2FB8B
  8
0
 10
3456.9596105805458137
 20
135.6010773974686003
 30
0.0
 11
3456.9596105806022024
 21
135.6174219140833088
 31
0.0
  0
LINE
  5
2FB8C
  8
0
 10
3456.9677643907962192
 20
135.6346591872018905
 30
0.0
 11
3456.9677643908239588
 21
135.6164646205212989
 31
0.0
  0
LINE
  5
2FB8D
  8
0
 10
3456.9874494302330277
 20
135.6223165366712919
 30
0.0
 11
3456.9874494301961931
 21
135.6406261555796959
 31
0.0
  0
LINE
  5
2FB8E
  8
0
 10
3456.9874494301961931
 20
135.6118925313444095
 30
0.0
 11
3456.9874494302030143
 21
135.5971906413120109
 31
0.0
  0
LINE
  5
2FB8F
  8
0
 10
3456.9677643907612037
 20
135.5914677700951074
 30
0.0
 11
3456.9677643907962192
 21
135.6060986845612035
 31
0.0
  0
LINE
  5
2FB90
  8
0
 10
3456.9596105804180297
 20
135.5918340183999931
 30
0.0
 11
3456.9596105804180297
 21
135.5853875069063008
 31
0.0
  0
LINE
  5
2FB91
  8
0
 10
3456.9399255411549348
 20
135.5871198793954022
 30
0.0
 11
3456.9399255411549348
 21
135.5806930117701086
 31
0.0
  0
LINE
  5
2FB92
  8
0
 10
3456.9956032404879807
 20
135.6023225650577047
 30
0.0
 11
3456.9956032404879807
 21
135.5958433494108135
 31
0.0
  0
LINE
  5
2FB93
  8
0
 10
3457.0152871964028236
 20
135.6091239644202915
 30
0.0
 11
3457.0152871964028236
 21
135.6026122179154072
 31
0.0
  0
LINE
  5
2FB94
  8
0
 10
3457.023442090070148
 20
135.6244671742767878
 30
0.0
 11
3457.0234420900578698
 21
135.6096059117022889
 31
0.0
  0
LINE
  5
2FB95
  8
0
 10
3457.0431271294110047
 20
135.617516707682114
 30
0.0
 11
3457.0431271294960425
 21
135.6324835717003907
 31
0.0
  0
LINE
  5
2FB96
  8
0
 10
3457.0709659790709338
 20
135.6327541245370867
 30
0.0
 11
3457.0709659791168633
 21
135.6194462766233073
 31
0.0
  0
LINE
  5
2FB97
  8
0
 10
3457.0791197893950084
 20
135.6141836473018998
 30
0.0
 11
3457.0791197893950084
 21
135.6257307726019121
 31
0.0
  0
LINE
  5
2FB98
  8
0
 10
3457.0988048286708363
 20
135.6182315623298109
 30
0.0
 11
3457.0988048287731544
 21
135.6102142772029993
 31
0.0
  0
LINE
  5
2FB99
  8
0
 10
3457.0791197893950084
 20
135.5999793734000889
 30
0.0
 11
3457.0791197893950084
 21
135.6079844364593043
 31
0.0
  0
LINE
  5
2FB9A
  8
0
 10
3457.0988048287190395
 20
135.6062742758770128
 30
0.0
 11
3457.0988048287958918
 21
135.6018598297019082
 31
0.0
  0
LINE
  5
2FB9B
  8
0
 10
3457.0791197893709068
 20
135.5915291436909058
 30
0.0
 11
3457.0791197894432116
 21
135.5960165887028097
 31
0.0
  0
LINE
  5
2FB9C
  8
0
 10
3457.0512809397300771
 20
135.6331279493516035
 30
0.0
 11
3457.0512809397300771
 21
135.6461035798878925
 31
0.0
  0
LINE
  5
2FB9D
  8
0
 10
3457.0249225305287837
 20
135.6356311248246129
 30
0.0
 11
3457.0249225305287837
 21
135.6525861787237091
 31
0.0
  0
LINE
  5
2FB9E
  8
0
 10
3457.0431271295051374
 20
135.6431247448192039
 30
0.0
 11
3457.0431271295051374
 21
135.6482972498949948
 31
0.0
  0
LINE
  5
2FB9F
  8
0
 10
3456.9956032404438702
 20
135.6397819243757965
 30
0.0
 11
3456.9956032404438702
 21
135.6583167752363863
 31
0.0
  0
LINE
  5
2FBA0
  8
0
 10
3457.0152882798179235
 20
135.6468401904284065
 30
0.0
 11
3457.0152882798179235
 21
135.6546253679615006
 31
0.0
  0
LINE
  5
2FBA1
  8
0
 10
3456.9874494302430321
 20
135.6534352043150875
 30
0.0
 11
3456.9874494302430321
 21
135.6596610085418888
 31
0.0
  0
LINE
  5
2FBA2
  8
0
 10
3456.9677643907962192
 20
135.6473787760018865
 30
0.0
 11
3456.9677643907962192
 21
135.6624818448115946
 31
0.0
  0
LINE
  5
2FBA3
  8
0
 10
3456.9399255411431113
 20
135.6578297452088862
 30
0.0
 11
3456.9399255411431113
 21
135.6657937507019085
 31
0.0
  0
LINE
  5
2FBA4
  8
0
 10
3456.9317717307958446
 20
135.5973884821019055
 30
0.0
 11
3456.9317717307958446
 21
135.5828614937396139
 31
0.0
  0
LINE
  5
2FBA5
  8
0
 10
3456.9120866914959151
 20
135.5791376957018883
 30
0.0
 11
3456.9120866914959151
 21
135.5936207283272097
 31
0.0
  0
ARC
  5
2FBA6
  8
0
 10
3456.8109909663457984
 20
134.317219060338914
 30
0.0
 40
1.456276216777989
 50
85.3881547689934877
 51
90.016400953354804
  0
ARC
  5
2FBA7
  8
0
 10
3456.847685573382023
 20
134.7721136857012141
 30
0.0
 40
0.9999039845277348
 50
77.3094596193187442
 51
85.3881547689934877
  0
ARC
  5
2FBA8
  8
0
 10
3456.9992919403371161
 20
135.4453624519067887
 30
0.0
 40
0.3097964626888201
 50
65.015868858257349
 51
77.3094596193187442
  0
ARC
  5
2FBA9
  8
0
 10
3457.0900371400930453
 20
135.6401069625914033
 30
0.0
 40
0.0949474093504723
 50
43.611959795732929
 51
65.015868858257349
  0
ARC
  5
2FBAA
  8
0
 10
3457.1426781571599349
 20
135.6902790753356101
 30
0.0
 40
0.0222265972563359
 50
359.737526879686186
 51
43.5712858773821878
  0
LINE
  5
2FBAB
  8
0
 10
3457.1649045211961493
 20
135.6901772552018031
 30
0.0
 11
3457.1649045211961493
 21
135.6333218822018978
 31
0.0
  0
ARC
  5
2FBAC
  8
0
 10
3457.1077042511819855
 20
135.6333218822018978
 30
0.0
 40
0.0572002700141861
 50
343.121410187078709
 51
0.0
  0
ARC
  5
2FBAD
  8
0
 10
3457.1015586770331538
 20
135.6351865422232947
 30
0.0
 40
0.0636225000478887
 50
318.1899919277399817
 51
343.1214101870803006
  0
ARC
  5
2FBAE
  8
0
 10
3457.0442920177752057
 20
135.6864068474027931
 30
0.0
 40
0.140453417817401
 50
304.5874477543096077
 51
318.1899919277399817
  0
ARC
  5
2FBAF
  8
0
 10
3457.0779325018761483
 20
135.6376193261654066
 30
0.0
 40
0.081192094857019
 50
290.8501033317091924
 51
304.5874477543096077
  0
ARC
  5
2FBB0
  8
0
 10
3456.9701071376330219
 20
135.8862016330083975
 30
0.0
 40
0.3520880945457473
 50
282.1732200081146971
 51
292.8501385448531096
  0
ARC
  5
2FBB1
  8
0
 10
3456.7282188762369515
 20
138.2739446712992049
 30
0.0
 40
2.7562335142088599
 50
271.7123856202873071
 51
274.4878444454446935
  0
ARC
  5
2FBB2
  8
0
 10
3456.8584260048601209
 20
136.3931725471553875
 30
0.0
 40
0.8712124611658374
 50
275.6294776535947904
 51
282.3222466630476788
  0
ARC
  5
2FBB3
  8
0
 10
3457.0468593742320991
 20
136.0491352890113887
 30
0.0
 40
0.4368397400084885
 50
285.643379042021877
 51
297.16492682127938
  0
ARC
  5
2FBB4
  8
0
 10
3457.0886681965071148
 20
135.9676614827614003
 30
0.0
 40
0.3452648595837748
 50
297.16492682127938
 51
308.4833494941757976
  0
ARC
  5
2FBB5
  8
0
 10
3457.1614382807938455
 20
135.8761223580821138
 30
0.0
 40
0.2283251464221232
 50
308.4833494941757976
 51
317.6846935092573858
  0
ARC
  5
2FBB6
  8
0
 10
3455.9036118602411989
 20
137.021270734923803
 30
0.0
 40
1.9293519272891
 50
317.6846935092573858
 51
332.0858388685924751
  0
LINE
  5
2FBB7
  8
0
 10
3457.6084835949518492
 20
136.1180480450437074
 30
0.0
 11
3457.615446534511193
 21
136.3509919140018951
 31
0.0
  0
ARC
  5
2FBB8
  8
0
 10
3456.733905288439928
 20
132.3452058068442057
 30
0.0
 40
3.465992671266354
 50
84.9617918760503841
 51
88.7323738219363776
  0
ARC
  5
2FBB9
  8
0
 10
3457.0010937170300167
 20
135.222225431106807
 30
0.0
 40
0.5767822462609989
 50
69.8636110368786518
 51
86.3025773874936846
  0
ARC
  5
2FBBA
  8
0
 10
3457.1491531138658502
 20
135.6164690682873015
 30
0.0
 40
0.1557008261659444
 50
50.51172158884021
 51
71.0738710312228505
  0
ARC
  5
2FBBB
  8
0
 10
3457.2181884219057793
 20
135.7002505094368985
 30
0.0
 40
0.0471411483970503
 50
23.1802526683099188
 51
50.51172158884021
  0
ARC
  5
2FBBC
  8
0
 10
3457.2386536812919076
 20
135.7090135828607913
 30
0.0
 40
0.0248786620678465
 50
326.0111070240005233
 51
23.1802526683129209
  0
ARC
  5
2FBBD
  8
0
 10
3457.1837458052159491
 20
135.7460339281539916
 30
0.0
 40
0.0911008699799343
 50
318.0321699152221981
 51
326.0111070240005233
  0
ARC
  5
2FBBE
  8
0
 10
3457.0430259629761167
 20
136.0521215276015141
 30
0.0
 40
0.426950826154494
 50
286.5865115344242895
 51
292.9622282989308246
  0
ARC
  5
2FBBF
  8
0
 10
3457.1410986096479974
 20
135.8206527093242926
 30
0.0
 40
0.1755625649728374
 50
292.9622282989308246
 51
304.6277540541557869
  0
ARC
  5
2FBC0
  8
0
 10
3457.1990788920738851
 20
135.7366925457995137
 30
0.0
 40
0.073528148184749
 50
304.6277540541557869
 51
315.4536415672724843
  0
ARC
  5
2FBC1
  8
0
 10
3457.4574762148540685
 20
135.4823549068921125
 30
0.0
 40
0.289041584397697
 50
131.0068491293071986
 51
135.4536415672725127
  0
ARC
  5
2FBC2
  8
0
 10
3457.2322287549682187
 20
135.7414099185847931
 30
0.0
 40
0.0542453469997692
 50
311.006849129307227
 51
327.371299675565524
  0
ARC
  5
2FBC3
  8
0
 10
3457.2506847186000414
 20
135.7295938072780928
 30
0.0
 40
0.0323308978847463
 50
327.3712996755667746
 51
0.4176849409378264
  0
ARC
  5
2FBC4
  8
0
 10
3457.2586705522621742
 20
135.7296520248567901
 30
0.0
 40
0.024344852018686
 50
0.4176849409378264
 51
35.604845358305127
  0
ARC
  5
2FBC5
  8
0
 10
3457.2134580900669789
 20
135.697277297516905
 30
0.0
 40
0.0799532120744611
 50
35.604845358305127
 51
65.4032434039802553
  0
ARC
  5
2FBC6
  8
0
 10
3456.9136126680950838
 20
136.0350390330312962
 30
0.0
 40
0.5175600726419285
 50
320.2367618205366284
 51
321.8402639270429972
  0
ARC
  5
2FBC7
  8
0
 10
3457.301543126327033
 20
135.7322101520830131
 30
0.0
 40
0.0254777312477094
 50
318.299546670166194
 51
353.3414834970350853
  0
ARC
  5
2FBC8
  8
0
 10
3456.8069753020690769
 20
134.0957130979709859
 30
0.0
 40
1.7333515615883679
 50
82.9925200807930565
 51
89.8807966108847438
  0
ARC
  5
2FBC9
  8
0
 10
3456.8151609564938553
 20
134.1623041394616109
 30
0.0
 40
1.6662592986592819
 50
78.2434443938586242
 51
82.9925363952799842
  0
ARC
  5
2FBCA
  8
0
 10
3456.9449591366151253
 20
134.7859750338280094
 30
0.0
 40
1.0292248003450799
 50
73.1585236487183295
 51
78.2434443938586242
  0
ARC
  5
2FBCB
  8
0
 10
3457.7021559037179941
 20
137.2873860331316962
 30
0.0
 40
1.5842793476424739
 50
253.158523648718301
 51
253.2939735635978025
  0
ARC
  5
2FBCC
  8
0
 10
3456.9670275121338818
 20
134.838011535554898
 30
0.0
 40
0.9730335353448346
 50
70.7967616255985774
 51
73.2939735635978735
  0
ARC
  5
2FBCD
  8
0
 10
3457.220460063513201
 20
135.5656382697121956
 30
0.0
 40
0.2025345266764623
 50
61.3337602442850027
 51
70.7967616255985774
  0
ARC
  5
2FBCE
  8
0
 10
3457.3070937383931778
 20
135.7240995045391969
 30
0.0
 40
0.0219373047538143
 50
34.9795498978690986
 51
61.3337602442850027
  0
ARC
  5
2FBCF
  8
0
 10
3457.316532521181216
 20
135.7307035920053124
 30
0.0
 40
0.0104175568488933
 50
352.0123261045575873
 51
34.9795498978677699
  0
LINE
  5
2FBD0
  8
0
 10
3456.8204169198129421
 20
135.6617448822624112
 30
0.0
 11
3456.8204169198129421
 21
135.6723625715632977
 31
0.0
  0
LINE
  5
2FBD1
  8
0
 10
3457.3617555024979993
 20
134.2448153772018884
 30
0.0
 11
3456.2593932977979421
 21
134.2448153772018884
 31
0.0
  0
ARC
  5
2FBD2
  8
0
 10
3457.1905174467951838
 20
133.8786830212019083
 30
0.0
 40
0.0197
 50
90.0
 51
180.000000000052097
  0
LINE
  5
2FBD3
  8
0
 10
3457.1708174467948993
 20
133.8783701822019054
 30
0.0
 11
3457.1708174467948993
 21
133.8472018509947929
 31
0.0
  0
LINE
  5
2FBD4
  8
0
 10
3456.3381334552968838
 20
133.8983830212019086
 30
0.0
 11
3456.3381334552968838
 21
134.2448153772018884
 31
0.0
  0
LINE
  5
2FBD5
  8
0
 10
3456.3381334552968838
 20
133.8983830212019086
 30
0.0
 11
3457.2830153449967838
 21
133.8983830212019086
 31
0.0
  0
LINE
  5
2FBD6
  8
0
 10
3457.2830153449967838
 20
133.8983830212019086
 30
0.0
 11
3457.2830153449967838
 21
134.2448153772018884
 31
0.0
  0
LINE
  5
2FBD7
  8
0
 10
3456.4503381796980648
 20
133.8472019188018862
 30
0.0
 11
3456.4503381796980648
 21
133.8786830212019083
 31
0.0
  0
ARC
  5
2FBD8
  8
0
 10
3456.4306381796977803
 20
133.8786830212019083
 30
0.0
 40
0.0197
 50
0.0
 51
90.0
  0
LINE
  5
2FBD9
  8
0
 10
3452.2556261241970788
 20
136.3509919140018951
 30
0.0
 11
3452.5113618016971486
 21
136.3509919140018951
 31
0.0
  0
LINE
  5
2FBDA
  8
0
 10
3452.5389208567980859
 20
136.3509919140018951
 30
0.0
 11
3456.1310611837980105
 21
136.3509919140018951
 31
0.0
  0
LINE
  5
2FBDB
  8
0
 10
3457.4900876165979753
 20
136.3509919140018951
 30
0.0
 11
3461.0625429040969721
 21
136.3509919140018951
 31
0.0
  0
LINE
  5
2FBDC
  8
0
 10
3461.1097869964969505
 20
136.3509919140018951
 30
0.0
 11
3461.3655226760979531
 21
136.3509919140018951
 31
0.0
  0
LINE
  5
2FBDD
  8
0
 10
3450.4446050135479709
 20
135.9112118205237891
 30
0.0
 11
3450.4446050135479709
 21
134.8225620947353889
 31
0.0
  0
LINE
  5
2FBDE
  8
0
 10
3450.464117707997957
 20
135.9310450823018925
 30
0.0
 11
3451.2701324446979925
 21
135.9380823548019066
 31
0.0
  0
ARC
  5
2FBDF
  8
0
 10
3451.2534305406002204
 20
137.8029344931167088
 30
0.0
 40
1.8649269292328581
 50
270.5131361407794088
 51
272.9644515465868153
  0
ARC
  5
2FBE0
  8
0
 10
3451.2905698330209816
 20
137.0857611675124872
 30
0.0
 40
1.1467926061429701
 50
272.9644515465868153
 51
282.9737373365276198
  0
ARC
  5
2FBE1
  8
0
 10
3451.4377641112200763
 20
136.4468567405477017
 30
0.0
 40
0.4911516812994512
 50
282.9737373365276198
 51
306.8465505208513946
  0
ARC
  5
2FBE2
  8
0
 10
3451.3604497918790912
 20
136.5500300593679981
 30
0.0
 40
0.6200789386641543
 50
306.8465505208513946
 51
321.234694517116111
  0
ARC
  5
2FBE3
  8
0
 10
3452.3212567987839066
 20
135.7784788318365088
 30
0.0
 40
0.6121716045387618
 50
126.5996956943185978
 51
141.234694517116111
  0
ARC
  5
2FBE4
  8
0
 10
3452.1656713888469312
 20
135.9879770885897017
 30
0.0
 40
0.351218851405096
 50
100.6420939332627
 51
126.5996956943185978
  0
ARC
  5
2FBE5
  8
0
 10
3452.312945120943823
 20
135.2042118993678912
 30
0.0
 40
1.1487007784741741
 50
95.578032375874713
 51
100.6420939332627
  0
ARC
  5
2FBE6
  8
0
 10
3452.1563362326778588
 20
137.4629680954730873
 30
0.0
 40
1.116400246648626
 50
272.3077311641956157
 51
275.102487497921004
  0
ARC
  5
2FBE7
  8
0
 10
3450.4642894893809171
 20
135.9113607619464119
 30
0.0
 40
0.0196850393038182
 50
90.499997639283194
 51
180.4335168552397874
  0
ARC
  5
2FBE8
  8
0
 10
3456.1207438060259847
 20
136.5487443766201068
 30
0.0
 40
0.198029282599572
 50
307.3063970764815167
 51
3.2813700915541819
  0
ARC
  5
2FBE9
  8
0
 10
3456.1199199043808221
 20
136.5510292605019913
 30
0.0
 40
0.2003473685922355
 50
273.1878519907675127
 51
307.0977783580901814
  0
LINE
  5
2FBEA
  8
0
 10
3450.464117707997957
 20
134.8027288329018916
 30
0.0
 11
3451.2701324446979925
 21
134.7956915604019059
 31
0.0
  0
ARC
  5
2FBEB
  8
0
 10
3451.2534305406002204
 20
132.9308394220871037
 30
0.0
 40
1.8649269292328581
 50
87.0355484534132131
 51
89.486863859220577
  0
ARC
  5
2FBEC
  8
0
 10
3451.2905698330209816
 20
133.6480127476912969
 30
0.0
 40
1.1467926061429701
 50
77.026262663472437
 51
87.0355484534132131
  0
ARC
  5
2FBED
  8
0
 10
3451.4377641112200763
 20
134.2869171746561108
 30
0.0
 40
0.4911516812994512
 50
53.1534494791486196
 51
77.026262663472437
  0
ARC
  5
2FBEE
  8
0
 10
3451.3604497918790912
 20
134.183743855835786
 30
0.0
 40
0.6200789386641543
 50
38.765305482883889
 51
53.1534494791486196
  0
ARC
  5
2FBEF
  8
0
 10
3452.3212567987839066
 20
134.9552950833673037
 30
0.0
 40
0.6121716045387618
 50
218.765305482883889
 51
233.4003043056814022
  0
ARC
  5
2FBF0
  8
0
 10
3452.1656713888469312
 20
134.7457968266141108
 30
0.0
 40
0.351218851405096
 50
233.4003043056814022
 51
259.3579060667373142
  0
ARC
  5
2FBF1
  8
0
 10
3452.312945120943823
 20
135.5295620158358929
 30
0.0
 40
1.1487007784741741
 50
259.3579060667373142
 51
264.4219676241252728
  0
ARC
  5
2FBF2
  8
0
 10
3452.1668307793111126
 20
133.4706252832534119
 30
0.0
 40
0.9163235112255568
 50
84.4390876347479775
 51
87.8448359083058676
  0
ARC
  5
2FBF3
  8
0
 10
3450.4642894893809171
 20
134.8224131532574006
 30
0.0
 40
0.0196850393038182
 50
179.5664831447600989
 51
269.5000023607167918
  0
LINE
  5
2FBF4
  8
0
 10
3457.3617506995969961
 20
134.3830918494018931
 30
0.0
 11
3457.3617506995969961
 21
134.2448153772018884
 31
0.0
  0
LINE
  5
2FBF5
  8
0
 10
3461.3655226760979531
 20
136.3509919140018951
 30
0.0
 11
3461.3655226760979531
 21
134.3826221219891863
 31
0.0
  0
ARC
  5
2FBF6
  8
0
 10
3459.7633303060811159
 20
135.3669482955442049
 30
0.0
 40
1.191006219259457
 50
235.7510014803274885
 51
304.2483842221861892
  0
ARC
  5
2FBF7
  8
0
 10
3459.7633303056832119
 20
135.3669479571846921
 30
0.0
 40
1.1908838829171871
 50
55.6684961868910975
 51
124.3315038131088954
  0
LINE
  5
2FBF8
  8
0
 10
3463.1765437867479704
 20
135.9112118205237891
 30
0.0
 11
3463.1765437867479704
 21
134.8225620947353889
 31
0.0
  0
LINE
  5
2FBF9
  8
0
 10
3463.1570310922970748
 20
135.9310450823018925
 30
0.0
 11
3462.3510163555979489
 21
135.9380823548019066
 31
0.0
  0
ARC
  5
2FBFA
  8
0
 10
3462.3677182596948114
 20
137.8029344931167088
 30
0.0
 40
1.8649269292328581
 50
267.0355484534132984
 51
269.4868638592204775
  0
ARC
  5
2FBFB
  8
0
 10
3462.3305789672740502
 20
137.0857611675124872
 30
0.0
 40
1.1467926061429701
 50
257.0262626634724938
 51
267.0355484534132984
  0
ARC
  5
2FBFC
  8
0
 10
3462.1833846890749555
 20
136.4468567405477017
 30
0.0
 40
0.4911516812994512
 50
233.1534494791486907
 51
257.0262626634724938
  0
ARC
  5
2FBFD
  8
0
 10
3462.2606990084168501
 20
136.5500300593679981
 30
0.0
 40
0.6200789386641543
 50
218.765305482883889
 51
233.1534494791486907
  0
ARC
  5
2FBFE
  8
0
 10
3461.2998920015111253
 20
135.7784788318365088
 30
0.0
 40
0.6121716045387618
 50
38.765305482883889
 51
53.4003043056813311
  0
ARC
  5
2FBFF
  8
0
 10
3461.4554774114481006
 20
135.9879770885897017
 30
0.0
 40
0.351218851405096
 50
53.4003043056813311
 51
79.3579060667373
  0
ARC
  5
2FC00
  8
0
 10
3461.3082036793512088
 20
135.2042118993678912
 30
0.0
 40
1.1487007784741741
 50
79.3579060667373
 51
84.421967624125287
  0
ARC
  5
2FC01
  8
0
 10
3461.4648125676158088
 20
137.4629680954730873
 30
0.0
 40
1.116400246648626
 50
264.8975125020788823
 51
267.6922688358044979
  0
ARC
  5
2FC02
  8
0
 10
3463.1568593109141148
 20
135.9113607619464119
 30
0.0
 40
0.0196850393038182
 50
359.5664831447601841
 51
89.500002360716806
  0
LINE
  5
2FC03
  8
0
 10
3463.1570310922970748
 20
134.8027288329018916
 30
0.0
 11
3462.3510163555979489
 21
134.7956915604019059
 31
0.0
  0
ARC
  5
2FC04
  8
0
 10
3462.3677182596948114
 20
132.9308394220871037
 30
0.0
 40
1.8649269292328581
 50
90.5131361407794657
 51
92.9644515465867869
  0
ARC
  5
2FC05
  8
0
 10
3462.3305789672740502
 20
133.6480127476912969
 30
0.0
 40
1.1467926061429701
 50
92.9644515465867869
 51
102.9737373365275062
  0
ARC
  5
2FC06
  8
0
 10
3462.1833846890749555
 20
134.2869171746561108
 30
0.0
 40
0.4911516812994512
 50
102.9737373365275062
 51
126.8465505208512951
  0
ARC
  5
2FC07
  8
0
 10
3462.2606990084168501
 20
134.183743855835786
 30
0.0
 40
0.6200789386641543
 50
126.8465505208512951
 51
141.234694517116111
  0
ARC
  5
2FC08
  8
0
 10
3461.2998920015111253
 20
134.9552950833673037
 30
0.0
 40
0.6121716045387618
 50
306.5996956943187115
 51
321.234694517116111
  0
ARC
  5
2FC09
  8
0
 10
3461.4554774114481006
 20
134.7457968266141108
 30
0.0
 40
0.351218851405096
 50
280.6420939332626858
 51
306.5996956943187115
  0
ARC
  5
2FC0A
  8
0
 10
3461.3082036793512088
 20
135.5295620158358929
 30
0.0
 40
1.1487007784741741
 50
275.5780323758747272
 51
280.6420939332626858
  0
ARC
  5
2FC0B
  8
0
 10
3461.4534921987788039
 20
133.4863482494965012
 30
0.0
 40
0.90058064127203
 50
92.1402791660928671
 51
95.605641642101105
  0
ARC
  5
2FC0C
  8
0
 10
3463.1568593109141148
 20
134.8224131532574006
 30
0.0
 40
0.0196850393038182
 50
270.4999976392830945
 51
0.4335168552398215
  0
ARC
  5
2FC0D
  8
0
 10
3457.5004049943700011
 20
136.5487443766201068
 30
0.0
 40
0.198029282599572
 50
176.7186309194649994
 51
232.693602923518398
  0
ARC
  5
2FC0E
  8
0
 10
3457.5012288960151636
 20
136.5510292605019913
 30
0.0
 40
0.2003473685922355
 50
232.9022216419097902
 51
266.812148009232601
  0
ARC
  5
2FC0F
  8
0
 10
3463.8793792232268061
 20
156.5856727062239031
 30
0.0
 40
5.3478256412039142
 50
181.304836161029499
 51
195.0501354827356124
  0
ARC
  5
2FC10
  8
0
 10
3474.0838470146281907
 20
159.3295241530018131
 30
0.0
 40
15.9147496812307701
 50
195.0501354827356124
 51
204.8452934105787051
  0
ARC
  5
2FC11
  8
0
 10
3099.9925976089311916
 20
-13.8838965356015294
 30
0.0
 40
396.3317202715895178
 50
23.8100030982957911
 51
24.8452934105786696
  0
ARC
  5
2FC12
  8
0
 10
3438.994079380839139
 20
135.7042759309854887
 30
0.0
 40
25.7934280730066803
 50
13.1031292226871106
 51
23.8100030982943096
  0
ARC
  5
2FC13
  8
0
 10
3451.2655526107719197
 20
138.5606437172264975
 30
0.0
 40
13.1939085518810906
 50
354.3265497475425718
 51
13.1031292226871106
  0
ARC
  5
2FC14
  8
0
 10
3455.7198835990920998
 20
138.1181268953664016
 30
0.0
 40
8.7176505509229703
 50
326.4308896599238778
 51
354.3265497475425718
  0
ARC
  5
2FC15
  8
0
 10
3454.1939355951330981
 20
139.1307789199520073
 30
0.0
 40
10.5490383945223591
 50
315.6134043363010733
 51
326.4308896599238778
  0
ARC
  5
2FC16
  8
0
 10
3457.4277525109991984
 20
135.9654731511556918
 30
0.0
 40
6.0239160254239916
 50
290.5634288749877783
 51
315.6134043363010733
  0
ARC
  5
2FC17
  8
0
 10
3458.5999837681038116
 20
132.8407480112913959
 30
0.0
 40
2.6865468040411011
 50
258.2063946559628107
 51
290.5634288749877783
  0
ARC
  5
2FC18
  8
0
 10
3458.253288751153832
 20
131.1802867958062109
 30
0.0
 40
0.9902776971748739
 50
210.943793941866204
 51
258.2063946559628107
  0
ARC
  5
2FC19
  8
0
 10
3459.25308837752209
 20
131.7796929239889039
 30
0.0
 40
2.155990783397423
 50
189.0262745308108947
 51
210.943793941866204
  0
ARC
  5
2FC1A
  8
0
 10
3460.172473270590217
 20
131.8541058228786937
 30
0.0
 40
3.0764785119761928
 50
179.8352883432123122
 51
187.7085514665934909
  0
ARC
  5
2FC1B
  8
0
 10
3459.3573473342958096
 20
131.7851961905672056
 30
0.0
 40
2.8332642480570009
 50
178.4274246006781084
 51
204.2494804912801101
  0
ARC
  5
2FC1C
  8
0
 10
3458.3559796505519444
 20
131.334123862193195
 30
0.0
 40
1.734991293154017
 50
204.2494804912801101
 51
254.8818341935842113
  0
ARC
  5
2FC1D
  8
0
 10
3458.6956055318428298
 20
133.1471601671088933
 30
0.0
 40
3.576796212078857
 50
257.204990835602473
 51
268.9016055623947068
  0
ARC
  5
2FC1E
  8
0
 10
3458.5268777030778438
 20
132.9994786958812938
 30
0.0
 40
3.4299203226213049
 50
271.6734254750476225
 51
289.1163576027551017
  0
ARC
  5
2FC1F
  8
0
 10
3456.6833426902530846
 20
137.2366338747860937
 30
0.0
 40
8.0449581045855858
 50
291.6401814941818884
 51
307.7455353656998795
  0
ARC
  5
2FC20
  8
0
 10
3457.0127643670639372
 20
136.8111113903904936
 30
0.0
 40
7.5068242681852313
 50
307.7455353656998795
 51
331.2391344428265825
  0
ARC
  5
2FC21
  8
0
 10
3450.6302441684420046
 20
140.3142567239069933
 30
0.0
 40
14.7875241873934193
 50
331.2391344428265825
 51
340.3991133752575138
  0
ARC
  5
2FC22
  8
0
 10
3455.6634698986031253
 20
138.3449189046370122
 30
0.0
 40
9.3867974126017302
 50
341.416940030718024
 51
359.3630483199921173
  0
ARC
  5
2FC23
  8
0
 10
3447.3525051378319404
 20
137.9670453685324105
 30
0.0
 40
17.6992957753296913
 50
0.8854798315731015
 51
17.2224048205878191
  0
ARC
  5
2FC24
  8
0
 10
3424.5906202337228024
 20
131.049035465888295
 30
0.0
 40
41.4891020559733121
 50
17.0407359880134983
 51
27.5553881237164013
  0
ARC
  5
2FC25
  8
0
 10
3490.1230189169000369
 20
165.2436013915225033
 30
0.0
 40
32.4281734350333011
 50
198.6748513885569878
 51
207.5553881237163978
  0
ARC
  5
2FC26
  8
0
 10
3464.9872067549140411
 20
156.7288404141046954
 30
0.0
 40
5.8893638603737148
 50
182.5778509658856876
 51
198.499250338373713
  0
ARC
  5
2FC27
  8
0
 10
3456.8103983805881398
 20
134.2875727955039906
 30
0.0
 40
1.388747821556906
 50
85.4798357607883048
 51
89.9924440712652256
  0
ARC
  5
2FC28
  8
0
 10
3456.84807354970917
 20
134.729065622025189
 30
0.0
 40
0.9456630494470569
 50
79.2285820938621157
 51
85.6472988996585656
  0
ARC
  5
2FC29
  8
0
 10
3456.9564676500208407
 20
135.2700110651821035
 30
0.0
 40
0.3940276429766695
 50
67.7082019057151143
 51
80.0118281480856837
  0
ARC
  5
2FC2A
  8
0
 10
3457.0655326862352013
 20
135.5358136125059048
 30
0.0
 40
0.1067191899003035
 50
49.1117497759856434
 51
67.7558481410889755
  0
ARC
  5
2FC2B
  8
0
 10
3457.1114477961468765
 20
135.5903465738365981
 30
0.0
 40
0.0354512552373187
 50
26.9393697453550516
 51
47.5192107889213275
  0
ARC
  5
2FC2C
  8
0
 10
3457.1243314902058046
 20
135.5972688280081115
 30
0.0
 40
0.0208321879964717
 50
4.3794278687165544
 51
26.0202413572483913
  0
ARC
  5
2FC2D
  8
0
 10
3457.1220401704431424
 20
135.5986396893312076
 30
0.0
 40
0.023274097195206
 50
317.9877368368361772
 51
350.6074845157975801
  0
ARC
  5
2FC2E
  8
0
 10
3457.1316721604680424
 20
135.5971855378689099
 30
0.0
 40
0.0135346212612106
 50
350.0264306847038824
 51
7.1049413038552922
  0
ARC
  5
2FC2F
  8
0
 10
3456.8105744001468338
 20
183.6621049815686035
 30
0.0
 40
0.3937007874001033
 50
0.0
 51
180.0
  0
LINE
  5
2FC30
  8
0
 10
3456.4464011717977883
 20
180.9180680605018949
 30
0.0
 11
3456.4464011717977883
 21
180.8274593122690987
 31
0.0
  0
LINE
  5
2FC31
  8
0
 10
3457.1747476284981531
 20
180.9180680605018949
 30
0.0
 11
3457.1747476284981531
 21
180.8274593122692124
 31
0.0
  0
LINE
  5
2FC32
  8
0
 10
3456.4464011717977883
 20
180.9180680605018949
 30
0.0
 11
3457.1747476284981531
 21
180.9180680605018949
 31
0.0
  0
LINE
  5
2FC33
  8
0
 10
3452.5389208567980859
 20
134.3826632309088041
 30
0.0
 11
3452.5389208567980859
 21
136.3509919140018951
 31
0.0
  0
LINE
  5
2FC34
  8
0
 10
3452.5113618016971486
 20
134.3826606147515008
 30
0.0
 11
3452.5113618016971486
 21
136.3509919140018951
 31
0.0
  0
LINE
  5
2FC35
  8
0
 10
3452.5113618037971719
 20
136.1759177394019105
 30
0.0
 11
3452.5389208567980859
 21
136.1759177394019105
 31
0.0
  0
LINE
  5
2FC36
  8
0
 10
3452.5113618037971719
 20
134.5578075032019001
 30
0.0
 11
3452.5389208567980859
 21
134.5578075032019001
 31
0.0
  0
LINE
  5
2FC37
  8
0
 10
3461.0625429040969721
 20
134.3820374875087964
 30
0.0
 11
3461.0625429040969721
 21
136.3509919140018951
 31
0.0
  0
LINE
  5
2FC38
  8
0
 10
3461.1097869964969505
 20
134.3826521252111093
 30
0.0
 11
3461.1097869964969505
 21
136.3509919140018951
 31
0.0
  0
LINE
  5
2FC39
  8
0
 10
3461.1097869964969505
 20
136.1752919960019028
 30
0.0
 11
3461.0625429040969721
 21
136.1752919960019028
 31
0.0
  0
LINE
  5
2FC3A
  8
0
 10
3461.1097869964969505
 20
134.5571817598018924
 30
0.0
 11
3461.0625429040969721
 21
134.5571817598018924
 31
0.0
  0
ENDSEC
  0
EOF
