  0
SECTION
  2
HEADER
  9
$ACADVER
  1
AC1009
  9
$INSBASE
 10
3130.0147137614449093
 20
134.0096370176783864
 30
0.0
  9
$EXTMIN
 10
3123.2314877397730015
 20
128.1722052904939062
 30
-0.0015258207003583
  9
$EXTMAX
 10
3137.3533559623360816
 20
185.1558360927220122
 30
0.0000000349246037
  9
$LIMMIN
 10
0.0
 20
0.0
  9
$LIMMAX
 10
11.6929133858000007
 20
8.2677165353999982
  9
$ORTHOMODE
 70
     1
  9
$REGENMODE
 70
     1
  9
$FILLMODE
 70
     1
  9
$QTEXTMODE
 70
     0
  9
$MIRRTEXT
 70
     0
  9
$DRAGMODE
 70
     2
  9
$LTSCALE
 40
0.6431102362
  9
$OSMODE
 70
  4095
  9
$ATTMODE
 70
     1
  9
$TEXTSIZE
 40
0.2
  9
$TRACEWID
 40
0.05
  9
$TEXTSTYLE
  7
STANDARD
  9
$CLAYER
  8
0
  9
$CELTYPE
  6
BYLAYER
  9
$CECOLOR
 62
   256
  9
$DIMSCALE
 40
1.0
  9
$DIMASZ
 40
0.1875
  9
$DIMEXO
 40
0.0625
  9
$DIMDLI
 40
0.4443307087
  9
$DIMRND
 40
0.0
  9
$DIMDLE
 40
0.0
  9
$DIMEXE
 40
0.125
  9
$DIMTP
 40
0.01
  9
$DIMTM
 40
0.01
  9
$DIMTXT
 40
2.0
  9
$DIMCEN
 40
0.1052362205
  9
$DIMTSZ
 40
0.0
  9
$DIMTOL
 70
     1
  9
$DIMLIM
 70
     0
  9
$DIMTIH
 70
     1
  9
$DIMTOH
 70
     1
  9
$DIMSE1
 70
     0
  9
$DIMSE2
 70
     0
  9
$DIMTAD
 70
     0
  9
$DIMZIN
 70
     0
  9
$DIMBLK
  1

  9
$DIMASO
 70
     1
  9
$DIMSHO
 70
     1
  9
$DIMPOST
  1
\X
  9
$DIMAPOST
  1

  9
$DIMALT
 70
     1
  9
$DIMALTD
 70
     2
  9
$DIMALTF
 40
25.3999999999999986
  9
$DIMLFAC
 40
1.0
  9
$DIMTOFL
 70
     0
  9
$DIMTVP
 40
0.0
  9
$DIMTIX
 70
     0
  9
$DIMSOXD
 70
     0
  9
$DIMSAH
 70
     0
  9
$DIMBLK1
  1

  9
$DIMBLK2
  1

  9
$DIMSTYLE
  2
STANDARD
  9
$DIMCLRD
 70
     0
  9
$DIMCLRE
 70
     0
  9
$DIMCLRT
 70
     0
  9
$DIMTFAC
 40
1.0
  9
$DIMGAP
 40
0.09
  9
$LUNITS
 70
     2
  9
$LUPREC
 70
     4
  9
$SKETCHINC
 40
0.1
  9
$FILLETRAD
 40
0.0
  9
$AUNITS
 70
     0
  9
$AUPREC
 70
     0
  9
$MENU
  1
.
  9
$ELEVATION
 40
0.0
  9
$PELEVATION
 40
0.0
  9
$THICKNESS
 40
0.0
  9
$LIMCHECK
 70
     0
  9
$BLIPMODE
 70
     0
  9
$CHAMFERA
 40
0.0
  9
$CHAMFERB
 40
0.0
  9
$SKPOLY
 70
     0
  9
$TDCREATE
 40
2458060.468368056230247
  9
$TDUPDATE
 40
2459568.4205439807847142
  9
$TDINDWG
 40
0.4189885417
  9
$TDUSRTIMER
 40
0.4189885417
  9
$USRTIMER
 70
     1
  9
$ANGBASE
 50
0.0
  9
$ANGDIR
 70
     0
  9
$PDMODE
 70
     0
  9
$PDSIZE
 40
0.3125
  9
$PLINEWID
 40
0.0
  9
$COORDS
 70
     1
  9
$SPLFRAME
 70
     0
  9
$SPLINETYPE
 70
     6
  9
$SPLINESEGS
 70
     8
  9
$ATTDIA
 70
     1
  9
$ATTREQ
 70
     1
  9
$HANDLING
 70
     1
  9
$HANDSEED
  5
276E2
  9
$SURFTAB1
 70
     6
  9
$SURFTAB2
 70
     6
  9
$SURFTYPE
 70
     6
  9
$SURFU
 70
     6
  9
$SURFV
 70
     6
  9
$UCSNAME
  2

  9
$UCSORG
 10
0.0
 20
0.0
 30
0.0
  9
$UCSXDIR
 10
1.0
 20
0.0
 30
0.0
  9
$UCSYDIR
 10
0.0
 20
1.0
 30
0.0
  9
$PUCSNAME
  2

  9
$PUCSORG
 10
0.0
 20
0.0
 30
0.0
  9
$PUCSXDIR
 10
1.0
 20
0.0
 30
0.0
  9
$PUCSYDIR
 10
0.0
 20
1.0
 30
0.0
  9
$USERI1
 70
     0
  9
$USERI2
 70
     0
  9
$USERI3
 70
     0
  9
$USERI4
 70
     0
  9
$USERI5
 70
     0
  9
$USERR1
 40
0.0
  9
$USERR2
 40
0.0
  9
$USERR3
 40
0.0
  9
$USERR4
 40
0.0
  9
$USERR5
 40
0.0
  9
$WORLDVIEW
 70
     1
  9
$SHADEDGE
 70
     3
  9
$SHADEDIF
 70
    70
  9
$TILEMODE
 70
     1
  9
$MAXACTVP
 70
    64
  9
$PLIMCHECK
 70
     0
  9
$PEXTMIN
 10
1.0000000000000000E+20
 20
1.0000000000000000E+20
 30
1.0000000000000000E+20
  9
$PEXTMAX
 10
-1.0000000000000000E+20
 20
-1.0000000000000000E+20
 30
-1.0000000000000000E+20
  9
$PLIMMIN
 10
0.0
 20
0.0
  9
$PLIMMAX
 10
12.0
 20
9.0
  9
$UNITMODE
 70
     0
  9
$VISRETAIN
 70
     1
  9
$PLINEGEN
 70
     0
  9
$PSLTSCALE
 70
     1
  0
ENDSEC
  0
SECTION
  2
TABLES
  0
TABLE
  2
VPORT
 70
     1
  0
VPORT
  2
*ACTIVE
 70
     0
 10
0.0
 20
0.0
 11
1.0
 21
1.0
 12
-673.2516455317581858
 22
30.6687584948580394
 13
0.0
 23
0.0
 14
1.0
 24
1.0
 15
0.0
 25
0.0
 16
0.0
 26
0.0
 36
17.1152628219792007
 17
3803.5440673828129547
 27
125.9952621967499056
 37
0.0
 40
57.402628087538659
 41
2.344785276073619
 42
50.0
 43
0.0
 44
0.0
 50
0.0
 51
0.0
 71
     0
 72
   100
 73
     1
 74
     1
 75
     0
 76
     0
 77
     0
 78
     0
  0
ENDTAB
  0
TABLE
  2
LTYPE
 70
     2
  0
LTYPE
  2
CONTINUOUS
 70
     0
  3
Solid line
 72
    65
 73
     0
 40
0.0
  0
LTYPE
  2
PHANTOM2
 70
     0
  3
___ _ _ ___ _ _ ___ _ _ ___ _ _
 72
    65
 73
     6
 40
1.25
 49
0.625
 49
-0.125
 49
0.125
 49
-0.125
 49
0.125
 49
-0.125
  0
ENDTAB
  0
TABLE
  2
LAYER
 70
     2
  0
LAYER
  2
0
 70
     0
 62
   255
  6
CONTINUOUS
  0
LAYER
  2
DEFPOINTS
 70
     0
 62
     7
  6
CONTINUOUS
  0
ENDTAB
  0
TABLE
  2
STYLE
 70
     1
  0
STYLE
  2
STANDARD
 70
     0
 40
0.0
 41
0.8
 50
0.0
 71
     0
 42
0.2
  3
txt
  4

  0
ENDTAB
  0
TABLE
  2
VIEW
 70
     0
  0
ENDTAB
  0
TABLE
  2
UCS
 70
     0
  0
ENDTAB
  0
TABLE
  2
APPID
 70
     9
  0
APPID
  2
ACAD
 70
     0
  0
APPID
  2
ACAD_MLEADERVER
 70
     0
  0
APPID
  2
ACAD_EXEMPT_FROM_CAD_STANDARDS
 70
     0
  0
APPID
  2
ACAD_NAV_VCDISPLAY
 70
     0
  0
APPID
  2
ACAECLAYERSTANDARD
 70
     0
  0
APPID
  2
ACCMTRANSPARENCY
 70
     0
  0
APPID
  2
ACAD_DSTYLE_DIMJAG
 70
     0
  0
APPID
  2
ACAD_DSTYLE_DIMTALN
 70
     0
  0
APPID
  2
ACDBATTR
 70
     0
  0
ENDTAB
  0
TABLE
  2
DIMSTYLE
 70
     1
  0
DIMSTYLE
  2
STANDARD
 70
     0
  3

  4

  5

  6

  7

 40
1.0
 41
0.1875
 42
0.0625
 43
0.38
 44
0.125
 45
0.0
 46
0.0
 47
0.01
 48
0.01
140
0.15625
141
0.09
142
0.0
143
25.3999999999999986
144
1.0
145
0.0
146
1.0
147
0.09
 71
     1
 72
     0
 73
     1
 74
     1
 75
     0
 76
     0
 77
     0
 78
     4
170
     0
171
     2
172
     0
173
     0
174
     0
175
     0
176
     0
177
     0
178
     0
  0
ENDTAB
  0
ENDSEC
  0
SECTION
  2
BLOCKS
  0
BLOCK
  8
0
  2
$MODEL_SPACE
 70
     0
 10
0.0
 20
0.0
 30
0.0
  3
$MODEL_SPACE
  1

  0
ENDBLK
  5
21
  8
0
  0
BLOCK
 67
     1
  8
0
  2
$PAPER_SPACE
 70
     0
 10
0.0
 20
0.0
 30
0.0
  3
$PAPER_SPACE
  1

  0
ENDBLK
  5
1D
 67
     1
  8
0
  0
ENDSEC
  0
SECTION
  2
ENTITIES
  0
ATTDEF
  5
2626E
  8
DEFPOINTS
 10
3130.0149910650279708
 20
134.0141915156578136
 30
0.0
 40
0.001
  1
K-26245T-4
  3

  2
MODELNUMBER
 70
     0
1001
ACDBATTR
1070
     0
1070
     1
  0
ATTDEF
  5
2626F
  8
DEFPOINTS
 10
3130.0149910650279708
 20
134.0125248489912053
 30
0.0
 40
0.001
  1
ALEO
  3

  2
TRADENAME
 70
     0
1001
ACDBATTR
1070
     0
1070
     1
  0
ATTDEF
  5
26270
  8
DEFPOINTS
 10
3130.0149910650279708
 20
134.0108581823245117
 30
0.0
 40
0.001
  1
BATH AND SHOWER FAUCET
  3

  2
PRODUCT
 70
     0
1001
ACDBATTR
1070
     0
1070
     1
  0
LINE
  5
26D53
  8
0
 10
3129.384807462245135
 20
166.9819192176649949
 30
0.0
 11
3129.8331645134821883
 21
166.9819192176649949
 31
0.0
  0
ARC
  5
26D54
  8
0
 10
3129.384807462245135
 20
167.0016192176649952
 30
0.0
 40
0.0197
 50
180.0
 51
270.0
  0
LINE
  5
26D55
  8
0
 10
3129.3651074622448505
 20
168.2023766979650077
 30
0.0
 11
3129.3651074622448505
 21
167.0016192176649952
 31
0.0
  0
LINE
  5
26D56
  8
0
 10
3129.384807462245135
 20
168.222076697965008
 30
0.0
 11
3130.6446200606451384
 21
168.222076697965008
 31
0.0
  0
LINE
  5
26D57
  8
0
 10
3129.4635326591451303
 20
168.3008168554650013
 30
0.0
 11
3129.4635326591451303
 21
168.222076697965008
 31
0.0
  0
LINE
  5
26D58
  8
0
 10
3130.5658948638451875
 20
168.222076697965008
 30
0.0
 11
3130.5658948638451875
 21
168.3008168554650013
 31
0.0
  0
ARC
  5
26D59
  8
0
 10
3129.384807462245135
 20
168.2023766979650077
 30
0.0
 40
0.0197
 50
90.0000000000260485
 51
180.0000000000098055
  0
ARC
  5
26D5A
  8
0
 10
3130.6446200606451384
 20
168.2023766979650077
 30
0.0
 40
0.0197
 50
0.0000000000097707
 51
90.0
  0
LINE
  5
26D5B
  8
0
 10
3130.6643200606649771
 20
167.7390988936826091
 30
0.0
 11
3130.6643200606440587
 21
168.2023766979650077
 31
0.0
  0
LINE
  5
26D5C
  8
0
 10
3129.6210129740447883
 20
181.9228640994654995
 30
0.0
 11
3129.6210129740447883
 21
184.7575097687650043
 31
0.0
  0
LINE
  5
26D5D
  8
0
 10
3130.4084145488450304
 20
184.7575097687650043
 30
0.0
 11
3130.4084145488450304
 21
181.9228640994649879
 31
0.0
  0
ARC
  5
26D5E
  8
0
 10
3130.0147137614449093
 20
184.7575097687650043
 30
0.0
 40
0.3937007873999976
 50
0.0
 51
180.0
  0
ARC
  5
26D5F
  8
0
 10
3129.6406980133488105
 20
181.0649066883352134
 30
0.0
 40
0.019685039496224
 50
0.0000000882877197
 51
69.9999997456681058
  0
ARC
  5
26D60
  8
0
 10
3129.6406980134452169
 20
180.9373601408655077
 30
0.0
 40
0.0196850393999891
 50
316.4847259471940788
 51
0.0000000000097707
  0
ARC
  5
26D61
  8
0
 10
3130.0147137575618217
 20
180.5822429065921995
 30
0.0
 40
0.4960629871997393
 50
136.4847257043716979
 51
151.5531721402535084
  0
ARC
  5
26D62
  8
0
 10
3126.7893041734400867
 20
181.0011334168665087
 30
0.0
 40
2.8717870676497839
 50
358.7275379892876117
 51
1.2724619208715631
  0
ARC
  5
26D63
  8
0
 10
3130.3887295095410082
 20
181.0649066883352134
 30
0.0
 40
0.0196850394962488
 50
110.000000254385796
 51
179.999999911669903
  0
ARC
  5
26D64
  8
0
 10
3130.3887295094450565
 20
180.9373601408655077
 30
0.0
 40
0.0196850393999891
 50
179.9999999999901945
 51
223.5152740528058928
  0
ARC
  5
26D65
  8
0
 10
3130.0147137614449093
 20
180.5822429035656
 30
0.0
 40
0.496062992099808
 50
28.4368901582449709
 51
43.5152742403062334
  0
ARC
  5
26D66
  8
0
 10
3133.2401233494501867
 20
181.0011334168665087
 30
0.0
 40
2.8717870676497839
 50
178.7275380791284078
 51
181.2724620107157136
  0
LINE
  5
26D67
  8
0
 10
3129.5422728165449371
 20
181.9228640994654995
 30
0.0
 11
3130.4871547063448816
 21
181.9228640994656132
 31
0.0
  0
LINE
  5
26D68
  8
0
 10
3129.6474306934601373
 20
181.0834045746597099
 30
0.0
 11
3130.3819968294292266
 21
181.0834045746597099
 31
0.0
  0
LINE
  5
26D69
  8
0
 10
3129.6603830527451464
 20
180.9373601408655077
 30
0.0
 11
3130.3690444700450826
 21
180.9373601408655077
 31
0.0
  0
LINE
  5
26D6A
  8
0
 10
3129.5422733389450514
 20
181.9228640994654995
 30
0.0
 11
3129.5422728165449371
 21
181.6079034695654002
 31
0.0
  0
LINE
  5
26D6B
  8
0
 10
3129.5422728165449371
 20
181.6079034695654002
 30
0.0
 11
3129.5816428953439754
 21
181.6079034695654002
 31
0.0
  0
LINE
  5
26D6C
  8
0
 10
3129.5816428953439754
 20
181.6079034695654002
 30
0.0
 11
3129.5816428953439754
 21
181.1073493749655086
 31
0.0
  0
LINE
  5
26D6D
  8
0
 10
3129.5816428953439754
 20
181.1073493749655086
 30
0.0
 11
3129.6474306934610468
 21
181.0834045746597099
 31
0.0
  0
LINE
  5
26D6E
  8
0
 10
3130.487154183945222
 20
181.9228640994654995
 30
0.0
 11
3130.487154183945222
 21
181.6079034695654002
 31
0.0
  0
LINE
  5
26D6F
  8
0
 10
3130.487154183945222
 20
181.6079034695654002
 30
0.0
 11
3130.4477846275449338
 21
181.6079034695654002
 31
0.0
  0
LINE
  5
26D70
  8
0
 10
3130.4477846275449338
 20
181.6079034695654002
 30
0.0
 11
3130.4477846275449338
 21
181.1073552414655126
 31
0.0
  0
LINE
  5
26D71
  8
0
 10
3130.4477846275449338
 20
181.1073552414655126
 30
0.0
 11
3130.3819968294292266
 21
181.0834045746597099
 31
0.0
  0
LINE
  5
26D72
  8
0
 10
3129.5816428953439754
 20
181.1169646384655039
 30
0.0
 11
3130.4477846275449338
 21
181.1169646384655039
 31
0.0
  0
ARC
  5
26D73
  8
0
 10
3129.360568909840822
 20
180.7515342422572928
 30
0.0
 40
0.0590551180082231
 50
89.9999993829890883
 51
175.5518357766094084
  0
ARC
  5
26D74
  8
0
 10
3141.4264801605709181
 20
179.8129479359388938
 30
0.0
 40
12.1614168116983699
 50
175.5520169845063094
 51
179.1297030443263054
  0
LINE
  5
26D75
  8
0
 10
3129.2155011627769454
 20
179.9858562253650121
 30
0.0
 11
3129.227312186376821
 21
179.9976672490649889
 31
0.0
  0
ARC
  5
26D76
  8
0
 10
3130.6688586125128495
 20
180.7515342422572928
 30
0.0
 40
0.0590551180082231
 50
4.4481642233905276
 51
90.0000006169848632
  0
ARC
  5
26D77
  8
0
 10
3118.6029473617832082
 20
179.8129479359388938
 30
0.0
 40
12.1614168116983699
 50
0.8702969556737066
 51
4.4479830154936861
  0
LINE
  5
26D78
  8
0
 10
3130.8139263595771808
 20
179.9858562253650121
 30
0.0
 11
3130.8021153359768505
 21
179.9976672490649889
 31
0.0
  0
LINE
  5
26D79
  8
0
 10
3129.3605689104770136
 20
180.8105893602655101
 30
0.0
 11
3130.6688586125128495
 21
180.8105893602655101
 31
0.0
  0
LINE
  5
26D7A
  8
0
 10
3129.227312186376821
 20
179.9976672490649889
 30
0.0
 11
3130.8021153359768505
 21
179.9976672490649889
 31
0.0
  0
LINE
  5
26D7B
  8
0
 10
3129.4871547063939943
 20
180.8105893602655101
 30
0.0
 11
3129.4871547063939943
 21
180.8184633760654947
 31
0.0
  0
LINE
  5
26D7C
  8
0
 10
3129.4871547063939943
 20
180.8184633760654947
 30
0.0
 11
3130.5417436994939635
 21
180.8184633760654947
 31
0.0
  0
LINE
  5
26D7D
  8
0
 10
3130.5417436994939635
 20
180.8184633760654947
 30
0.0
 11
3130.5417436994939635
 21
180.8105893602655101
 31
0.0
  0
LINE
  5
26D7E
  8
0
 10
3130.4084145488950526
 20
180.8840345238807004
 30
0.0
 11
3130.4084145488950526
 21
181.0930198381495018
 31
0.0
  0
LINE
  5
26D7F
  8
0
 10
3129.6210129740948105
 20
181.0930198381277023
 30
0.0
 11
3129.6210129740948105
 21
180.8839155136654995
 31
0.0
  0
CIRCLE
  5
26D80
  8
0
 10
3130.0148415490939442
 20
180.9976672490655005
 30
0.0
 40
0.0236220472
  0
LINE
  5
26D81
  8
0
 10
3129.6210129740447883
 20
179.454360162465008
 30
0.0
 11
3129.6210129740447883
 21
168.7732578002649859
 31
0.0
  0
LINE
  5
26D82
  8
0
 10
3130.4084145488450304
 20
179.454360162465008
 30
0.0
 11
3130.4084145488450304
 21
168.7732578002649859
 31
0.0
  0
LINE
  5
26D83
  8
0
 10
3129.5225877771449632
 20
137.7102656743649902
 30
0.0
 11
3129.5225877771449632
 21
158.2728759464152972
 31
0.0
  0
LINE
  5
26D84
  8
0
 10
3129.5225877771449632
 20
159.9431907018928882
 30
0.0
 11
3129.5225877771449632
 21
166.9819192176649949
 31
0.0
  0
LINE
  5
26D85
  8
0
 10
3130.506839745644811
 20
137.7102656743649902
 30
0.0
 11
3130.506839745644811
 21
158.2727833159424051
 31
0.0
  0
LINE
  5
26D86
  8
0
 10
3130.506839745644811
 20
159.9431869807916939
 30
0.0
 11
3130.506839745644811
 21
164.1084051381951951
 31
0.0
  0
LINE
  5
26D87
  8
0
 10
3128.1643200606449682
 20
159.8756194388649874
 30
0.0
 11
3128.1643200606449682
 21
158.3401875002651025
 31
0.0
  0
LINE
  5
26D88
  8
0
 10
3128.7469897280448095
 20
160.0594085642649134
 30
0.0
 11
3128.7024031716359787
 21
159.882659715971613
 31
0.0
  0
LINE
  5
26D89
  8
0
 10
3129.2943668369857733
 20
159.8885879371553926
 30
0.0
 11
3129.3356130832708004
 21
160.0545758778758909
 31
0.0
  0
LINE
  5
26D8A
  8
0
 10
3129.4320365960447816
 20
159.9346751230650057
 30
0.0
 11
3129.4320365960447816
 21
159.8953050443649886
 31
0.0
  0
LINE
  5
26D8B
  8
0
 10
3129.4320365960447816
 20
158.3205018947649876
 30
0.0
 11
3129.4320365101470998
 21
158.281131815900693
 31
0.0
  0
LINE
  5
26D8C
  8
0
 10
3130.5973910317497939
 20
158.2811318158925076
 30
0.0
 11
3130.5973909267449926
 21
158.3205018947649876
 31
0.0
  0
LINE
  5
26D8D
  8
0
 10
3130.5973909267449926
 20
159.8953050443649886
 30
0.0
 11
3130.5973909267449926
 21
159.9346751230650057
 31
0.0
  0
LINE
  5
26D8E
  8
0
 10
3130.8414854149441453
 20
158.3205018947649876
 30
0.0
 11
3130.8414854149441453
 21
159.8953050443649886
 31
0.0
  0
LINE
  5
26D8F
  8
0
 10
3130.8847137614448002
 20
159.8952940809649874
 30
0.0
 11
3130.8847137614448002
 21
158.3205018947649876
 31
0.0
  0
LINE
  5
26D90
  8
0
 10
3130.577705595344014
 20
158.2614467766649966
 30
0.0
 11
3130.5304600404451776
 21
158.2614467766649966
 31
0.0
  0
LINE
  5
26D91
  8
0
 10
3129.4989674832449964
 20
158.2614467766649966
 30
0.0
 11
3129.4517219275448952
 21
158.2614467766649966
 31
0.0
  0
LINE
  5
26D92
  8
0
 10
3131.7513990320449011
 20
158.3205018947649876
 30
0.0
 11
3130.8847137614448002
 21
158.3205018947649876
 31
0.0
  0
LINE
  5
26D93
  8
0
 10
3130.8414854149441453
 20
158.3205018947649876
 30
0.0
 11
3130.5973909267449926
 21
158.3205018947649876
 31
0.0
  0
LINE
  5
26D94
  8
0
 10
3129.4320365960447816
 20
158.3205018947649876
 30
0.0
 11
3128.1840051000449421
 21
158.3205018947649876
 31
0.0
  0
LINE
  5
26D95
  8
0
 10
3130.8414854149441453
 20
158.379557012865007
 30
0.0
 11
3130.8847137614448002
 21
158.379557012865007
 31
0.0
  0
LINE
  5
26D96
  8
0
 10
3129.5109103425438661
 20
159.9504260914650047
 30
0.0
 11
3129.5093735238438057
 21
159.9513831646650033
 31
0.0
  0
LINE
  5
26D97
  8
0
 10
3130.8414854149441453
 20
159.8362499262649976
 30
0.0
 11
3130.8847137614448002
 21
159.8362499262649976
 31
0.0
  0
LINE
  5
26D98
  8
0
 10
3131.4901336658549553
 20
159.8953053734136063
 30
0.0
 11
3130.8847137614448002
 21
159.8952940809649874
 31
0.0
  0
LINE
  5
26D99
  8
0
 10
3130.8414854149441453
 20
159.8953050443649886
 30
0.0
 11
3130.5973909267449926
 21
159.8953050443649886
 31
0.0
  0
LINE
  5
26D9A
  8
0
 10
3129.4320365960447816
 20
159.8953050443649886
 30
0.0
 11
3129.309989351943841
 21
159.8953050443649886
 31
0.0
  0
LINE
  5
26D9B
  8
0
 10
3128.6721642608449656
 20
159.8953050443649886
 30
0.0
 11
3128.1840051000449421
 21
159.8953050443649886
 31
0.0
  0
LINE
  5
26D9C
  8
0
 10
3130.5777055952448791
 20
159.954360162465008
 30
0.0
 11
3130.5304600395438683
 21
159.954360162465008
 31
0.0
  0
LINE
  5
26D9D
  8
0
 10
3129.4989674823441419
 20
159.954360162465008
 30
0.0
 11
3129.4517219275448952
 21
159.954360162465008
 31
0.0
  0
LINE
  5
26D9E
  8
0
 10
3129.3159990874441974
 20
160.0743293448649922
 30
0.0
 11
3128.7660902360448745
 21
160.0743293448649922
 31
0.0
  0
ARC
  5
26D9F
  8
0
 10
3130.5778761196461346
 20
159.9348453578946874
 30
0.0
 40
0.0195155495948701
 50
359.5002005493961974
 51
90.5006496380633791
  0
ARC
  5
26DA0
  8
0
 10
3129.4517294140218837
 20
158.2811396806883124
 30
0.0
 40
0.019692905446315
 50
180.0228823088854142
 51
269.9782183683443009
  0
ARC
  5
26DA1
  8
0
 10
3129.4517292807458944
 20
159.9346674776519137
 30
0.0
 40
0.019692686185875
 50
90.0213941071104244
 51
179.9777557055039097
  0
ARC
  5
26DA2
  8
0
 10
3130.5776992446358236
 20
158.28113856391181
 30
0.0
 40
0.0196917882708542
 50
270.0184782015119254
 51
359.9803657734727267
  0
ARC
  5
26DA3
  8
0
 10
3128.1840051000499443
 20
158.3401869340789005
 30
0.0
 40
0.0196850394138788
 50
179.9983520442083034
 51
269.9999999832725734
  0
ARC
  5
26DA4
  8
0
 10
3128.1840051000499443
 20
159.8756200049512017
 30
0.0
 40
0.0196850394138792
 50
90.0000000167273555
 51
180.0016476647431034
  0
ARC
  5
26DA5
  8
0
 10
3132.0742958952027948
 20
170.1386451413814882
 30
0.0
 40
11.81683398161152
 50
270.7341849046795801
 51
271.8726830466180786
  0
ARC
  5
26DA6
  8
0
 10
3131.7353397275251154
 20
159.9315577419550038
 30
0.0
 40
1.6111358862699141
 50
270.5711160778004114
 51
274.0858309261728891
  0
ARC
  5
26DA7
  8
0
 10
3132.0196830853337815
 20
155.9682640064773977
 30
0.0
 40
2.3623448819629438
 50
86.9605913047396939
 51
94.1157338421761125
  0
ARC
  5
26DA8
  8
0
 10
3131.165157472464216
 20
140.218989369192002
 30
0.0
 40
18.1347835717810213
 50
86.7075860680755426
 51
86.9029229214659722
  0
ARC
  5
26DA9
  8
0
 10
3132.5412117869318536
 20
164.1675608176109051
 30
0.0
 40
5.8532886330390124
 50
266.7235179045010796
 51
266.910186374127079
  0
ARC
  5
26DAA
  8
0
 10
3128.9910768063950854
 20
160.6154997071562889
 30
0.0
 40
0.7876455827479462
 50
246.1155490068391885
 51
293.8844509931369089
  0
ARC
  5
26DAB
  8
0
 10
3128.7661876915881294
 20
160.0545186521065943
 30
0.0
 40
0.0198109324654052
 50
90.2818551769928348
 51
165.7100537213314908
  0
ARC
  5
26DAC
  8
0
 10
3129.3150726322141963
 20
160.0537949427551041
 30
0.0
 40
0.0205552910294577
 50
2.1773010810035549
 51
87.4167253080906477
  0
ARC
  5
26DAD
  8
0
 10
3130.5307237922029344
 20
158.2820442793720872
 30
0.0
 40
0.0205991913133042
 50
238.8037209814038135
 51
269.2663655898824118
  0
ARC
  5
26DAE
  8
0
 10
3129.4987037267001142
 20
158.2820442922331097
 30
0.0
 40
0.0205992042343559
 50
270.7336472616526066
 51
301.1962650128916152
  0
ARC
  5
26DAF
  8
0
 10
3130.2307629286829069
 20
157.1511484316727092
 30
0.0
 40
1.326568755318531
 50
108.216699489830205
 51
122.9427657170039936
  0
ARC
  5
26DB0
  8
0
 10
3129.7288328410691065
 20
157.0283335453756877
 30
0.0
 40
1.4676341420909
 50
57.3766989269742922
 51
67.1705387683790036
  0
ARC
  5
26DB1
  8
0
 10
3130.0177030548170478
 20
157.7667704653323142
 30
0.0
 40
0.6752690961265977
 50
65.4508533771881247
 51
107.3740509861255958
  0
ARC
  5
26DB2
  8
0
 10
3130.4932707522261808
 20
156.8115475348824077
 30
0.0
 40
1.8447658915039069
 50
115.519161786916797
 51
125.1183786874043022
  0
ARC
  5
26DB3
  8
0
 10
3129.502753384018888
 20
156.7606820238601983
 30
0.0
 40
1.905588984963335
 50
54.9399058828363707
 51
63.2204543824703435
  0
ARC
  5
26DB4
  8
0
 10
3130.0165356478810281
 20
157.8548385163456089
 30
0.0
 40
0.6981385291704829
 50
60.4039743271017571
 51
117.0981970409056032
  0
ARC
  5
26DB5
  8
0
 10
3130.5934837528461685
 20
161.5648508551331872
 30
0.0
 40
2.0338000669428711
 50
235.1749561781381885
 51
242.6833034878133049
  0
ARC
  5
26DB6
  8
0
 10
3129.5066375789660924
 20
161.4484739358547927
 30
0.0
 40
1.8979137154207419
 50
296.8023904373014261
 51
305.0794496637735733
  0
ARC
  5
26DB7
  8
0
 10
3130.0841501445001995
 20
160.5768595072433982
 30
0.0
 40
0.9222489051167313
 50
242.6296832467697868
 51
257.4595015863170033
  0
ARC
  5
26DB8
  8
0
 10
3129.91909851643004
 20
160.6376137023119952
 30
0.0
 40
0.9881851047418559
 50
286.411546361778278
 51
296.6562693098417185
  0
ARC
  5
26DB9
  8
0
 10
3130.0153881338392239
 20
160.3012673964256862
 30
0.0
 40
0.6383429267478848
 50
258.1131558279645901
 51
286.6505730029293204
  0
ARC
  5
26DBA
  8
0
 10
3129.4987037304740625
 20
159.9337626596019959
 30
0.0
 40
0.0205991914705302
 50
58.803720558955078
 51
89.2663652856640937
  0
ARC
  5
26DBB
  8
0
 10
3130.5307223268559937
 20
159.9337677835241891
 30
0.0
 40
0.0205940492637517
 50
90.7297429506284061
 51
121.2001706329892983
  0
ARC
  5
26DBC
  8
0
 10
3130.450466741172022
 20
161.4537662529197917
 30
0.0
 40
1.7727938027998831
 50
237.9954719486877934
 51
243.6489972728763007
  0
ARC
  5
26DBD
  8
0
 10
3129.5463195542711219
 20
161.5065309318258073
 30
0.0
 40
1.834841504673234
 50
298.2235835426910739
 51
302.052175936340177
  0
ARC
  5
26DBE
  8
0
 10
3130.0877547764021074
 20
160.7127437758792041
 30
0.0
 40
0.947781122984039
 50
243.4136087229674104
 51
256.4232709796444283
  0
ARC
  5
26DBF
  8
0
 10
3129.8953631056438098
 20
160.835219789942812
 30
0.0
 40
1.078321594820411
 50
285.7932177040573265
 51
298.7510394338135029
  0
ARC
  5
26DC0
  8
0
 10
3130.0151685483901929
 20
160.4192035147250976
 30
0.0
 40
0.6454061127108643
 50
256.5697599588293087
 51
285.6105913023059202
  0
ARC
  5
26DC1
  8
0
 10
3132.4584747134531426
 20
158.3461832173057076
 30
0.0
 40
0.0181689623922502
 50
276.2549306105876212
 51
311.0706378388447888
  0
ARC
  5
26DC2
  8
0
 10
3132.4489387489488763
 20
158.3550418435569895
 30
0.0
 40
0.0311426168343931
 50
313.590385912764873
 51
358.2807221471852017
  0
ARC
  5
26DC3
  8
0
 10
3118.5515533590778432
 20
158.96964426108579
 30
0.0
 40
13.9421084276290195
 50
357.4695988938307778
 51
0.5654961634050735
  0
ARC
  5
26DC4
  8
0
 10
3130.4251232657129549
 20
161.4040827360032893
 30
0.0
 40
1.7735218821582019
 50
235.9475394648744953
 51
246.1611218083677102
  0
ARC
  5
26DC5
  8
0
 10
3130.0526356587870396
 20
160.5670214701065106
 30
0.0
 40
0.8573304767496781
 50
246.3213356492431103
 51
259.209189915524405
  0
ARC
  5
26DC6
  8
0
 10
3129.6043678867767994
 20
161.4040827360032893
 30
0.0
 40
1.7735218821582019
 50
293.8388781916315793
 51
304.0499794945449139
  0
ARC
  5
26DC7
  8
0
 10
3129.9768554937031695
 20
160.5670214701065106
 30
0.0
 40
0.8573304767496781
 50
280.790810084475595
 51
293.6786643507330723
  0
ARC
  5
26DC8
  8
0
 10
3130.0147455762448772
 20
160.3740208438576929
 30
0.0
 40
0.6606495925927091
 50
259.3033558307561179
 51
280.6966441692438821
  0
ARC
  5
26DC9
  8
0
 10
3130.4251232657129549
 20
156.8117242031266869
 30
0.0
 40
1.7735218821582019
 50
113.8388781916322046
 51
124.0524638835726989
  0
ARC
  5
26DCA
  8
0
 10
3130.0526356587870396
 20
157.648785469023494
 30
0.0
 40
0.8573304767496781
 50
100.7908100844754955
 51
113.6786643507330012
  0
ARC
  5
26DCB
  8
0
 10
3129.6043678867767994
 20
156.8117242031266869
 30
0.0
 40
1.7735218821582019
 50
55.9500164156032724
 51
66.1611218083677386
  0
ARC
  5
26DCC
  8
0
 10
3129.9768554937031695
 20
157.648785469023494
 30
0.0
 40
0.8573304767496781
 50
66.3213356492669561
 51
79.2091899155244334
  0
ARC
  5
26DCD
  8
0
 10
3130.0147455762448772
 20
157.841786095272397
 30
0.0
 40
0.6606495925927091
 50
79.3033558307560895
 51
100.6966441692438963
  0
LINE
  5
26DCE
  8
0
 10
3132.3176698481438507
 20
159.6074850844649973
 30
0.0
 11
3132.4604542662618769
 21
159.5830073166650038
 31
0.0
  0
LINE
  5
26DCF
  8
0
 10
3132.4604542662618769
 20
159.5830073166650038
 30
0.0
 11
3132.4604542658439641
 21
158.3281224153649021
 31
0.0
  0
ARC
  5
26DD0
  8
0
 10
3132.006391056107077
 20
160.0204143500045859
 30
0.0
 40
0.5171122360877212
 50
271.7383026696936099
 51
307.0101117118812795
  0
ARC
  5
26DD1
  8
0
 10
3132.0726342783977998
 20
160.1067514422109923
 30
0.0
 40
0.6053263090166024
 50
214.679982634542597
 51
265.2090704685493847
  0
LINE
  5
26DD2
  8
0
 10
3125.2903117289938564
 20
134.9741889861784045
 30
0.0
 11
3125.2903117289938564
 21
133.0450850491783967
 31
0.0
  0
LINE
  5
26DD3
  8
0
 10
3125.3100117289950504
 20
133.0253850491783965
 30
0.0
 11
3129.537578139093057
 21
133.0253850491783965
 31
0.0
  0
LINE
  5
26DD4
  8
0
 10
3130.4914420646377948
 20
133.0253850491783965
 30
0.0
 11
3134.266682393345036
 21
133.0253850491783965
 31
0.0
  0
LINE
  5
26DD5
  8
0
 10
3134.3788869897448421
 20
133.0253850491783965
 30
0.0
 11
3135.0696695133278808
 21
133.0253850491783965
 31
0.0
  0
LINE
  5
26DD6
  8
0
 10
3134.7012354545900052
 20
134.9931288823910904
 30
0.0
 11
3135.6963076138749784
 21
134.9931288823910904
 31
0.0
  0
ARC
  5
26DD7
  8
0
 10
3125.3106149473728692
 20
134.9727862075399969
 30
0.0
 40
0.0203516206829035
 50
91.698886661292164
 51
176.0476330201256872
  0
ARC
  5
26DD8
  8
0
 10
3125.3100117289950504
 20
133.0450850491783967
 30
0.0
 40
0.0197
 50
180.0
 51
270.0
  0
LINE
  5
26DD9
  8
0
 10
3123.420505252744988
 20
179.9701572200866906
 30
0.0
 11
3123.4274606358048914
 21
179.5714973117983106
 31
0.0
  0
LINE
  5
26DDA
  8
0
 10
3123.4865067596501831
 20
179.5134728476982957
 30
0.0
 11
3136.5429207632391808
 21
179.5134728476982957
 31
0.0
  0
ARC
  5
26DDB
  8
0
 10
3123.4864708531408724
 20
179.5724914271984005
 30
0.0
 40
0.0590185904226873
 50
180.9651418329088983
 51
270.0348583647344185
  0
LINE
  5
26DDC
  8
0
 10
3136.5932279128551272
 20
179.9861312228678116
 30
0.0
 11
3123.4361996100351462
 21
179.9861312228678116
 31
0.0
  0
ARC
  5
26DDD
  8
0
 10
3123.4376301675210925
 20
179.9690289040653965
 30
0.0
 40
0.0171620454241843
 50
94.7814884798247164
 51
176.230378881447507
  0
LINE
  5
26DDE
  8
0
 10
3135.7173771916268379
 20
131.3362520447801103
 30
0.0
 11
3135.7173771916268379
 21
134.8144572811029036
 31
0.0
  0
LINE
  5
26DDF
  8
0
 10
3135.6483698659449146
 20
131.139493048378398
 30
0.0
 11
3135.6858055756301837
 21
131.1269169072594138
 31
0.0
  0
ARC
  5
26DE0
  8
0
 10
3135.6905876076748427
 20
131.1465686146202074
 30
0.0
 40
0.0206915175548922
 50
271.7739262014521273
 51
341.136830909107573
  0
ARC
  5
26DE1
  8
0
 10
3134.9863615092508553
 20
131.221159516557492
 30
0.0
 40
0.7283557991196274
 50
353.5927477830589964
 51
359.7470070558684938
  0
ARC
  5
26DE2
  8
0
 10
3149.2087611866331827
 20
130.9729368185699911
 30
0.0
 40
13.4962750436658201
 50
178.4574303638750905
 51
178.9598155191835076
  0
ARC
  5
26DE3
  8
0
 10
3135.1704623946161519
 20
132.7288538524030059
 30
0.0
 40
0.2657163571214935
 50
12.8953186774300992
 51
65.7283466147010671
  0
ARC
  5
26DE4
  8
0
 10
3135.017077124365187
 20
132.3886945257794139
 30
0.0
 40
0.6388589687583613
 50
65.7283466147010671
 51
85.2779313977428046
  0
ARC
  5
26DE5
  8
0
 10
3130.5685242402792028
 20
132.0763323544582875
 30
0.0
 40
4.9127949191552132
 50
358.7504470516738024
 51
8.3309882076656905
  0
ARC
  5
26DE6
  8
0
 10
3137.6028571791662216
 20
131.9228975753833879
 30
0.0
 40
2.123211201261884
 50
178.7504470516753088
 51
186.4291178059145011
  0
ARC
  5
26DE7
  8
0
 10
3137.3524291610337968
 20
131.7824696515440053
 30
0.0
 40
1.861975477543367
 50
182.9959374837376913
 51
195.5227148805649051
  0
ARC
  5
26DE8
  8
0
 10
3135.9811226286460624
 20
131.4153128053580986
 30
0.0
 40
0.4426270893489833
 50
197.2348762686904138
 51
213.3476396070853127
  0
ARC
  5
26DE9
  8
0
 10
3135.689454730541911
 20
131.223568803338992
 30
0.0
 40
0.0935772337229717
 50
213.4465276210513878
 51
243.9568667332565894
  0
ARC
  5
26DEA
  8
0
 10
3135.6919182770739098
 20
134.9748772201776887
 30
0.0
 40
0.0187720390763369
 50
7.0325872182214644
 51
76.477739940766142
  0
ARC
  5
26DEB
  8
0
 10
3135.1180508134912088
 20
134.9031569418802121
 30
0.0
 40
0.5971038101850242
 50
0.2389751718394346
 51
7.1208579962010718
  0
ARC
  5
26DEC
  8
0
 10
3137.5773486214197874
 20
134.9055183909646871
 30
0.0
 40
1.8621991959434669
 50
179.9960307652004019
 51
182.8028681510139108
  0
ARC
  5
26DED
  8
0
 10
3132.9674696669449077
 20
134.0096370176783864
 30
0.0
 40
1.1909448818999879
 50
235.748992351504512
 51
304.2503933510029128
  0
ARC
  5
26DEE
  8
0
 10
3132.9674696669449077
 20
134.0096370176783864
 30
0.0
 40
1.190944881900011
 50
55.6705003981347701
 51
124.3294996018651943
  0
LINE
  5
26DEF
  8
0
 10
3134.3788869897448421
 20
134.5995661792242117
 30
0.0
 11
3134.3788869897448421
 21
133.0253850491783965
 31
0.0
  0
ARC
  5
26DF0
  8
0
 10
3134.9290750544819275
 20
134.4987931962205892
 30
0.0
 40
0.5551062767108143
 50
122.2267888123072055
 51
139.1712349063504064
  0
ARC
  5
26DF1
  8
0
 10
3135.1245074702619604
 20
134.3198268845355869
 30
0.0
 40
0.820027424355195
 50
138.6371322203247871
 51
152.4889727047711858
  0
ARC
  5
26DF2
  8
0
 10
3134.7017157643981591
 20
134.5918324614621042
 30
0.0
 40
0.3226881839772898
 50
160.6759466802220118
 51
172.6645551181601093
  0
ARC
  5
26DF3
  8
0
 10
3134.791020970417776
 20
134.5821603490884115
 30
0.0
 40
0.412501370843776
 50
172.9158752886363004
 51
177.5816400760533895
  0
ARC
  5
26DF4
  8
0
 10
3134.7226435389811741
 20
134.827842391411707
 30
0.0
 40
0.1666671238653668
 50
97.3799262674663737
 51
122.5166562978142935
  0
ARC
  5
26DF5
  8
0
 10
3134.2680097928109717
 20
133.4114971442135982
 30
0.0
 40
0.315248748488298
 50
269.7587240356077132
 51
281.2884952636596836
  0
ARC
  5
26DF6
  8
0
 10
3134.1489114405358123
 20
134.0081496536712109
 30
0.0
 40
0.9236718205002244
 50
281.2884952636596836
 51
284.4206836777432272
  0
LINE
  5
26DF7
  8
0
 10
3134.266682393345036
 20
134.9931288823910904
 30
0.0
 11
3134.266682393345036
 21
133.0253850491783965
 31
0.0
  0
ARC
  5
26DF8
  8
0
 10
3134.2679750643019361
 20
134.6049189259319974
 30
0.0
 40
0.3147062723370699
 50
83.0505807462415362
 51
90.235345796916917
  0
ARC
  5
26DF9
  8
0
 10
3134.1612205849819475
 20
134.0437212724608003
 30
0.0
 40
0.8888794401145913
 50
66.9642089429376455
 51
80.6225617079282983
  0
LINE
  5
26DFA
  8
0
 10
3134.3060523441449732
 20
134.9207220823784041
 30
0.0
 11
3134.3060523441449732
 21
134.9173131618784112
 31
0.0
  0
LINE
  5
26DFB
  8
0
 10
3134.266682393345036
 20
134.9931288823910904
 30
0.0
 11
3125.3100115865131556
 21
134.9931288823910904
 31
0.0
  0
ARC
  5
26DFC
  8
0
 10
3127.0619578559389993
 20
134.0096370176783864
 30
0.0
 40
1.1909448818999879
 50
235.7496066489970872
 51
304.251007648495488
  0
ARC
  5
26DFD
  8
0
 10
3127.0619578559389993
 20
134.0096370176783864
 30
0.0
 40
1.190944881900011
 50
55.6705003981347701
 51
124.3294996018651943
  0
ARC
  5
26DFE
  8
0
 10
3134.8745625235760599
 20
133.2538413284090097
 30
0.0
 40
0.1445251839725083
 50
10.4680920809229701
 51
87.5219815809620769
  0
ARC
  5
26DFF
  8
0
 10
3134.956760830949861
 20
133.2823930660435963
 30
0.0
 40
0.0599741740285749
 50
276.9316821960223933
 51
357.6029243565458273
  0
ARC
  5
26E00
  8
0
 10
3134.9138982086910801
 20
133.6349559868235986
 30
0.0
 40
0.4151330363645826
 50
262.9296355975426991
 51
276.9316821960223933
  0
ARC
  5
26E01
  8
0
 10
3134.8972452643652105
 20
133.357631633355993
 30
0.0
 40
0.138987750199212
 50
197.5321510915728993
 51
255.6509900972095011
  0
ARC
  5
26E02
  8
0
 10
3134.8639025779461917
 20
133.2990809569280088
 30
0.0
 40
0.1005818361634391
 50
80.3221448787996053
 51
170.453163831632196
  0
ARC
  5
26E03
  8
0
 10
3134.8413675983210851
 20
133.3312660206451028
 30
0.0
 40
0.0973912065750697
 50
188.4304278121487926
 51
241.0678303417192865
  0
ARC
  5
26E04
  8
0
 10
3134.8916510895041938
 20
133.4222290702562077
 30
0.0
 40
0.2013272728743865
 50
241.0671994593851934
 51
261.7609631213910006
  0
ARC
  5
26E05
  8
0
 10
3134.8279827247770299
 20
133.3117655073629066
 30
0.0
 40
0.0831181940523257
 50
114.5719884531920059
 51
176.3978505445346912
  0
ARC
  5
26E06
  8
0
 10
3134.8543829669551997
 20
133.254027801858399
 30
0.0
 40
0.1466053220705222
 50
79.6146242079900759
 51
114.5719861639110064
  0
LINE
  5
26E07
  8
0
 10
3129.944689679944986
 20
179.513415280564999
 30
0.0
 11
3129.9471985809341277
 21
179.4655425981771089
 31
0.0
  0
LINE
  5
26E08
  8
0
 10
3130.0847378428447882
 20
179.513415280564999
 30
0.0
 11
3130.0822289419579647
 21
179.4655425982020915
 31
0.0
  0
LINE
  5
26E09
  8
0
 10
3129.958982409444161
 20
179.454360162465008
 30
0.0
 11
3130.0704451134470219
 21
179.454360162465008
 31
0.0
  0
ARC
  5
26E0A
  8
0
 10
3129.958982409444161
 20
179.4661601624650018
 30
0.0
 40
0.0118
 50
183.0000000206352126
 51
270.0
  0
ARC
  5
26E0B
  8
0
 10
3130.0704451134470219
 20
179.4661601624650018
 30
0.0
 40
0.0118
 50
269.9999999999739089
 51
357.0000001009544235
  0
LINE
  5
26E0C
  8
0
 10
3129.5824849555451692
 20
179.513415280564999
 30
0.0
 11
3129.5849938565338562
 21
179.4655425981771089
 31
0.0
  0
LINE
  5
26E0D
  8
0
 10
3129.7225331184449715
 20
179.513415280564999
 30
0.0
 11
3129.7200242175581479
 21
179.4655425982020915
 31
0.0
  0
LINE
  5
26E0E
  8
0
 10
3129.5967776850438895
 20
179.454360162465008
 30
0.0
 11
3129.7082403890472051
 21
179.454360162465008
 31
0.0
  0
ARC
  5
26E0F
  8
0
 10
3129.5967776850438895
 20
179.4661601624650018
 30
0.0
 40
0.0118
 50
183.0000000206352126
 51
270.0
  0
ARC
  5
26E10
  8
0
 10
3129.7082403890472051
 20
179.4661601624650018
 30
0.0
 40
0.0118
 50
269.9999999999739089
 51
357.0000001009544235
  0
LINE
  5
26E11
  8
0
 10
3129.2202802311448977
 20
179.513415280564999
 30
0.0
 11
3129.2227891321340394
 21
179.4655425981771089
 31
0.0
  0
LINE
  5
26E12
  8
0
 10
3129.3603283940437905
 20
179.513415280564999
 30
0.0
 11
3129.3578194931578764
 21
179.4655425982020915
 31
0.0
  0
LINE
  5
26E13
  8
0
 10
3129.2345729606440727
 20
179.454360162465008
 30
0.0
 11
3129.3460356646469336
 21
179.454360162465008
 31
0.0
  0
ARC
  5
26E14
  8
0
 10
3129.2345729606440727
 20
179.4661601624650018
 30
0.0
 40
0.0118
 50
183.0000000206352126
 51
270.0
  0
ARC
  5
26E15
  8
0
 10
3129.3460356646469336
 20
179.4661601624650018
 30
0.0
 40
0.0118
 50
269.9999999999739089
 51
357.0000001009544235
  0
LINE
  5
26E16
  8
0
 10
3128.8580755067450809
 20
179.513415280564999
 30
0.0
 11
3128.8605844077342226
 21
179.4655425981771089
 31
0.0
  0
LINE
  5
26E17
  8
0
 10
3128.9981236696439737
 20
179.513415280564999
 30
0.0
 11
3128.9956147687580597
 21
179.4655425982020915
 31
0.0
  0
LINE
  5
26E18
  8
0
 10
3128.8723682362438012
 20
179.454360162465008
 30
0.0
 11
3128.9838309402471168
 21
179.454360162465008
 31
0.0
  0
ARC
  5
26E19
  8
0
 10
3128.8723682362438012
 20
179.4661601624650018
 30
0.0
 40
0.0118
 50
183.0000000206352126
 51
270.0
  0
ARC
  5
26E1A
  8
0
 10
3128.9838309402471168
 20
179.4661601624650018
 30
0.0
 40
0.0118
 50
269.9999999999739089
 51
357.0000001009544235
  0
LINE
  5
26E1B
  8
0
 10
3128.4958707823448094
 20
179.513415280564999
 30
0.0
 11
3128.4983796833339511
 21
179.4655425981771089
 31
0.0
  0
LINE
  5
26E1C
  8
0
 10
3128.6359189452450664
 20
179.513415280564999
 30
0.0
 11
3128.6334100443577881
 21
179.4655425982020915
 31
0.0
  0
LINE
  5
26E1D
  8
0
 10
3128.5101635118439845
 20
179.454360162465008
 30
0.0
 11
3128.6216262158468453
 21
179.454360162465008
 31
0.0
  0
ARC
  5
26E1E
  8
0
 10
3128.5101635118439845
 20
179.4661601624650018
 30
0.0
 40
0.0118
 50
183.0000000206352126
 51
270.0
  0
ARC
  5
26E1F
  8
0
 10
3128.6216262158468453
 20
179.4661601624650018
 30
0.0
 40
0.0118
 50
269.9999999999739089
 51
357.0000001009544235
  0
LINE
  5
26E20
  8
0
 10
3128.1336660579449926
 20
179.513415280564999
 30
0.0
 11
3128.1361749589341343
 21
179.4655425981771089
 31
0.0
  0
LINE
  5
26E21
  8
0
 10
3128.2737142208438854
 20
179.513415280564999
 30
0.0
 11
3128.2712053199579714
 21
179.4655425982020915
 31
0.0
  0
LINE
  5
26E22
  8
0
 10
3128.1479587874441677
 20
179.454360162465008
 30
0.0
 11
3128.2594214914470285
 21
179.454360162465008
 31
0.0
  0
ARC
  5
26E23
  8
0
 10
3128.1479587874441677
 20
179.4661601624650018
 30
0.0
 40
0.0118
 50
183.0000000206352126
 51
270.0
  0
ARC
  5
26E24
  8
0
 10
3128.2594214914470285
 20
179.4661601624650018
 30
0.0
 40
0.0118
 50
269.9999999999739089
 51
357.0000001009544235
  0
LINE
  5
26E25
  8
0
 10
3127.7714613335451759
 20
179.513415280564999
 30
0.0
 11
3127.7739702345338628
 21
179.4655425981771089
 31
0.0
  0
LINE
  5
26E26
  8
0
 10
3127.9115094964449781
 20
179.513415280564999
 30
0.0
 11
3127.9090005955581546
 21
179.4655425982020915
 31
0.0
  0
LINE
  5
26E27
  8
0
 10
3127.7857540630438962
 20
179.454360162465008
 30
0.0
 11
3127.8972167670472118
 21
179.454360162465008
 31
0.0
  0
ARC
  5
26E28
  8
0
 10
3127.7857540630438962
 20
179.4661601624650018
 30
0.0
 40
0.0118
 50
183.0000000206352126
 51
270.0
  0
ARC
  5
26E29
  8
0
 10
3127.8972167670472118
 20
179.4661601624650018
 30
0.0
 40
0.0118
 50
269.9999999999739089
 51
357.0000001009544235
  0
LINE
  5
26E2A
  8
0
 10
3127.4092566091449044
 20
179.513415280564999
 30
0.0
 11
3127.4117655101340461
 21
179.4655425981771089
 31
0.0
  0
LINE
  5
26E2B
  8
0
 10
3127.5493047720437971
 20
179.513415280564999
 30
0.0
 11
3127.5467958711578831
 21
179.4655425982020915
 31
0.0
  0
LINE
  5
26E2C
  8
0
 10
3127.4235493386440794
 20
179.454360162465008
 30
0.0
 11
3127.5350120426469402
 21
179.454360162465008
 31
0.0
  0
ARC
  5
26E2D
  8
0
 10
3127.4235493386440794
 20
179.4661601624650018
 30
0.0
 40
0.0118
 50
183.0000000206352126
 51
270.0
  0
ARC
  5
26E2E
  8
0
 10
3127.5350120426469402
 20
179.4661601624650018
 30
0.0
 40
0.0118
 50
269.9999999999739089
 51
357.0000001009544235
  0
LINE
  5
26E2F
  8
0
 10
3127.0470518847450876
 20
179.513415280564999
 30
0.0
 11
3127.0495607857337745
 21
179.4655425981771089
 31
0.0
  0
LINE
  5
26E30
  8
0
 10
3127.1871000476439804
 20
179.513415280564999
 30
0.0
 11
3127.1845911467580663
 21
179.4655425982020915
 31
0.0
  0
LINE
  5
26E31
  8
0
 10
3127.0613446142438079
 20
179.454360162465008
 30
0.0
 11
3127.1728073182471235
 21
179.454360162465008
 31
0.0
  0
ARC
  5
26E32
  8
0
 10
3127.0613446142438079
 20
179.4661601624650018
 30
0.0
 40
0.0118
 50
183.0000000206352126
 51
270.0
  0
ARC
  5
26E33
  8
0
 10
3127.1728073182471235
 20
179.4661601624650018
 30
0.0
 40
0.0118
 50
269.9999999999739089
 51
357.0000001009544235
  0
LINE
  5
26E34
  8
0
 10
3126.6848471603448161
 20
179.513415280564999
 30
0.0
 11
3126.6873560613339578
 21
179.4655425981771089
 31
0.0
  0
LINE
  5
26E35
  8
0
 10
3126.8248953232450731
 20
179.513415280564999
 30
0.0
 11
3126.8223864223577948
 21
179.4655425982020915
 31
0.0
  0
LINE
  5
26E36
  8
0
 10
3126.6991398898439911
 20
179.454360162465008
 30
0.0
 11
3126.810602593846852
 21
179.454360162465008
 31
0.0
  0
ARC
  5
26E37
  8
0
 10
3126.6991398898439911
 20
179.4661601624650018
 30
0.0
 40
0.0118
 50
183.0000000206352126
 51
270.0
  0
ARC
  5
26E38
  8
0
 10
3126.810602593846852
 20
179.4661601624650018
 30
0.0
 40
0.0118
 50
269.9999999999739089
 51
357.0000001009544235
  0
LINE
  5
26E39
  8
0
 10
3126.3226424358449549
 20
179.513415280564999
 30
0.0
 11
3126.3251513368340966
 21
179.4655425981771089
 31
0.0
  0
LINE
  5
26E3A
  8
0
 10
3126.4626905987438477
 20
179.513415280564999
 30
0.0
 11
3126.4601816978579336
 21
179.4655425982020915
 31
0.0
  0
LINE
  5
26E3B
  8
0
 10
3126.3369351653441299
 20
179.454360162465008
 30
0.0
 11
3126.4483978693469908
 21
179.454360162465008
 31
0.0
  0
ARC
  5
26E3C
  8
0
 10
3126.3369351653441299
 20
179.4661601624650018
 30
0.0
 40
0.0118
 50
183.0000000206352126
 51
270.0
  0
ARC
  5
26E3D
  8
0
 10
3126.4483978693469908
 20
179.4661601624650018
 30
0.0
 40
0.0118
 50
269.9999999999739089
 51
357.0000001009544235
  0
LINE
  5
26E3E
  8
0
 10
3125.9604377114451381
 20
179.513415280564999
 30
0.0
 11
3125.9629466124338251
 21
179.4655425981771089
 31
0.0
  0
LINE
  5
26E3F
  8
0
 10
3126.1004858743440309
 20
179.513415280564999
 30
0.0
 11
3126.0979769734581168
 21
179.4655425982020915
 31
0.0
  0
LINE
  5
26E40
  8
0
 10
3125.9747304409438584
 20
179.454360162465008
 30
0.0
 11
3126.086193144947174
 21
179.454360162465008
 31
0.0
  0
ARC
  5
26E41
  8
0
 10
3125.9747304409438584
 20
179.4661601624650018
 30
0.0
 40
0.0118
 50
183.0000000206352126
 51
270.0
  0
ARC
  5
26E42
  8
0
 10
3126.086193144947174
 20
179.4661601624650018
 30
0.0
 40
0.0118
 50
269.9999999999739089
 51
357.0000001009544235
  0
LINE
  5
26E43
  8
0
 10
3125.5982329870448666
 20
179.513415280564999
 30
0.0
 11
3125.6007418880340083
 21
179.4655425981771089
 31
0.0
  0
LINE
  5
26E44
  8
0
 10
3125.7382811499451236
 20
179.513415280564999
 30
0.0
 11
3125.7357722490578453
 21
179.4655425982020915
 31
0.0
  0
LINE
  5
26E45
  8
0
 10
3125.6125257165440416
 20
179.454360162465008
 30
0.0
 11
3125.7239884205469025
 21
179.454360162465008
 31
0.0
  0
ARC
  5
26E46
  8
0
 10
3125.6125257165440416
 20
179.4661601624650018
 30
0.0
 40
0.0118
 50
183.0000000206352126
 51
270.0
  0
ARC
  5
26E47
  8
0
 10
3125.7239884205469025
 20
179.4661601624650018
 30
0.0
 40
0.0118
 50
269.9999999999739089
 51
357.0000001009544235
  0
LINE
  5
26E48
  8
0
 10
3125.2360282626450498
 20
179.513415280564999
 30
0.0
 11
3125.2385371636341915
 21
179.4655425981771089
 31
0.0
  0
LINE
  5
26E49
  8
0
 10
3125.3760764255448521
 20
179.513415280564999
 30
0.0
 11
3125.3735675246580286
 21
179.4655425982020915
 31
0.0
  0
LINE
  5
26E4A
  8
0
 10
3125.2503209921442249
 20
179.454360162465008
 30
0.0
 11
3125.3617836961470857
 21
179.454360162465008
 31
0.0
  0
ARC
  5
26E4B
  8
0
 10
3125.2503209921442249
 20
179.4661601624650018
 30
0.0
 40
0.0118
 50
183.0000000206352126
 51
270.0
  0
ARC
  5
26E4C
  8
0
 10
3125.3617836961470857
 20
179.4661601624650018
 30
0.0
 40
0.0118
 50
269.9999999999739089
 51
357.0000001009544235
  0
LINE
  5
26E4D
  8
0
 10
3124.8738235382447783
 20
179.513415280564999
 30
0.0
 11
3124.87633243923392
 21
179.4655425981771089
 31
0.0
  0
LINE
  5
26E4E
  8
0
 10
3125.0138717011450353
 20
179.513415280564999
 30
0.0
 11
3125.0113628002582118
 21
179.4655425982020915
 31
0.0
  0
LINE
  5
26E4F
  8
0
 10
3124.8881162677439534
 20
179.454360162465008
 30
0.0
 11
3124.9995789717468142
 21
179.454360162465008
 31
0.0
  0
ARC
  5
26E50
  8
0
 10
3124.8881162677439534
 20
179.4661601624650018
 30
0.0
 40
0.0118
 50
183.0000000206352126
 51
270.0
  0
ARC
  5
26E51
  8
0
 10
3124.9995789717468142
 20
179.4661601624650018
 30
0.0
 40
0.0118
 50
269.9999999999739089
 51
357.0000001009544235
  0
LINE
  5
26E52
  8
0
 10
3124.5116188138449616
 20
179.513415280564999
 30
0.0
 11
3124.5141277148341032
 21
179.4655425981771089
 31
0.0
  0
LINE
  5
26E53
  8
0
 10
3124.6516669767452186
 20
179.513415280564999
 30
0.0
 11
3124.6491580758579403
 21
179.4655425982020915
 31
0.0
  0
LINE
  5
26E54
  8
0
 10
3124.5259115433441366
 20
179.454360162465008
 30
0.0
 11
3124.6373742473469974
 21
179.454360162465008
 31
0.0
  0
ARC
  5
26E55
  8
0
 10
3124.5259115433441366
 20
179.4661601624650018
 30
0.0
 40
0.0118
 50
183.0000000206352126
 51
270.0
  0
ARC
  5
26E56
  8
0
 10
3124.6373742473469974
 20
179.4661601624650018
 30
0.0
 40
0.0118
 50
269.9999999999739089
 51
357.0000001009544235
  0
LINE
  5
26E57
  8
0
 10
3124.1494140894451448
 20
179.513415280564999
 30
0.0
 11
3124.1519229904338317
 21
179.4655425981771089
 31
0.0
  0
LINE
  5
26E58
  8
0
 10
3124.2894622523440376
 20
179.513415280564999
 30
0.0
 11
3124.2869533514581235
 21
179.4655425982020915
 31
0.0
  0
LINE
  5
26E59
  8
0
 10
3124.1637068189438651
 20
179.454360162465008
 30
0.0
 11
3124.2751695229471807
 21
179.454360162465008
 31
0.0
  0
ARC
  5
26E5A
  8
0
 10
3124.1637068189438651
 20
179.4661601624650018
 30
0.0
 40
0.0118
 50
183.0000000206352126
 51
270.0
  0
ARC
  5
26E5B
  8
0
 10
3124.2751695229471807
 20
179.4661601624650018
 30
0.0
 40
0.0118
 50
269.9999999999739089
 51
357.0000001009544235
  0
LINE
  5
26E5C
  8
0
 10
3130.4469425673451042
 20
179.513415280564999
 30
0.0
 11
3130.444433666355053
 21
179.4655425981771089
 31
0.0
  0
LINE
  5
26E5D
  8
0
 10
3130.3068944044448472
 20
179.513415280564999
 30
0.0
 11
3130.309403305331216
 21
179.4655425982020915
 31
0.0
  0
LINE
  5
26E5E
  8
0
 10
3130.4326498378450196
 20
179.454360162465008
 30
0.0
 11
3130.3211871338421588
 21
179.454360162465008
 31
0.0
  0
ARC
  5
26E5F
  8
0
 10
3130.4326498378450196
 20
179.4661601624650018
 30
0.0
 40
0.0118
 50
270.0
 51
356.9999999793648158
  0
ARC
  5
26E60
  8
0
 10
3130.3211871338421588
 20
179.4661601624650018
 30
0.0
 40
0.0118
 50
182.9999998990438996
 51
270.0000000000259774
  0
LINE
  5
26E61
  8
0
 10
3130.8091472917449209
 20
179.513415280564999
 30
0.0
 11
3130.8066383907548698
 21
179.4655425981771089
 31
0.0
  0
LINE
  5
26E62
  8
0
 10
3130.6690991288451187
 20
179.513415280564999
 30
0.0
 11
3130.6716080297310327
 21
179.4655425982020915
 31
0.0
  0
LINE
  5
26E63
  8
0
 10
3130.7948545622448364
 20
179.454360162465008
 30
0.0
 11
3130.6833918582419756
 21
179.454360162465008
 31
0.0
  0
ARC
  5
26E64
  8
0
 10
3130.7948545622448364
 20
179.4661601624650018
 30
0.0
 40
0.0118
 50
270.0
 51
356.9999999793648158
  0
ARC
  5
26E65
  8
0
 10
3130.6833918582419756
 20
179.4661601624650018
 30
0.0
 40
0.0118
 50
182.9999998990438996
 51
270.0000000000259774
  0
LINE
  5
26E66
  8
0
 10
3131.1713520161438282
 20
179.513415280564999
 30
0.0
 11
3131.1688431151551413
 21
179.4655425981771089
 31
0.0
  0
LINE
  5
26E67
  8
0
 10
3131.0313038532449355
 20
179.513415280564999
 30
0.0
 11
3131.0338127541308495
 21
179.4655425982020915
 31
0.0
  0
LINE
  5
26E68
  8
0
 10
3131.1570592866451079
 20
179.454360162465008
 30
0.0
 11
3131.0455965826431566
 21
179.454360162465008
 31
0.0
  0
ARC
  5
26E69
  8
0
 10
3131.1570592866451079
 20
179.4661601624650018
 30
0.0
 40
0.0118
 50
270.0
 51
356.9999999793648158
  0
ARC
  5
26E6A
  8
0
 10
3131.0455965826431566
 20
179.4661601624650018
 30
0.0
 40
0.0118
 50
182.9999998990438996
 51
270.0000000000259774
  0
LINE
  5
26E6B
  8
0
 10
3131.5335567405440997
 20
179.513415280564999
 30
0.0
 11
3131.531047839554958
 21
179.4655425981771089
 31
0.0
  0
LINE
  5
26E6C
  8
0
 10
3131.3935085776438427
 20
179.513415280564999
 30
0.0
 11
3131.396017478531121
 21
179.4655425982020915
 31
0.0
  0
LINE
  5
26E6D
  8
0
 10
3131.5192640110449247
 20
179.454360162465008
 30
0.0
 11
3131.4078013070420639
 21
179.454360162465008
 31
0.0
  0
ARC
  5
26E6E
  8
0
 10
3131.5192640110449247
 20
179.4661601624650018
 30
0.0
 40
0.0118
 50
270.0
 51
356.9999999793648158
  0
ARC
  5
26E6F
  8
0
 10
3131.4078013070420639
 20
179.4661601624650018
 30
0.0
 40
0.0118
 50
182.9999998990438996
 51
270.0000000000259774
  0
LINE
  5
26E70
  8
0
 10
3131.8957614649439165
 20
179.513415280564999
 30
0.0
 11
3131.8932525639547748
 21
179.4655425981771089
 31
0.0
  0
LINE
  5
26E71
  8
0
 10
3131.7557133020450237
 20
179.513415280564999
 30
0.0
 11
3131.7582222029309378
 21
179.4655425982020915
 31
0.0
  0
LINE
  5
26E72
  8
0
 10
3131.8814687354451962
 20
179.454360162465008
 30
0.0
 11
3131.7700060314418806
 21
179.454360162465008
 31
0.0
  0
ARC
  5
26E73
  8
0
 10
3131.8814687354451962
 20
179.4661601624650018
 30
0.0
 40
0.0118
 50
270.0
 51
356.9999999793648158
  0
ARC
  5
26E74
  8
0
 10
3131.7700060314418806
 20
179.4661601624650018
 30
0.0
 40
0.0118
 50
182.9999998990438996
 51
270.0000000000259774
  0
LINE
  5
26E75
  8
0
 10
3132.2579661893450975
 20
179.513415280564999
 30
0.0
 11
3132.2554572883550463
 21
179.4655425981771089
 31
0.0
  0
LINE
  5
26E76
  8
0
 10
3132.1179180264448405
 20
179.513415280564999
 30
0.0
 11
3132.1204269273312093
 21
179.4655425982020915
 31
0.0
  0
LINE
  5
26E77
  8
0
 10
3132.243673459845013
 20
179.454360162465008
 30
0.0
 11
3132.1322107558421521
 21
179.454360162465008
 31
0.0
  0
ARC
  5
26E78
  8
0
 10
3132.243673459845013
 20
179.4661601624650018
 30
0.0
 40
0.0118
 50
270.0
 51
356.9999999793648158
  0
ARC
  5
26E79
  8
0
 10
3132.1322107558421521
 20
179.4661601624650018
 30
0.0
 40
0.0118
 50
182.9999998990438996
 51
270.0000000000259774
  0
LINE
  5
26E7A
  8
0
 10
3132.6201709137449143
 20
179.513415280564999
 30
0.0
 11
3132.6176620127548631
 21
179.4655425981771089
 31
0.0
  0
LINE
  5
26E7B
  8
0
 10
3132.480122750845112
 20
179.513415280564999
 30
0.0
 11
3132.4826316517310261
 21
179.4655425982020915
 31
0.0
  0
LINE
  5
26E7C
  8
0
 10
3132.6058781842448298
 20
179.454360162465008
 30
0.0
 11
3132.4944154802419689
 21
179.454360162465008
 31
0.0
  0
ARC
  5
26E7D
  8
0
 10
3132.6058781842448298
 20
179.4661601624650018
 30
0.0
 40
0.0118
 50
270.0
 51
356.9999999793648158
  0
ARC
  5
26E7E
  8
0
 10
3132.4944154802419689
 20
179.4661601624650018
 30
0.0
 40
0.0118
 50
182.9999998990438996
 51
270.0000000000259774
  0
LINE
  5
26E7F
  8
0
 10
3132.9823756381451858
 20
179.513415280564999
 30
0.0
 11
3132.9798667371551346
 21
179.4655425981771089
 31
0.0
  0
LINE
  5
26E80
  8
0
 10
3132.8423274752449288
 20
179.513415280564999
 30
0.0
 11
3132.8448363761308428
 21
179.4655425982020915
 31
0.0
  0
LINE
  5
26E81
  8
0
 10
3132.9680829086451013
 20
179.454360162465008
 30
0.0
 11
3132.8566202046431499
 21
179.454360162465008
 31
0.0
  0
ARC
  5
26E82
  8
0
 10
3132.9680829086451013
 20
179.4661601624650018
 30
0.0
 40
0.0118
 50
270.0
 51
356.9999999793648158
  0
ARC
  5
26E83
  8
0
 10
3132.8566202046431499
 20
179.4661601624650018
 30
0.0
 40
0.0118
 50
182.9999998990438996
 51
270.0000000000259774
  0
LINE
  5
26E84
  8
0
 10
3133.3445803625450026
 20
179.513415280564999
 30
0.0
 11
3133.3420714615549514
 21
179.4655425981771089
 31
0.0
  0
LINE
  5
26E85
  8
0
 10
3133.2045321996438361
 20
179.513415280564999
 30
0.0
 11
3133.2070411005311144
 21
179.4655425982020915
 31
0.0
  0
LINE
  5
26E86
  8
0
 10
3133.330287633044918
 20
179.454360162465008
 30
0.0
 11
3133.2188249290420572
 21
179.454360162465008
 31
0.0
  0
ARC
  5
26E87
  8
0
 10
3133.330287633044918
 20
179.4661601624650018
 30
0.0
 40
0.0118
 50
270.0
 51
356.9999999793648158
  0
ARC
  5
26E88
  8
0
 10
3133.2188249290420572
 20
179.4661601624650018
 30
0.0
 40
0.0118
 50
182.9999998990438996
 51
270.0000000000259774
  0
LINE
  5
26E89
  8
0
 10
3133.7067850870439543
 20
179.513415280564999
 30
0.0
 11
3133.7042761860548126
 21
179.4655425981771089
 31
0.0
  0
LINE
  5
26E8A
  8
0
 10
3133.5667369241450615
 20
179.513415280564999
 30
0.0
 11
3133.5692458250309755
 21
179.4655425982020915
 31
0.0
  0
LINE
  5
26E8B
  8
0
 10
3133.6924923575447792
 20
179.454360162465008
 30
0.0
 11
3133.5810296535419184
 21
179.454360162465008
 31
0.0
  0
ARC
  5
26E8C
  8
0
 10
3133.6924923575447792
 20
179.4661601624650018
 30
0.0
 40
0.0118
 50
270.0
 51
356.9999999793648158
  0
ARC
  5
26E8D
  8
0
 10
3133.5810296535419184
 20
179.4661601624650018
 30
0.0
 40
0.0118
 50
182.9999998990438996
 51
270.0000000000259774
  0
LINE
  5
26E8E
  8
0
 10
3134.0689898114442258
 20
179.513415280564999
 30
0.0
 11
3134.0664809104550841
 21
179.4655425981771089
 31
0.0
  0
LINE
  5
26E8F
  8
0
 10
3133.9289416485448783
 20
179.513415280564999
 30
0.0
 11
3133.9314505494307923
 21
179.4655425982020915
 31
0.0
  0
LINE
  5
26E90
  8
0
 10
3134.0546970819450507
 20
179.454360162465008
 30
0.0
 11
3133.9432343779421899
 21
179.454360162465008
 31
0.0
  0
ARC
  5
26E91
  8
0
 10
3134.0546970819450507
 20
179.4661601624650018
 30
0.0
 40
0.0118
 50
270.0
 51
356.9999999793648158
  0
ARC
  5
26E92
  8
0
 10
3133.9432343779421899
 20
179.4661601624650018
 30
0.0
 40
0.0118
 50
182.9999998990438996
 51
270.0000000000259774
  0
LINE
  5
26E93
  8
0
 10
3134.4311945358440425
 20
179.513415280564999
 30
0.0
 11
3134.4286856348549009
 21
179.4655425981771089
 31
0.0
  0
LINE
  5
26E94
  8
0
 10
3134.2911463729451498
 20
179.513415280564999
 30
0.0
 11
3134.2936552738310638
 21
179.4655425982020915
 31
0.0
  0
LINE
  5
26E95
  8
0
 10
3134.4169018063448675
 20
179.454360162465008
 30
0.0
 11
3134.3054391023420067
 21
179.454360162465008
 31
0.0
  0
ARC
  5
26E96
  8
0
 10
3134.4169018063448675
 20
179.4661601624650018
 30
0.0
 40
0.0118
 50
270.0
 51
356.9999999793648158
  0
ARC
  5
26E97
  8
0
 10
3134.3054391023420067
 20
179.4661601624650018
 30
0.0
 40
0.0118
 50
182.9999998990438996
 51
270.0000000000259774
  0
LINE
  5
26E98
  8
0
 10
3134.7933992602452236
 20
179.513415280564999
 30
0.0
 11
3134.7908903592551724
 21
179.4655425981771089
 31
0.0
  0
LINE
  5
26E99
  8
0
 10
3134.6533510973449665
 20
179.513415280564999
 30
0.0
 11
3134.6558599982308806
 21
179.4655425982020915
 31
0.0
  0
LINE
  5
26E9A
  8
0
 10
3134.779106530745139
 20
179.454360162465008
 30
0.0
 11
3134.6676438267418234
 21
179.454360162465008
 31
0.0
  0
ARC
  5
26E9B
  8
0
 10
3134.779106530745139
 20
179.4661601624650018
 30
0.0
 40
0.0118
 50
270.0
 51
356.9999999793648158
  0
ARC
  5
26E9C
  8
0
 10
3134.6676438267418234
 20
179.4661601624650018
 30
0.0
 40
0.0118
 50
182.9999998990438996
 51
270.0000000000259774
  0
LINE
  5
26E9D
  8
0
 10
3135.1556039846450403
 20
179.513415280564999
 30
0.0
 11
3135.1530950836549891
 21
179.4655425981771089
 31
0.0
  0
LINE
  5
26E9E
  8
0
 10
3135.0155558217447833
 20
179.513415280564999
 30
0.0
 11
3135.0180647226311521
 21
179.4655425982020915
 31
0.0
  0
LINE
  5
26E9F
  8
0
 10
3135.1413112551449558
 20
179.454360162465008
 30
0.0
 11
3135.0298485511420949
 21
179.454360162465008
 31
0.0
  0
ARC
  5
26EA0
  8
0
 10
3135.1413112551449558
 20
179.4661601624650018
 30
0.0
 40
0.0118
 50
270.0
 51
356.9999999793648158
  0
ARC
  5
26EA1
  8
0
 10
3135.0298485511420949
 20
179.4661601624650018
 30
0.0
 40
0.0118
 50
182.9999998990438996
 51
270.0000000000259774
  0
LINE
  5
26EA2
  8
0
 10
3135.5178087090448571
 20
179.513415280564999
 30
0.0
 11
3135.5152998080548059
 21
179.4655425981771089
 31
0.0
  0
LINE
  5
26EA3
  8
0
 10
3135.3777605461450548
 20
179.513415280564999
 30
0.0
 11
3135.3802694470309689
 21
179.4655425982020915
 31
0.0
  0
LINE
  5
26EA4
  8
0
 10
3135.5035159795452273
 20
179.454360162465008
 30
0.0
 11
3135.3920532755419117
 21
179.454360162465008
 31
0.0
  0
ARC
  5
26EA5
  8
0
 10
3135.5035159795452273
 20
179.4661601624650018
 30
0.0
 40
0.0118
 50
270.0
 51
356.9999999793648158
  0
ARC
  5
26EA6
  8
0
 10
3135.3920532755419117
 20
179.4661601624650018
 30
0.0
 40
0.0118
 50
182.9999998990438996
 51
270.0000000000259774
  0
LINE
  5
26EA7
  8
0
 10
3135.8800134334451286
 20
179.513415280564999
 30
0.0
 11
3135.8775045324559869
 21
179.4655425981771089
 31
0.0
  0
LINE
  5
26EA8
  8
0
 10
3135.7399652705448716
 20
179.513415280564999
 30
0.0
 11
3135.7424741714307856
 21
179.4655425982020915
 31
0.0
  0
LINE
  5
26EA9
  8
0
 10
3135.8657207039450441
 20
179.454360162465008
 30
0.0
 11
3135.7542579999421832
 21
179.454360162465008
 31
0.0
  0
ARC
  5
26EAA
  8
0
 10
3135.8657207039450441
 20
179.4661601624650018
 30
0.0
 40
0.0118
 50
270.0
 51
356.9999999793648158
  0
ARC
  5
26EAB
  8
0
 10
3135.7542579999421832
 20
179.4661601624650018
 30
0.0
 40
0.0118
 50
182.9999998990438996
 51
270.0000000000259774
  0
LINE
  5
26EAC
  8
0
 10
3136.6089279128550515
 20
179.9701572200866906
 30
0.0
 11
3136.6019668870840178
 21
179.5714973117983106
 31
0.0
  0
ARC
  5
26EAD
  8
0
 10
3136.5429566697480368
 20
179.5724914271984005
 30
0.0
 40
0.0590185904226873
 50
269.9651416352655815
 51
359.0348581670911017
  0
ARC
  5
26EAE
  8
0
 10
3136.5906742680358548
 20
179.9679190308407044
 30
0.0
 40
0.0183903518263065
 50
6.9904864462882532
 51
82.0182393253189446
  0
ARC
  5
26EAF
  8
0
 10
3132.0223806302369667
 20
165.1733383283954879
 30
0.0
 40
2.9009011150623141
 50
89.8979472272624349
 51
117.8017940410192068
  0
ARC
  5
26EB0
  8
0
 10
3131.5401173350869612
 20
165.9406271505515917
 30
0.0
 40
1.998430575416507
 50
115.8311941440492063
 51
182.5742976657276131
  0
ARC
  5
26EB1
  8
0
 10
3131.5537418249209622
 20
165.8272058877678887
 30
0.0
 40
2.0101775556480721
 50
179.3255488708664132
 51
238.7821002931966916
  0
ARC
  5
26EB2
  8
0
 10
3107.5658962903298743
 20
135.3794913553140873
 30
0.0
 40
36.7675249881581578
 50
50.354200575810097
 51
51.3850965631777683
  0
ARC
  5
26EB3
  8
0
 10
3130.3420476281448828
 20
162.8346528797621886
 30
0.0
 40
1.0950535540491551
 50
21.87565628518038
 51
51.412881761905318
  0
ARC
  5
26EB4
  8
0
 10
3130.4906806019639589
 20
162.9086108200991987
 30
0.0
 40
0.9296611689740297
 50
1.58721292751163
 51
21.0588422784723797
  0
ARC
  5
26EB5
  8
0
 10
2862.7453802436639307
 20
155.2550394710694093
 30
0.0
 40
268.7843285320561222
 50
1.006459198016461
 51
1.637195895194141
  0
ARC
  5
26EB6
  8
0
 10
3132.1508605083599832
 20
163.8257720776564952
 30
0.0
 40
4.0228429834685491
 50
261.0002068327490861
 51
268.2434271314754142
  0
ARC
  5
26EB7
  8
0
 10
3132.1035366237751987
 20
163.4723334745634986
 30
0.0
 40
0.7118909310061742
 50
201.1797399489196891
 51
240.3703018833624867
  0
ARC
  5
26EB8
  8
0
 10
3132.0290762226741208
 20
163.3413300391279108
 30
0.0
 40
0.5612050024803898
 50
240.3658867938590049
 51
269.8439350144718105
  0
ARC
  5
26EB9
  8
0
 10
3130.3536632707650824
 20
162.7969735406456948
 30
0.0
 40
1.1637880270483849
 50
21.0576534690146104
 51
52.8424354233942069
  0
ARC
  5
26EBA
  8
0
 10
3138.3989970381890089
 20
173.4126262973585142
 30
0.0
 40
12.1561023208619297
 50
228.6384019369160967
 51
232.8424354233941926
  0
ARC
  5
26EBB
  8
0
 10
3131.4894149154970364
 20
165.7821289807916116
 30
0.0
 40
1.86862187325718
 50
185.7809706667950138
 51
233.0493374764043892
  0
ARC
  5
26EBC
  8
0
 10
3131.3335128052372056
 20
165.6947759465026877
 30
0.0
 40
1.706200403371299
 50
141.6466381372864873
 51
183.3891331581106954
  0
ARC
  5
26EBD
  8
0
 10
3131.7977240285699736
 20
165.340032751952009
 30
0.0
 40
2.290377084417611
 50
112.0578880916534956
 51
141.8932543066094922
  0
ARC
  5
26EBE
  8
0
 10
3132.0200205037272099
 20
164.8507928000404945
 30
0.0
 40
2.827376895197236
 50
89.8474661641299264
 51
112.509687690321698
  0
ARC
  5
26EBF
  8
0
 10
3132.0115493790190158
 20
164.9242695956770888
 30
0.0
 40
2.8519181337222692
 50
89.6785901306135713
 51
124.0436060122109012
  0
ARC
  5
26EC0
  8
0
 10
3131.531556185440877
 20
165.6276989508515101
 30
0.0
 40
2.0003406059246451
 50
123.9309937053534014
 51
173.5944329131480117
  0
ARC
  5
26EC1
  8
0
 10
3131.8050282723279452
 20
167.2255102589633111
 30
0.0
 40
0.0220238406618899
 50
82.725038174921977
 51
281.2287278120618907
  0
ARC
  5
26EC2
  8
0
 10
3131.8086991880450114
 20
167.225636967283009
 30
0.0
 40
0.0217377389120819
 50
271.6283436917099721
 51
92.3254222952735546
  0
LINE
  5
26EC3
  8
0
 10
3131.7427385379291991
 20
167.2609073686012948
 30
0.0
 11
3131.7427719078277732
 21
167.2347621267012983
 31
0.0
  0
ARC
  5
26EC4
  8
0
 10
3131.8037819226169631
 20
167.2375030646811069
 30
0.0
 40
0.0610715534888087
 50
182.5723424233133017
 51
246.3308897016410128
  0
ARC
  5
26EC5
  8
0
 10
3131.8061607479498889
 20
167.2429301278712046
 30
0.0
 40
0.0669970766585589
 50
246.3308897016410128
 51
332.4315603757933104
  0
ARC
  5
26EC6
  8
0
 10
3131.826605514655057
 20
167.2322561975288124
 30
0.0
 40
0.0439336581229258
 50
332.4315603757933104
 51
358.8488007310261878
  0
LINE
  5
26EC7
  8
0
 10
3131.8705303051278861
 20
167.2313735323012907
 30
0.0
 11
3131.8706913483460994
 21
167.2590151180883993
 31
0.0
  0
ARC
  5
26EC8
  8
0
 10
3131.8039861659158305
 20
167.2602582475890927
 30
0.0
 40
0.0612510676823524
 50
87.0072128386655663
 51
179.3927846156589965
  0
ARC
  5
26EC9
  8
0
 10
3131.803676746266774
 20
167.2543399136891935
 30
0.0
 40
0.067177484531506
 50
3.9907148924118698
 51
87.0072128386655663
  0
ARC
  5
26ECA
  8
0
 10
3132.0275468254280895
 20
161.8708917735019099
 30
0.0
 40
4.2580726628993988
 50
90.1383396389332177
 51
94.6318899421917763
  0
ARC
  5
26ECB
  8
0
 10
3131.7294636647447987
 20
165.550099461340892
 30
0.0
 40
0.5668096296089759
 50
94.6318899421917763
 51
132.5221610261540093
  0
ARC
  5
26ECC
  8
0
 10
3131.6002445032268042
 20
165.691007973638591
 30
0.0
 40
0.3756217624696922
 50
132.5221610261540093
 51
173.4024723549852922
  0
ARC
  5
26ECD
  8
0
 10
3132.7859187502799614
 20
165.5538726299899963
 30
0.0
 40
1.5692002151068629
 50
173.4024723549852922
 51
186.6096591042351065
  0
ARC
  5
26ECE
  8
0
 10
3131.715643802042905
 20
165.4792224771483973
 30
0.0
 40
0.4998577894107502
 50
192.2398390942979916
 51
266.3230359061441845
  0
ARC
  5
26ECF
  8
0
 10
3132.0275642930419053
 20
167.906978022755311
 30
0.0
 40
2.94672974474451
 50
263.2964802588920747
 51
269.7997571086470998
  0
ARC
  5
26ED0
  8
0
 10
3132.0208438812278473
 20
165.6903684129588896
 30
0.0
 40
0.1927335465490715
 50
91.0637537222972639
 51
148.1900614257934876
  0
ARC
  5
26ED1
  8
0
 10
3131.9572873963497841
 20
165.7297903675529085
 30
0.0
 40
0.1179437258916925
 50
148.1900614257934876
 51
179.5956946193225008
  0
ARC
  5
26ED2
  8
0
 10
3132.0000960858969847
 20
165.7294882847301949
 30
0.0
 40
0.1607534812601275
 50
179.5956946193225008
 51
239.203260575178291
  0
ARC
  5
26ED3
  8
0
 10
3132.0267230955660125
 20
165.7741612889340104
 30
0.0
 40
0.2127599707449979
 50
239.203260575178291
 51
267.4523308345836199
  0
ARC
  5
26ED4
  8
0
 10
3132.0208316286912122
 20
165.7697677468557913
 30
0.0
 40
0.1856587020444326
 50
192.1718482029689028
 51
268.8994871148332777
  0
ARC
  5
26ED5
  8
0
 10
3132.0243319468818299
 20
165.7482088503267903
 30
0.0
 40
0.053340073914535
 50
86.5436946793946191
 51
198.4023246923605939
  0
ARC
  5
26ED6
  8
0
 10
3132.0226731063107763
 20
165.7476569527609911
 30
0.0
 40
0.051591833952649
 50
198.4023246923605939
 51
275.4215915704174904
  0
ARC
  5
26ED7
  8
0
 10
3132.0289980577531423
 20
165.7526538207002886
 30
0.0
 40
0.0563765618802766
 50
268.5258135118145901
 51
343.7903755362594893
  0
ARC
  5
26ED8
  8
0
 10
3132.0300857633260421
 20
165.7474316098812039
 30
0.0
 40
0.0540798839809999
 50
348.787826491475812
 51
92.6900029226683984
  0
ARC
  5
26ED9
  8
0
 10
3132.0260774391917948
 20
165.7589888275292083
 30
0.0
 40
0.087455636302521
 50
211.7766659778922076
 51
270.9632640099375749
  0
ARC
  5
26EDA
  8
0
 10
3132.0177427768421694
 20
165.7538258159736984
 30
0.0
 40
0.0776513879982672
 50
169.6510366562706054
 51
211.7766659778936003
  0
ARC
  5
26EDB
  8
0
 10
3132.0257572210698527
 20
165.7438210353944896
 30
0.0
 40
0.0877360013887729
 50
95.5539989263692462
 51
164.1555240633765038
  0
ARC
  5
26EDC
  8
0
 10
3132.028879505383884
 20
165.7589448667233114
 30
0.0
 40
0.087409462993095
 50
269.1269752902485948
 51
331.0644360775693258
  0
ARC
  5
26EDD
  8
0
 10
3132.0522353037099492
 20
165.7490441583896086
 30
0.0
 40
0.0622349069558286
 50
328.6374736489586894
 51
6.9540997524270969
  0
ARC
  5
26EDE
  8
0
 10
3132.0343819039599111
 20
165.7499633627712967
 30
0.0
 40
0.0799048281514303
 50
4.7493232466032858
 51
64.1234310398657925
  0
ARC
  5
26EDF
  8
0
 10
3132.0275679298188152
 20
165.7386674505783049
 30
0.0
 40
0.0930497691628509
 50
63.3839751870489394
 51
96.3566142337626559
  0
ARC
  5
26EE0
  8
0
 10
3132.0069847642280365
 20
161.8708917735019099
 30
0.0
 40
4.2580726628993988
 50
85.3681100578082379
 51
89.8616603610667966
  0
ARC
  5
26EE1
  8
0
 10
3132.305067924911782
 20
165.550099461340892
 30
0.0
 40
0.5668096296089759
 50
47.4778389738459197
 51
85.3681100578082379
  0
ARC
  5
26EE2
  8
0
 10
3132.434287086428867
 20
165.691007973638591
 30
0.0
 40
0.3756217624696922
 50
6.5975276450146616
 51
47.4778389738459197
  0
ARC
  5
26EE3
  8
0
 10
3131.2486128393770741
 20
165.5538726299899963
 30
0.0
 40
1.5692002151068629
 50
353.3903408957648935
 51
6.5975276450146616
  0
ARC
  5
26EE4
  8
0
 10
3132.318887787613221
 20
165.4792224771483973
 30
0.0
 40
0.4998577894107502
 50
273.6769640938558155
 51
347.7601609057019232
  0
ARC
  5
26EE5
  8
0
 10
3132.0069672966151302
 20
167.906978022755311
 30
0.0
 40
2.94672974474451
 50
270.2002428913527865
 51
276.7035197411079253
  0
ARC
  5
26EE6
  8
0
 10
3132.0136877084291882
 20
165.6903684129588896
 30
0.0
 40
0.1927335465490715
 50
31.8099385742064911
 51
88.9362462777027218
  0
ARC
  5
26EE7
  8
0
 10
3132.0772441933058872
 20
165.7297903675529085
 30
0.0
 40
0.1179437258916925
 50
0.4043053806775043
 51
31.8099385742064911
  0
ARC
  5
26EE8
  8
0
 10
3132.0344355037600508
 20
165.7294882847301949
 30
0.0
 40
0.1607534812601275
 50
300.7967394248216806
 51
0.4043053806775043
  0
ARC
  5
26EE9
  8
0
 10
3132.0078084940901135
 20
165.7741612889340104
 30
0.0
 40
0.2127599707449979
 50
272.5476691654164938
 51
300.7967394248216806
  0
ARC
  5
26EEA
  8
0
 10
3132.0136999609658233
 20
165.7697677468557913
 30
0.0
 40
0.1856587020444326
 50
271.1005128851667223
 51
347.8281517970311256
  0
ARC
  5
26EEB
  8
0
 10
3132.0275476986271315
 20
165.4352842795273091
 30
0.0
 40
0.1732283464757293
 50
70.4658660261287366
 51
112.9942947168101028
  0
ARC
  5
26EEC
  8
0
 10
3132.0311258052088306
 20
165.2892361513677884
 30
0.0
 40
0.1927335465490715
 50
91.0637537222972639
 51
148.1900614257934876
  0
ARC
  5
26EED
  8
0
 10
3131.9675693203330411
 20
165.3286581059618072
 30
0.0
 40
0.1179437258916925
 50
148.1900614257934876
 51
179.5956946193225008
  0
ARC
  5
26EEE
  8
0
 10
3132.0103780098788775
 20
165.3283560231392073
 30
0.0
 40
0.1607534812601275
 50
179.5956946193225008
 51
239.203260575178291
  0
ARC
  5
26EEF
  8
0
 10
3132.0370050195479052
 20
165.3730290273429091
 30
0.0
 40
0.2127599707449979
 50
239.203260575178291
 51
267.4523308345836199
  0
ARC
  5
26EF0
  8
0
 10
3132.031113552673105
 20
165.36863548526469
 30
0.0
 40
0.1856587020444326
 50
192.1718482029689028
 51
268.8994871148332777
  0
ARC
  5
26EF1
  8
0
 10
3132.0214706791230128
 20
165.363054828432098
 30
0.0
 40
0.053340073914535
 50
86.5436946793946191
 51
198.4023246923605939
  0
ARC
  5
26EF2
  8
0
 10
3132.0198118385519592
 20
165.3625029308662988
 30
0.0
 40
0.051591833952649
 50
198.4023246923605939
 51
275.4215915704174904
  0
ARC
  5
26EF3
  8
0
 10
3132.0261367899938705
 20
165.36749979880571
 30
0.0
 40
0.0563765618802766
 50
268.5258135118145901
 51
343.7903755362594893
  0
ARC
  5
26EF4
  8
0
 10
3132.0272244955658607
 20
165.3622775879865117
 30
0.0
 40
0.0540798839809999
 50
348.787826491475812
 51
92.6900029226683984
  0
ARC
  5
26EF5
  8
0
 10
3132.0232161714320682
 20
165.3738348056344876
 30
0.0
 40
0.087455636302521
 50
211.7766659778922076
 51
270.9632640099375749
  0
ARC
  5
26EF6
  8
0
 10
3132.014881509081988
 20
165.3686717940790061
 30
0.0
 40
0.0776513879982672
 50
169.6510366562706054
 51
211.7766659778936003
  0
ARC
  5
26EF7
  8
0
 10
3132.0228959533101261
 20
165.358667013499911
 30
0.0
 40
0.0877360013887729
 50
95.5539989263692462
 51
164.1555240633765038
  0
ARC
  5
26EF8
  8
0
 10
3132.0260182376241573
 20
165.3737908448287044
 30
0.0
 40
0.087409462993095
 50
269.1269752902485948
 51
331.0644360775693258
  0
ARC
  5
26EF9
  8
0
 10
3132.0493740359502226
 20
165.3638901364948879
 30
0.0
 40
0.0622349069558286
 50
328.6374736489586894
 51
6.9540997524270969
  0
ARC
  5
26EFA
  8
0
 10
3132.031520636201094
 20
165.3648093408766897
 30
0.0
 40
0.0799048281514303
 50
4.7493232466032858
 51
64.1234310398657925
  0
ARC
  5
26EFB
  8
0
 10
3132.0247066620599981
 20
165.3535134286836126
 30
0.0
 40
0.0930497691628509
 50
63.3839751870489394
 51
96.3566142337626559
  0
ARC
  5
26EFC
  8
0
 10
3132.023969632411081
 20
165.2892361513677884
 30
0.0
 40
0.1927335465490715
 50
31.8099385742064911
 51
88.9362462777027218
  0
ARC
  5
26EFD
  8
0
 10
3132.0875261172877799
 20
165.3286581059618072
 30
0.0
 40
0.1179437258916925
 50
0.4043053806775043
 51
31.8099385742064911
  0
ARC
  5
26EFE
  8
0
 10
3132.0447174277419435
 20
165.3283560231392073
 30
0.0
 40
0.1607534812601275
 50
300.7967394248216806
 51
0.4043053806775043
  0
ARC
  5
26EFF
  8
0
 10
3132.0180904180720063
 20
165.3730290273429091
 30
0.0
 40
0.2127599707449979
 50
272.5476691654164938
 51
300.7967394248216806
  0
ARC
  5
26F00
  8
0
 10
3132.0239818849468065
 20
165.36863548526469
 30
0.0
 40
0.1856587020444326
 50
271.1005128851667223
 51
347.8281517970311256
  0
ARC
  5
26F01
  8
0
 10
3132.0378296226090242
 20
165.0341520179362078
 30
0.0
 40
0.1732283464757293
 50
70.4658660261287366
 51
112.9942947168101028
  0
ARC
  5
26F02
  8
0
 10
3131.5557960225419265
 20
165.6971938727122051
 30
0.0
 40
0.1927335465490715
 50
91.0637537222972639
 51
148.1900614257934876
  0
ARC
  5
26F03
  8
0
 10
3131.4922395376638633
 20
165.7366158273061956
 30
0.0
 40
0.1179437258916925
 50
148.1900614257934876
 51
179.5956946193225008
  0
ARC
  5
26F04
  8
0
 10
3131.5350482272110639
 20
165.7363137444835957
 30
0.0
 40
0.1607534812601275
 50
179.5956946193225008
 51
239.203260575178291
  0
ARC
  5
26F05
  8
0
 10
3131.5616752368810012
 20
165.7809867486874111
 30
0.0
 40
0.2127599707449979
 50
239.203260575178291
 51
267.4523308345836199
  0
ARC
  5
26F06
  8
0
 10
3131.5557837700048367
 20
165.7765932066091068
 30
0.0
 40
0.1856587020444326
 50
192.1718482029689028
 51
268.8994871148332777
  0
ARC
  5
26F07
  8
0
 10
3131.5592840881968186
 20
165.7550343100801058
 30
0.0
 40
0.053340073914535
 50
86.5436946793946191
 51
198.4023246923605939
  0
ARC
  5
26F08
  8
0
 10
3131.5576252476248555
 20
165.7544824125143066
 30
0.0
 40
0.051591833952649
 50
198.4023246923605939
 51
275.4215915704174904
  0
ARC
  5
26F09
  8
0
 10
3131.563950199068131
 20
165.7594792804536894
 30
0.0
 40
0.0563765618802766
 50
268.5258135118145901
 51
343.7903755362594893
  0
ARC
  5
26F0A
  8
0
 10
3131.5650379046401213
 20
165.7542570696346047
 30
0.0
 40
0.0540798839809999
 50
348.787826491475812
 51
92.6900029226683984
  0
ARC
  5
26F0B
  8
0
 10
3131.561029580505874
 20
165.765814287282609
 30
0.0
 40
0.087455636302521
 50
211.7766659778922076
 51
270.9632640099375749
  0
ARC
  5
26F0C
  8
0
 10
3131.5526949181557939
 20
165.7606512757270991
 30
0.0
 40
0.0776513879982672
 50
169.6510366562706054
 51
211.7766659778936003
  0
ARC
  5
26F0D
  8
0
 10
3131.5607093623839319
 20
165.7506464951478904
 30
0.0
 40
0.0877360013887729
 50
95.5539989263692462
 51
164.1555240633765038
  0
ARC
  5
26F0E
  8
0
 10
3131.5638316466979632
 20
165.7657703264767122
 30
0.0
 40
0.087409462993095
 50
269.1269752902485948
 51
331.0644360775693258
  0
ARC
  5
26F0F
  8
0
 10
3131.5871874450240284
 20
165.7558696181430093
 30
0.0
 40
0.0622349069558286
 50
328.6374736489586894
 51
6.9540997524270969
  0
ARC
  5
26F10
  8
0
 10
3131.5693340452748998
 20
165.7567888225246975
 30
0.0
 40
0.0799048281514303
 50
4.7493232466032858
 51
64.1234310398657925
  0
ARC
  5
26F11
  8
0
 10
3131.5625200711338039
 20
165.7454929103315919
 30
0.0
 40
0.0930497691628509
 50
63.3839751870489394
 51
96.3566142337626559
  0
ARC
  5
26F12
  8
0
 10
3131.5486398497428127
 20
165.6971938727122051
 30
0.0
 40
0.1927335465490715
 50
31.8099385742064911
 51
88.9362462777027218
  0
ARC
  5
26F13
  8
0
 10
3131.6121963346208759
 20
165.7366158273061956
 30
0.0
 40
0.1179437258916925
 50
0.4043053806775043
 51
31.8099385742064911
  0
ARC
  5
26F14
  8
0
 10
3131.56938764507413
 20
165.7363137444835957
 30
0.0
 40
0.1607534812601275
 50
300.7967394248216806
 51
0.4043053806775043
  0
ARC
  5
26F15
  8
0
 10
3131.5427606354041927
 20
165.7809867486874111
 30
0.0
 40
0.2127599707449979
 50
272.5476691654164938
 51
300.7967394248216806
  0
ARC
  5
26F16
  8
0
 10
3131.5486521022799025
 20
165.7765932066091068
 30
0.0
 40
0.1856587020444326
 50
271.1005128851667223
 51
347.8281517970311256
  0
ARC
  5
26F17
  8
0
 10
3131.5624998399421202
 20
165.4421097392807098
 30
0.0
 40
0.1732283464757293
 50
70.4658660261287366
 51
112.9942947168101028
  0
ARC
  5
26F18
  8
0
 10
3131.5613245322119838
 20
165.29603389279319
 30
0.0
 40
0.1927335465490715
 50
91.0637537222972639
 51
148.1900614257934876
  0
ARC
  5
26F19
  8
0
 10
3131.49776804733483
 20
165.3354558473872089
 30
0.0
 40
0.1179437258916925
 50
148.1900614257934876
 51
179.5956946193225008
  0
ARC
  5
26F1A
  8
0
 10
3131.5405767368811212
 20
165.335153764564609
 30
0.0
 40
0.1607534812601275
 50
179.5956946193225008
 51
239.203260575178291
  0
ARC
  5
26F1B
  8
0
 10
3131.5672037465510584
 20
165.3798267687683961
 30
0.0
 40
0.2127599707449979
 50
239.203260575178291
 51
267.4523308345836199
  0
ARC
  5
26F1C
  8
0
 10
3131.5613122796748939
 20
165.3754332266900917
 30
0.0
 40
0.1856587020444326
 50
192.1718482029689028
 51
268.8994871148332777
  0
ARC
  5
26F1D
  8
0
 10
3131.5411372559938172
 20
165.3623082248286096
 30
0.0
 40
0.053340073914535
 50
86.5436946793946191
 51
198.4023246923605939
  0
ARC
  5
26F1E
  8
0
 10
3131.5394784154218542
 20
165.3617563272628104
 30
0.0
 40
0.051591833952649
 50
198.4023246923605939
 51
275.4215915704174904
  0
ARC
  5
26F1F
  8
0
 10
3131.5458033668651296
 20
165.3667531952021932
 30
0.0
 40
0.0563765618802766
 50
268.5258135118145901
 51
343.7903755362594893
  0
ARC
  5
26F20
  8
0
 10
3131.5468910724371199
 20
165.3615309843829948
 30
0.0
 40
0.0540798839809999
 50
348.787826491475812
 51
92.6900029226683984
  0
ARC
  5
26F21
  8
0
 10
3131.5428827483028726
 20
165.3730882020309991
 30
0.0
 40
0.087455636302521
 50
211.7766659778922076
 51
270.9632640099375749
  0
ARC
  5
26F22
  8
0
 10
3131.5345480859527925
 20
165.3679251904756029
 30
0.0
 40
0.0776513879982672
 50
169.6510366562706054
 51
211.7766659778936003
  0
ARC
  5
26F23
  8
0
 10
3131.5425625301809305
 20
165.3579204098963942
 30
0.0
 40
0.0877360013887729
 50
95.5539989263692462
 51
164.1555240633765038
  0
ARC
  5
26F24
  8
0
 10
3131.5456848144949618
 20
165.3730442412251875
 30
0.0
 40
0.087409462993095
 50
269.1269752902485948
 51
331.0644360775693258
  0
ARC
  5
26F25
  8
0
 10
3131.569040612821027
 20
165.3631435328913994
 30
0.0
 40
0.0622349069558286
 50
328.6374736489586894
 51
6.9540997524270969
  0
ARC
  5
26F26
  8
0
 10
3131.5511872130718984
 20
165.3640627372732013
 30
0.0
 40
0.0799048281514303
 50
4.7493232466032858
 51
64.1234310398657925
  0
ARC
  5
26F27
  8
0
 10
3131.5443732389308025
 20
165.3527668250800957
 30
0.0
 40
0.0930497691628509
 50
63.3839751870489394
 51
96.3566142337626559
  0
ARC
  5
26F28
  8
0
 10
3131.5541683594128699
 20
165.29603389279319
 30
0.0
 40
0.1927335465490715
 50
31.8099385742064911
 51
88.9362462777027218
  0
ARC
  5
26F29
  8
0
 10
3131.6177248442900236
 20
165.3354558473872089
 30
0.0
 40
0.1179437258916925
 50
0.4043053806775043
 51
31.8099385742064911
  0
ARC
  5
26F2A
  8
0
 10
3131.5749161547441872
 20
165.335153764564609
 30
0.0
 40
0.1607534812601275
 50
300.7967394248216806
 51
0.4043053806775043
  0
ARC
  5
26F2B
  8
0
 10
3131.5482891450737952
 20
165.3798267687683961
 30
0.0
 40
0.2127599707449979
 50
272.5476691654164938
 51
300.7967394248216806
  0
ARC
  5
26F2C
  8
0
 10
3131.5541806119499597
 20
165.3754332266900917
 30
0.0
 40
0.1856587020444326
 50
271.1005128851667223
 51
347.8281517970311256
  0
ARC
  5
26F2D
  8
0
 10
3132.500927008743929
 20
165.2960337442281116
 30
0.0
 40
0.1927335465490715
 50
91.0637537222972639
 51
148.1900614257934876
  0
ARC
  5
26F2E
  8
0
 10
3132.4373705238658658
 20
165.335455698822102
 30
0.0
 40
0.1179437258916925
 50
148.1900614257934876
 51
179.5956946193225008
  0
ARC
  5
26F2F
  8
0
 10
3132.4801792134130665
 20
165.3351536159995021
 30
0.0
 40
0.1607534812601275
 50
179.5956946193225008
 51
239.203260575178291
  0
ARC
  5
26F30
  8
0
 10
3132.5068062230820942
 20
165.3798266202032039
 30
0.0
 40
0.2127599707449979
 50
239.203260575178291
 51
267.4523308345836199
  0
ARC
  5
26F31
  8
0
 10
3132.5009147562068392
 20
165.3754330781250133
 30
0.0
 40
0.1856587020444326
 50
192.1718482029689028
 51
268.8994871148332777
  0
ARC
  5
26F32
  8
0
 10
3132.4952218609992087
 20
165.3619819473013877
 30
0.0
 40
0.053340073914535
 50
86.5436946793946191
 51
198.4023246923605939
  0
ARC
  5
26F33
  8
0
 10
3132.4935630204281551
 20
165.3614300497355885
 30
0.0
 40
0.051591833952649
 50
198.4023246923605939
 51
275.4215915704174904
  0
ARC
  5
26F34
  8
0
 10
3132.4998879718700664
 20
165.3664269176749997
 30
0.0
 40
0.0563765618802766
 50
268.5258135118145901
 51
343.7903755362594893
  0
ARC
  5
26F35
  8
0
 10
3132.5009756774429661
 20
165.3612047068558013
 30
0.0
 40
0.0540798839809999
 50
348.787826491475812
 51
92.6900029226683984
  0
ARC
  5
26F36
  8
0
 10
3132.4969673533091736
 20
165.3727619245038056
 30
0.0
 40
0.087455636302521
 50
211.7766659778922076
 51
270.9632640099375749
  0
ARC
  5
26F37
  8
0
 10
3132.4886326909590935
 20
165.3675989129482957
 30
0.0
 40
0.0776513879982672
 50
169.6510366562706054
 51
211.7766659778936003
  0
ARC
  5
26F38
  8
0
 10
3132.4966471351858672
 20
165.3575941323692007
 30
0.0
 40
0.0877360013887729
 50
95.5539989263692462
 51
164.1555240633765038
  0
ARC
  5
26F39
  8
0
 10
3132.499769419500808
 20
165.3727179636979088
 30
0.0
 40
0.087409462993095
 50
269.1269752902485948
 51
331.0644360775693258
  0
ARC
  5
26F3A
  8
0
 10
3132.5231252178268733
 20
165.3628172553642059
 30
0.0
 40
0.0622349069558286
 50
328.6374736489586894
 51
6.9540997524270969
  0
ARC
  5
26F3B
  8
0
 10
3132.5052718180768352
 20
165.3637364597460078
 30
0.0
 40
0.0799048281514303
 50
4.7493232466032858
 51
64.1234310398657925
  0
ARC
  5
26F3C
  8
0
 10
3132.4984578439371035
 20
165.3524405475529022
 30
0.0
 40
0.0930497691628509
 50
63.3839751870489394
 51
96.3566142337626559
  0
ARC
  5
26F3D
  8
0
 10
3132.4937708359448152
 20
165.2960337442281116
 30
0.0
 40
0.1927335465490715
 50
31.8099385742064911
 51
88.9362462777027218
  0
ARC
  5
26F3E
  8
0
 10
3132.5573273208219689
 20
165.335455698822102
 30
0.0
 40
0.1179437258916925
 50
0.4043053806775043
 51
31.8099385742064911
  0
ARC
  5
26F3F
  8
0
 10
3132.5145186312761325
 20
165.3351536159995021
 30
0.0
 40
0.1607534812601275
 50
300.7967394248216806
 51
0.4043053806775043
  0
ARC
  5
26F40
  8
0
 10
3132.4878916216061953
 20
165.3798266202032039
 30
0.0
 40
0.2127599707449979
 50
272.5476691654164938
 51
300.7967394248216806
  0
ARC
  5
26F41
  8
0
 10
3132.4937830884809955
 20
165.3754330781250133
 30
0.0
 40
0.1856587020444326
 50
271.1005128851667223
 51
347.8281517970311256
  0
ARC
  5
26F42
  8
0
 10
3132.5065935703692048
 20
165.6971957006107061
 30
0.0
 40
0.1927335465490715
 50
91.0637537222972639
 51
148.1900614257934876
  0
ARC
  5
26F43
  8
0
 10
3132.4430370854911416
 20
165.7366176552046966
 30
0.0
 40
0.1179437258916925
 50
148.1900614257934876
 51
179.5956946193225008
  0
ARC
  5
26F44
  8
0
 10
3132.485845775036978
 20
165.7363155723820114
 30
0.0
 40
0.1607534812601275
 50
179.5956946193225008
 51
239.203260575178291
  0
ARC
  5
26F45
  8
0
 10
3132.5124727847069153
 20
165.7809885765859121
 30
0.0
 40
0.2127599707449979
 50
239.203260575178291
 51
267.4523308345836199
  0
ARC
  5
26F46
  8
0
 10
3132.5065813178312055
 20
165.7765950345076078
 30
0.0
 40
0.1856587020444326
 50
192.1718482029689028
 51
268.8994871148332777
  0
ARC
  5
26F47
  8
0
 10
3132.4959306734631355
 20
165.7488483173287079
 30
0.0
 40
0.053340073914535
 50
86.5436946793946191
 51
198.4023246923605939
  0
ARC
  5
26F48
  8
0
 10
3132.4942718328920819
 20
165.7482964197629087
 30
0.0
 40
0.051591833952649
 50
198.4023246923605939
 51
275.4215915704174904
  0
ARC
  5
26F49
  8
0
 10
3132.5005967843339931
 20
165.7532932877022915
 30
0.0
 40
0.0563765618802766
 50
268.5258135118145901
 51
343.7903755362594893
  0
ARC
  5
26F4A
  8
0
 10
3132.5016844899068928
 20
165.7480710768830932
 30
0.0
 40
0.0540798839809999
 50
348.787826491475812
 51
92.6900029226683984
  0
ARC
  5
26F4B
  8
0
 10
3132.4976761657731004
 20
165.7596282945310975
 30
0.0
 40
0.087455636302521
 50
211.7766659778922076
 51
270.9632640099375749
  0
ARC
  5
26F4C
  8
0
 10
3132.4893415034221107
 20
165.7544652829757013
 30
0.0
 40
0.0776513879982672
 50
169.6510366562706054
 51
211.7766659778936003
  0
ARC
  5
26F4D
  8
0
 10
3132.4973559476511582
 20
165.7444605023964925
 30
0.0
 40
0.0877360013887729
 50
95.5539989263692462
 51
164.1555240633765038
  0
ARC
  5
26F4E
  8
0
 10
3132.5004782319638252
 20
165.7595843337252859
 30
0.0
 40
0.087409462993095
 50
269.1269752902485948
 51
331.0644360775693258
  0
ARC
  5
26F4F
  8
0
 10
3132.5238340302908
 20
165.7496836253916115
 30
0.0
 40
0.0622349069558286
 50
328.6374736489586894
 51
6.9540997524270969
  0
ARC
  5
26F50
  8
0
 10
3132.5059806305412167
 20
165.7506028297732996
 30
0.0
 40
0.0799048281514303
 50
4.7493232466032858
 51
64.1234310398657925
  0
ARC
  5
26F51
  8
0
 10
3132.4991666564010302
 20
165.7393069175801941
 30
0.0
 40
0.0930497691628509
 50
63.3839751870489394
 51
96.3566142337626559
  0
ARC
  5
26F52
  8
0
 10
3132.499437397570091
 20
165.6971957006107061
 30
0.0
 40
0.1927335465490715
 50
31.8099385742064911
 51
88.9362462777027218
  0
ARC
  5
26F53
  8
0
 10
3132.5629938824467899
 20
165.7366176552046966
 30
0.0
 40
0.1179437258916925
 50
0.4043053806775043
 51
31.8099385742064911
  0
ARC
  5
26F54
  8
0
 10
3132.5201851929000441
 20
165.7363155723820114
 30
0.0
 40
0.1607534812601275
 50
300.7967394248216806
 51
0.4043053806775043
  0
ARC
  5
26F55
  8
0
 10
3132.4935581832310163
 20
165.7809885765859121
 30
0.0
 40
0.2127599707449979
 50
272.5476691654164938
 51
300.7967394248216806
  0
ARC
  5
26F56
  8
0
 10
3132.4994496501071808
 20
165.7765950345076078
 30
0.0
 40
0.1856587020444326
 50
271.1005128851667223
 51
347.8281517970311256
  0
ARC
  5
26F57
  8
0
 10
3132.5132973877680342
 20
165.4421115671790972
 30
0.0
 40
0.1732283464757293
 50
70.4658660261287366
 51
112.9942947168101028
  0
LINE
  5
26F58
  8
0
 10
3132.4643212341220533
 20
165.1934164091456978
 30
0.0
 11
3132.6649985252352053
 21
165.3036387339035969
 31
0.0
  0
LINE
  5
26F59
  8
0
 10
3132.5065501237641001
 20
165.1902138662302093
 30
0.0
 11
3132.646167548172798
 21
165.2693758761564879
 31
0.0
  0
LINE
  5
26F5A
  8
0
 10
3131.3913772457299274
 20
165.3006586462294081
 30
0.0
 11
3131.5809417688778922
 21
165.1917133471866919
 31
0.0
  0
LINE
  5
26F5B
  8
0
 10
3131.4078743084569396
 20
165.2709059927578892
 30
0.0
 11
3131.5482613526728528
 21
165.1902338018821013
 31
0.0
  0
ARC
  5
26F5C
  8
0
 10
3132.0250325956571942
 20
163.1937846426442889
 30
0.0
 40
0.3587648811798778
 50
89.5983453021568437
 51
117.4424421806073013
  0
ARC
  5
26F5D
  8
0
 10
3132.0231926204987758
 20
163.3806938849174912
 30
0.0
 40
0.2854016372740877
 50
195.3807565159698925
 51
270.8743149379897091
  0
ARC
  5
26F5E
  8
0
 10
3131.9413279985701593
 20
163.3320068756796957
 30
0.0
 40
0.1978037493041516
 50
114.3749440754670985
 51
170.3638048051952865
  0
ARC
  5
26F5F
  8
0
 10
3131.9251484572669142
 20
163.3400824928318116
 30
0.0
 40
0.1805771345647331
 50
172.0308904085021027
 51
191.2039001636071873
  0
ARC
  5
26F60
  8
0
 10
3131.5496496333998948
 20
163.7860256089373081
 30
0.0
 40
0.2337983887487051
 50
106.6063643087297947
 51
154.8221185996800955
  0
ARC
  5
26F61
  8
0
 10
3131.5900130209502095
 20
163.6506842296990101
 30
0.0
 40
0.3750304388951984
 50
50.5215427569570181
 51
106.6063643087297947
  0
ARC
  5
26F62
  8
0
 10
3131.7112300935909843
 20
163.7978449962305092
 30
0.0
 40
0.1843740204199287
 50
355.3221099329459207
 51
50.5215427569570181
  0
ARC
  5
26F63
  8
0
 10
3131.7307086187429377
 20
163.7899067721714914
 30
0.0
 40
0.1644346093184204
 50
308.6347114371550902
 51
357.5259271491490836
  0
ARC
  5
26F64
  8
0
 10
3131.6445363555599215
 20
163.8810675833815935
 30
0.0
 40
0.289632733632529
 50
259.176011703290726
 51
310.6917689289904274
  0
ARC
  5
26F65
  8
0
 10
3131.6440131193448906
 20
163.9432245901641068
 30
0.0
 40
0.3507973690653712
 50
218.5834390877635087
 51
261.1668431250515141
  0
ARC
  5
26F66
  8
0
 10
3131.5043905233910664
 20
163.8346151734488103
 30
0.0
 40
0.1739332294707225
 50
162.992380494330007
 51
219.3002861020165142
  0
ARC
  5
26F67
  8
0
 10
3132.5054455416561723
 20
163.7860256089373081
 30
0.0
 40
0.2337983887487051
 50
25.1778814003198903
 51
73.3936356912702337
  0
ARC
  5
26F68
  8
0
 10
3132.4650821541058576
 20
163.6506842296990101
 30
0.0
 40
0.3750304388951984
 50
73.3936356912702337
 51
129.4784572430430103
  0
ARC
  5
26F69
  8
0
 10
3132.3438650814650828
 20
163.7978449962305092
 30
0.0
 40
0.1843740204199287
 50
129.4784572430430103
 51
184.6778900670524024
  0
ARC
  5
26F6A
  8
0
 10
3132.3243865563140389
 20
163.7899067721714914
 30
0.0
 40
0.1644346093184204
 50
182.4740728508492111
 51
231.3652885628449098
  0
ARC
  5
26F6B
  8
0
 10
3132.4105588194970551
 20
163.8810675833815935
 30
0.0
 40
0.289632733632529
 50
229.308231071009601
 51
280.8239882967092171
  0
ARC
  5
26F6C
  8
0
 10
3132.411082055712086
 20
163.9432245901641068
 30
0.0
 40
0.3507973690653712
 50
278.8331568749484859
 51
321.4165609122363776
  0
ARC
  5
26F6D
  8
0
 10
3132.5507046516668197
 20
163.8346151734488103
 30
0.0
 40
0.1739332294707225
 50
320.6997138979834858
 51
17.0076195056699717
  0
ARC
  5
26F6E
  8
0
 10
3132.0300625793988729
 20
163.1937846426442889
 30
0.0
 40
0.3587648811798865
 50
62.5575578193926987
 51
90.4016546978431563
  0
ARC
  5
26F6F
  8
0
 10
3132.0319025545582008
 20
163.3806938849174912
 30
0.0
 40
0.2854016372740877
 50
269.1256850620102909
 51
344.6192434840301075
  0
ARC
  5
26F70
  8
0
 10
3132.1137671764859078
 20
163.3320068756796957
 30
0.0
 40
0.1978037493041516
 50
9.6361951948047189
 51
65.6250559245328589
  0
ARC
  5
26F71
  8
0
 10
3132.1299467177900624
 20
163.3400824928318116
 30
0.0
 40
0.1805771345647331
 50
348.796099836391079
 51
7.969109591497884
  0
ARC
  5
26F72
  8
0
 10
3131.4785133543700795
 20
166.3416828189301953
 30
0.0
 40
0.177882960600706
 50
19.3529343464765518
 51
82.9471619686840285
  0
ARC
  5
26F73
  8
0
 10
3131.4765209967840747
 20
166.3255791556645136
 30
0.0
 40
0.194109403813036
 50
82.9471619686840285
 51
140.6260542856595919
  0
ARC
  5
26F74
  8
0
 10
3131.4076692993498909
 20
166.3820821632797902
 30
0.0
 40
0.1050411933834529
 50
140.6260542856595919
 51
181.9176828740648091
  0
ARC
  5
26F75
  8
0
 10
3131.4866184943189182
 20
166.3847255705252053
 30
0.0
 40
0.1840346297445655
 50
181.917682874066486
 51
217.3176908830930074
  0
ARC
  5
26F76
  8
0
 10
3131.4779505773831261
 20
166.3979368564070001
 30
0.0
 40
0.1858199503913451
 50
222.1834557316070971
 51
257.8017092969690793
  0
ARC
  5
26F77
  8
0
 10
3131.481876825514064
 20
166.4051204313720973
 30
0.0
 40
0.1936848272965836
 50
257.1154670028346914
 51
294.9220335972161138
  0
ARC
  5
26F78
  8
0
 10
3131.5004616429841917
 20
166.3689966518234939
 30
0.0
 40
0.1531021657744578
 50
294.3111877142821982
 51
342.5471750305189857
  0
ARC
  5
26F79
  8
0
 10
3131.4734893566410392
 20
166.3614741392752876
 30
0.0
 40
0.1772352702222621
 50
347.4883362902140789
 51
12.7636792595683097
  0
ARC
  5
26F7A
  8
0
 10
3131.5104598314260329
 20
166.3053332079556128
 30
0.0
 40
0.0038103401713618
 50
4.8524150437544789
 51
101.7385971645380067
  0
ARC
  5
26F7B
  8
0
 10
3125.0478290112318973
 20
166.353544223476689
 30
0.0
 40
6.466604826975539
 50
359.3747439687090832
 51
359.5756899313528265
  0
ARC
  5
26F7C
  8
0
 10
3131.5105983780899805
 20
166.2833367930385009
 30
0.0
 40
0.0034691210502517
 50
290.927341718353091
 51
354.0471672632777995
  0
ARC
  5
26F7D
  8
0
 10
3131.9698278304281303
 20
165.4605863980015101
 30
0.0
 40
0.9388034847996898
 50
119.1990205279573019
 51
124.0939425626928028
  0
ARC
  5
26F7E
  8
0
 10
3131.4747801916068966
 20
166.5210841587569917
 30
0.0
 40
0.214874213121645
 50
216.9612482718767978
 51
279.3486241796102263
  0
ARC
  5
26F7F
  8
0
 10
3131.4750109080869152
 20
166.4992130110742039
 30
0.0
 40
0.2158231363875009
 50
217.787887461530687
 51
279.2567682070013007
  0
ARC
  5
26F80
  8
0
 10
3131.5104614503347875
 20
166.2826760123473946
 30
0.0
 40
0.0035999476005692
 50
4.7962193263963631
 51
101.7551205532486023
  0
ARC
  5
26F81
  8
0
 10
3131.4702063241079486
 20
166.40631155415781
 30
0.0
 40
0.1703769867345041
 50
190.8696153067093917
 51
261.0090863458676722
  0
ARC
  5
26F82
  8
0
 10
3131.4845704451759048
 20
166.4061131727619909
 30
0.0
 40
0.1730110939482651
 50
256.2950096975425254
 51
343.7687819700519753
  0
LINE
  5
26F83
  8
0
 10
3131.6139616936588936
 20
166.3346753019052073
 30
0.0
 11
3131.6137541890279863
 21
166.3573613156013096
 31
0.0
  0
ARC
  5
26F84
  8
0
 10
3131.6175532553797893
 20
166.3350572532073954
 30
0.0
 40
0.0036118142803375
 50
186.0704099597573133
 51
278.5105492245867822
  0
ARC
  5
26F85
  8
0
 10
3132.8598996028881629
 20
163.173103097547795
 30
0.0
 40
3.3937404420817701
 50
110.9712715849618974
 51
111.4637463137035951
  0
ARC
  5
26F86
  8
0
 10
3131.4995413974979783
 20
166.4810887859910054
 30
0.0
 40
0.1674154665718183
 50
313.4633441671207947
 51
331.2707634774876055
  0
ARC
  5
26F87
  8
0
 10
3131.6167967087199031
 20
166.357366845098511
 30
0.0
 40
0.0030425247165697
 50
133.4348432637222004
 51
180.1041296475729041
  0
ARC
  5
26F88
  8
0
 10
3130.9246348317378761
 20
165.545394828890494
 30
0.0
 40
0.177882960600706
 50
19.3529343464765518
 51
82.9471619686840285
  0
ARC
  5
26F89
  8
0
 10
3130.9226424741527808
 20
165.5292911656248123
 30
0.0
 40
0.194109403813036
 50
82.9471619686840285
 51
140.6260542856595919
  0
ARC
  5
26F8A
  8
0
 10
3130.8537907767190518
 20
165.5857941732400889
 30
0.0
 40
0.1050411933834529
 50
140.6260542856595919
 51
181.9176828740648091
  0
ARC
  5
26F8B
  8
0
 10
3130.9327399716880791
 20
165.588437580485504
 30
0.0
 40
0.1840346297445655
 50
181.917682874066486
 51
217.3176908830930074
  0
ARC
  5
26F8C
  8
0
 10
3130.9240720547518322
 20
165.6016488663672988
 30
0.0
 40
0.1858199503913451
 50
222.1834557316070971
 51
257.8017092969690793
  0
ARC
  5
26F8D
  8
0
 10
3130.9279983028818606
 20
165.608832441332396
 30
0.0
 40
0.1936848272965836
 50
257.1154670028346914
 51
294.9220335972161138
  0
ARC
  5
26F8E
  8
0
 10
3130.9465831203528978
 20
165.5727086617837926
 30
0.0
 40
0.1531021657744578
 50
294.3111877142821982
 51
342.5471750305189857
  0
ARC
  5
26F8F
  8
0
 10
3130.9196108340102001
 20
165.5651861492355863
 30
0.0
 40
0.1772352702222621
 50
347.4883362902140789
 51
12.7636792595683097
  0
ARC
  5
26F90
  8
0
 10
3130.9565813087938295
 20
165.5090452179159115
 30
0.0
 40
0.0038103401713618
 50
4.8524150437544789
 51
101.7385971645380067
  0
ARC
  5
26F91
  8
0
 10
3124.4939504886001487
 20
165.5572562334369877
 30
0.0
 40
6.466604826975539
 50
359.3747439687090832
 51
359.5756899313528265
  0
ARC
  5
26F92
  8
0
 10
3130.9567198554577772
 20
165.4870488029986859
 30
0.0
 40
0.0034691210502517
 50
290.927341718353091
 51
354.0471672632777995
  0
ARC
  5
26F93
  8
0
 10
3131.4159493077968364
 20
164.6642984079618088
 30
0.0
 40
0.9388034847996898
 50
119.1990205279573019
 51
124.0939425626928028
  0
ARC
  5
26F94
  8
0
 10
3130.9209016689760574
 20
165.7247961687172904
 30
0.0
 40
0.214874213121645
 50
216.9612482718767978
 51
279.3486241796102263
  0
ARC
  5
26F95
  8
0
 10
3130.9211323854551665
 20
165.7029250210345026
 30
0.0
 40
0.2158231363875009
 50
217.787887461530687
 51
279.2567682070013007
  0
ARC
  5
26F96
  8
0
 10
3130.9565829277039484
 20
165.486388022307608
 30
0.0
 40
0.0035999476005692
 50
4.7962193263963631
 51
101.7551205532486023
  0
ARC
  5
26F97
  8
0
 10
3130.9163278014762
 20
165.6100235641181087
 30
0.0
 40
0.1703769867345041
 50
190.8696153067093917
 51
261.0090863458676722
  0
ARC
  5
26F98
  8
0
 10
3130.9306919225450656
 20
165.6098251827222896
 30
0.0
 40
0.1730110939482651
 50
256.2950096975425254
 51
343.7687819700519753
  0
LINE
  5
26F99
  8
0
 10
3131.060083171027145
 20
165.538387311865506
 30
0.0
 11
3131.0598756663971471
 21
165.5610733255616083
 31
0.0
  0
ARC
  5
26F9A
  8
0
 10
3131.0636747327489502
 20
165.5387692631676941
 30
0.0
 40
0.0036118142803375
 50
186.0704099597573133
 51
278.5105492245867822
  0
ARC
  5
26F9B
  8
0
 10
3132.3060210802559595
 20
162.3768151075080937
 30
0.0
 40
3.3937404420817701
 50
110.9712715849618974
 51
111.4637463137035951
  0
ARC
  5
26F9C
  8
0
 10
3130.9456628748671392
 20
165.6848007959511904
 30
0.0
 40
0.1674154665718183
 50
313.4633441671207947
 51
331.2707634774861845
  0
ARC
  5
26F9D
  8
0
 10
3131.062918186089064
 20
165.5610788550588097
 30
0.0
 40
0.0030425247165697
 50
133.4348432637222004
 51
180.1041296475729041
  0
ARC
  5
26F9E
  8
0
 10
3131.4762107483561522
 20
164.738345158244897
 30
0.0
 40
0.177882960600706
 50
19.3529343464765518
 51
82.9471619686840285
  0
ARC
  5
26F9F
  8
0
 10
3131.4742183907710569
 20
164.7222414949791869
 30
0.0
 40
0.194109403813036
 50
82.9471619686840285
 51
140.6260542856595919
  0
ARC
  5
26FA0
  8
0
 10
3131.4053666933368731
 20
164.7787445025944066
 30
0.0
 40
0.1050411933834529
 50
140.6260542856595919
 51
181.9176828740648091
  0
ARC
  5
26FA1
  8
0
 10
3131.4843158883059004
 20
164.7813879098397933
 30
0.0
 40
0.1840346297445655
 50
181.917682874066486
 51
217.3176908830930074
  0
ARC
  5
26FA2
  8
0
 10
3131.4756479713701083
 20
164.7945991957217018
 30
0.0
 40
0.1858199503913451
 50
222.1834557316070971
 51
257.8017092969690793
  0
ARC
  5
26FA3
  8
0
 10
3131.4795742195001367
 20
164.8017827706867138
 30
0.0
 40
0.1936848272965836
 50
257.1154670028346914
 51
294.9220335972161138
  0
ARC
  5
26FA4
  8
0
 10
3131.4981590369711739
 20
164.7656589911381957
 30
0.0
 40
0.1531021657744578
 50
294.3111877142821982
 51
342.5471750305189857
  0
ARC
  5
26FA5
  8
0
 10
3131.4711867506280214
 20
164.7581364785899893
 30
0.0
 40
0.1772352702222621
 50
347.4883362902140789
 51
12.7636792595683097
  0
ARC
  5
26FA6
  8
0
 10
3131.5081572254121056
 20
164.7019955472702861
 30
0.0
 40
0.0038103401713618
 50
4.8524150437544789
 51
101.7385971645380067
  0
ARC
  5
26FA7
  8
0
 10
3125.0455264052170605
 20
164.7502065627913908
 30
0.0
 40
6.466604826975539
 50
359.3747439687090832
 51
359.5756899313528265
  0
ARC
  5
26FA8
  8
0
 10
3131.5082957720760533
 20
164.679999132353089
 30
0.0
 40
0.0034691210502517
 50
290.927341718353091
 51
354.0471672632777995
  0
ARC
  5
26FA9
  8
0
 10
3131.9675252244151125
 20
163.8572487373162119
 30
0.0
 40
0.9388034847996898
 50
119.1990205279573019
 51
124.0939425626928028
  0
ARC
  5
26FAA
  8
0
 10
3131.4724775855938788
 20
164.9177464980716934
 30
0.0
 40
0.214874213121645
 50
216.9612482718767978
 51
279.3486241796102263
  0
ARC
  5
26FAB
  8
0
 10
3131.4727083020729879
 20
164.8958753503889056
 30
0.0
 40
0.2158231363875009
 50
217.787887461530687
 51
279.2567682070013007
  0
ARC
  5
26FAC
  8
0
 10
3131.5081588443208602
 20
164.6793383516620111
 30
0.0
 40
0.0035999476005692
 50
4.7962193263963631
 51
101.7551205532486023
  0
ARC
  5
26FAD
  8
0
 10
3131.4679037180940213
 20
164.8029738934725117
 30
0.0
 40
0.1703769867345041
 50
190.8696153067093917
 51
261.0090863458676722
  0
ARC
  5
26FAE
  8
0
 10
3131.4822678391619775
 20
164.8027755120766074
 30
0.0
 40
0.1730110939482651
 50
256.2950096975425254
 51
343.7687819700519753
  0
LINE
  5
26FAF
  8
0
 10
3131.6116590876449663
 20
164.7313376412199091
 30
0.0
 11
3131.6114515830149685
 21
164.7540236549160113
 31
0.0
  0
ARC
  5
26FB0
  8
0
 10
3131.6152506493672263
 20
164.7317195925220972
 30
0.0
 40
0.0036118142803375
 50
186.0704099597573133
 51
278.5105492245867822
  0
ARC
  5
26FB1
  8
0
 10
3132.8575969968737809
 20
161.5697654368624967
 30
0.0
 40
3.3937404420817701
 50
110.9712715849618974
 51
111.4637463137035951
  0
ARC
  5
26FB2
  8
0
 10
3131.497238791484051
 20
164.8777511253055934
 30
0.0
 40
0.1674154665718183
 50
313.4633441671207947
 51
331.2707634774861845
  0
ARC
  5
26FB3
  8
0
 10
3131.6144941027068853
 20
164.7540291844132128
 30
0.0
 40
0.0030425247165697
 50
133.4348432637222004
 51
180.1041296475729041
  0
ARC
  5
26FB4
  8
0
 10
3131.9387165185430604
 20
165.7113409275470985
 30
0.0
 40
0.9313767988639604
 50
119.7838412308991991
 51
133.0344821111279998
  0
ARC
  5
26FB5
  8
0
 10
3131.7561320775039349
 20
166.8221789514691125
 30
0.0
 40
0.0220238406618899
 50
82.725038174921977
 51
281.2287278120618907
  0
ARC
  5
26FB6
  8
0
 10
3131.7598029932210011
 20
166.8223056597886966
 30
0.0
 40
0.0217377389120819
 50
271.6283436917099721
 51
92.3254222952735546
  0
LINE
  5
26FB7
  8
0
 10
3131.6938423431038245
 20
166.8575760611070109
 30
0.0
 11
3131.6938757130051272
 21
166.8314308192070996
 31
0.0
  0
ARC
  5
26FB8
  8
0
 10
3131.7548857277929528
 20
166.8341717571867946
 30
0.0
 40
0.0610715534888087
 50
182.5723424233133017
 51
246.3308897016410128
  0
ARC
  5
26FB9
  8
0
 10
3131.7572645531258786
 20
166.8395988203768923
 30
0.0
 40
0.0669970766585589
 50
246.3308897016410128
 51
332.4315603757933104
  0
ARC
  5
26FBA
  8
0
 10
3131.7777093198310467
 20
166.8289248900345001
 30
0.0
 40
0.0439336581229258
 50
332.4315603757933104
 51
358.8488007310261878
  0
LINE
  5
26FBB
  8
0
 10
3131.8216341103038758
 20
166.8280422248070067
 30
0.0
 11
3131.8217951535220891
 21
166.8556838105942006
 31
0.0
  0
ARC
  5
26FBC
  8
0
 10
3131.7550899710918202
 20
166.856926940094894
 30
0.0
 40
0.0612510676823524
 50
87.0072128386655663
 51
179.3927846156589965
  0
ARC
  5
26FBD
  8
0
 10
3131.7547805514432184
 20
166.8510086061949949
 30
0.0
 40
0.067177484531506
 50
3.9907148924118698
 51
87.0072128386655663
  0
ARC
  5
26FBE
  8
0
 10
3131.8716867491471021
 20
166.436852621851898
 30
0.0
 40
0.0220238406618899
 50
82.725038174921977
 51
281.2287278120618907
  0
ARC
  5
26FBF
  8
0
 10
3131.8753576648641683
 20
166.4369793301715106
 30
0.0
 40
0.0217377389120819
 50
271.6283436917099721
 51
92.3254222952735546
  0
LINE
  5
26FC0
  8
0
 10
3131.8093970147469918
 20
166.4722497314897964
 30
0.0
 11
3131.8094303846469302
 21
166.4461044895897999
 31
0.0
  0
ARC
  5
26FC1
  8
0
 10
3131.8704403994361201
 20
166.4488454275696085
 30
0.0
 40
0.0610715534888087
 50
182.5723424233133017
 51
246.3308897016410128
  0
ARC
  5
26FC2
  8
0
 10
3131.8728192247690458
 20
166.4542724907597062
 30
0.0
 40
0.0669970766585589
 50
246.3308897016410128
 51
332.4315603757933104
  0
ARC
  5
26FC3
  8
0
 10
3131.893263991474214
 20
166.443598560417314
 30
0.0
 40
0.0439336581229258
 50
332.4315603757933104
 51
358.8488007310261878
  0
LINE
  5
26FC4
  8
0
 10
3131.937188781947043
 20
166.4427158951897923
 30
0.0
 11
3131.9373498251648016
 21
166.4703574809769862
 31
0.0
  0
ARC
  5
26FC5
  8
0
 10
3131.8706446427349874
 20
166.471600610477708
 30
0.0
 40
0.0612510676823524
 50
87.0072128386655663
 51
179.3927846156589965
  0
ARC
  5
26FC6
  8
0
 10
3131.8703352230859309
 20
166.4656822765778088
 30
0.0
 40
0.067177484531506
 50
3.9907148924118698
 51
87.0072128386655663
  0
ARC
  5
26FC7
  8
0
 10
3131.2535718676208489
 20
166.6688937181770029
 30
0.0
 40
0.0220238406618899
 50
82.725038174921977
 51
281.2287278120618907
  0
ARC
  5
26FC8
  8
0
 10
3131.2572427833379152
 20
166.6690204264965871
 30
0.0
 40
0.0217377389120819
 50
271.6283436917099721
 51
92.3254222952735546
  0
LINE
  5
26FC9
  8
0
 10
3131.1912821332211934
 20
166.7042908278149866
 30
0.0
 11
3131.1913155031220413
 21
166.6781455859149901
 31
0.0
  0
ARC
  5
26FCA
  8
0
 10
3131.2523255179098669
 20
166.6808865238947135
 30
0.0
 40
0.0610715534888087
 50
182.5723424233133017
 51
246.3308897016410128
  0
ARC
  5
26FCB
  8
0
 10
3131.2547043432427927
 20
166.6863135870848112
 30
0.0
 40
0.0669970766585589
 50
246.3308897016410128
 51
332.4315603757933104
  0
ARC
  5
26FCC
  8
0
 10
3131.2751491099479608
 20
166.6756396567425043
 30
0.0
 40
0.0439336581229258
 50
332.4315603757933104
 51
358.8488007310261878
  0
LINE
  5
26FCD
  8
0
 10
3131.3190739004207899
 20
166.6747569915150109
 30
0.0
 11
3131.3192349436390032
 21
166.7023985773020911
 31
0.0
  0
ARC
  5
26FCE
  8
0
 10
3131.252529761209189
 20
166.7036417068028129
 30
0.0
 40
0.0612510676823524
 50
87.0072128386655663
 51
179.3927846156589965
  0
ARC
  5
26FCF
  8
0
 10
3131.2522203415601325
 20
166.6977233729029138
 30
0.0
 40
0.067177484531506
 50
3.9907148924118698
 51
87.0072128386655663
  0
ARC
  5
26FD0
  8
0
 10
3131.1546288395438751
 20
166.0947920308119876
 30
0.0
 40
0.0220238406618899
 50
82.725038174921977
 51
281.2287278120618907
  0
ARC
  5
26FD1
  8
0
 10
3131.1582997552609413
 20
166.0949187391317139
 30
0.0
 40
0.0217377389120819
 50
271.6283436917099721
 51
92.3254222952735546
  0
LINE
  5
26FD2
  8
0
 10
3131.092339105145129
 20
166.1301891404499997
 30
0.0
 11
3131.0923724750441579
 21
166.1040438985500032
 31
0.0
  0
ARC
  5
26FD3
  8
0
 10
3131.153382489832893
 20
166.1067848365296982
 30
0.0
 40
0.0610715534888087
 50
182.5723424233133017
 51
246.3308897016410128
  0
ARC
  5
26FD4
  8
0
 10
3131.1557613151671831
 20
166.1122118997197958
 30
0.0
 40
0.0669970766585589
 50
246.3308897016410128
 51
332.4315603757933104
  0
ARC
  5
26FD5
  8
0
 10
3131.176206081870987
 20
166.1015379693774889
 30
0.0
 40
0.0439336581229258
 50
332.4315603757933104
 51
358.8488007310261878
  0
LINE
  5
26FD6
  8
0
 10
3131.2201308723451803
 20
166.1006553041499956
 30
0.0
 11
3131.2202919155620293
 21
166.1282968899371042
 31
0.0
  0
ARC
  5
26FD7
  8
0
 10
3131.1535867331331247
 20
166.1295400194377976
 30
0.0
 40
0.0612510676823524
 50
87.0072128386655663
 51
179.3927846156589965
  0
ARC
  5
26FD8
  8
0
 10
3131.1532773134831587
 20
166.1236216855378984
 30
0.0
 40
0.067177484531506
 50
3.9907148924118698
 51
87.0072128386655663
  0
ARC
  5
26FD9
  8
0
 10
3131.0064174034118878
 20
165.8688071057815989
 30
0.0
 40
0.0220238406618899
 50
82.725038174921977
 51
281.2287278120618907
  0
ARC
  5
26FDA
  8
0
 10
3131.0100883191280445
 20
165.8689338141012968
 30
0.0
 40
0.0217377389120819
 50
271.6283436917099721
 51
92.3254222952735546
  0
LINE
  5
26FDB
  8
0
 10
3130.9441276690117775
 20
165.904204215419611
 30
0.0
 11
3130.9441610389121706
 21
165.8780589735195861
 31
0.0
  0
ARC
  5
26FDC
  8
0
 10
3131.0051710537009058
 20
165.8807999114993947
 30
0.0
 40
0.0610715534888087
 50
182.5723424233133017
 51
246.3308897016410128
  0
ARC
  5
26FDD
  8
0
 10
3131.007549879032922
 20
165.8862269746894924
 30
0.0
 40
0.0669970766585589
 50
246.3308897016410128
 51
332.4315603757933104
  0
ARC
  5
26FDE
  8
0
 10
3131.0279946457380902
 20
165.8755530443471002
 30
0.0
 40
0.0439336581229258
 50
332.4315603757933104
 51
358.8488007310261878
  0
LINE
  5
26FDF
  8
0
 10
3131.0719194362109192
 20
165.8746703791196069
 30
0.0
 11
3131.0720804794291325
 21
165.9023119649066871
 31
0.0
  0
ARC
  5
26FE0
  8
0
 10
3131.0053752969997731
 20
165.9035550944074089
 30
0.0
 40
0.0612510676823524
 50
87.0072128386655663
 51
179.3927846156589965
  0
ARC
  5
26FE1
  8
0
 10
3131.0050658773498071
 20
165.897636760507595
 30
0.0
 40
0.067177484531506
 50
3.9907148924118698
 51
87.0072128386655663
  0
ARC
  5
26FE2
  8
0
 10
3131.0007075571447785
 20
165.178588914097503
 30
0.0
 40
0.0220238406618899
 50
82.725038174921977
 51
281.2287278120618907
  0
ARC
  5
26FE3
  8
0
 10
3131.0043784728609353
 20
165.1787156224172008
 30
0.0
 40
0.0217377389120819
 50
271.6283436917099721
 51
92.3254222952735546
  0
LINE
  5
26FE4
  8
0
 10
3130.938417822745123
 20
165.2139860237354867
 30
0.0
 11
3130.9384511926450614
 21
165.1878407818354901
 31
0.0
  0
ARC
  5
26FE5
  8
0
 10
3130.9994612074337965
 20
165.1905817198152988
 30
0.0
 40
0.0610715534888087
 50
182.5723424233133017
 51
246.3308897016410128
  0
ARC
  5
26FE6
  8
0
 10
3131.001840032767177
 20
165.1960087830053965
 30
0.0
 40
0.0669970766585589
 50
246.3308897016410128
 51
332.4315603757933104
  0
ARC
  5
26FE7
  8
0
 10
3131.0222847994718904
 20
165.1853348526630043
 30
0.0
 40
0.0439336581229258
 50
332.4315603757933104
 51
358.8488007310261878
  0
LINE
  5
26FE8
  8
0
 10
3131.0662095899451742
 20
165.184452187435511
 30
0.0
 11
3131.0663706331620233
 21
165.2120937732227048
 31
0.0
  0
ARC
  5
26FE9
  8
0
 10
3130.9996654507331186
 20
165.2133369027233982
 30
0.0
 40
0.0612510676823524
 50
87.0072128386655663
 51
179.3927846156589965
  0
ARC
  5
26FEA
  8
0
 10
3130.9993560310840621
 20
165.2074185688234991
 30
0.0
 40
0.067177484531506
 50
3.9907148924118698
 51
87.0072128386655663
  0
ARC
  5
26FEB
  8
0
 10
3131.1551218854237959
 20
164.9536896213311934
 30
0.0
 40
0.0220238406618899
 50
82.725038174921977
 51
281.2287278120618907
  0
ARC
  5
26FEC
  8
0
 10
3131.1587928011408621
 20
164.9538163296508912
 30
0.0
 40
0.0217377389120819
 50
271.6283436917099721
 51
92.3254222952735546
  0
LINE
  5
26FED
  8
0
 10
3131.0928321510241403
 20
164.9890867309692055
 30
0.0
 11
3131.0928655209240787
 21
164.962941489069209
 31
0.0
  0
ARC
  5
26FEE
  8
0
 10
3131.1538755357128139
 20
164.9656824270489892
 30
0.0
 40
0.0610715534888087
 50
182.5723424233133017
 51
246.3308897016410128
  0
ARC
  5
26FEF
  8
0
 10
3131.1562543610471039
 20
164.9711094902390869
 30
0.0
 40
0.0669970766585589
 50
246.3308897016410128
 51
332.4315603757933104
  0
ARC
  5
26FF0
  8
0
 10
3131.1766991277509078
 20
164.9604355598968084
 30
0.0
 40
0.0439336581229258
 50
332.4315603757933104
 51
358.8488007310261878
  0
LINE
  5
26FF1
  8
0
 10
3131.2206239182241916
 20
164.9595528946692866
 30
0.0
 11
3131.2207849614419501
 21
164.9871944804563952
 31
0.0
  0
ARC
  5
26FF2
  8
0
 10
3131.154079779012136
 20
164.9884376099570886
 30
0.0
 40
0.0612510676823524
 50
87.0072128386655663
 51
179.3927846156589965
  0
ARC
  5
26FF3
  8
0
 10
3131.1537703593630795
 20
164.9825192760571895
 30
0.0
 40
0.067177484531506
 50
3.9907148924118698
 51
87.0072128386655663
  0
ARC
  5
26FF4
  8
0
 10
3131.8741128623610166
 20
164.5974074974039922
 30
0.0
 40
0.0220238406618899
 50
82.725038174921977
 51
281.2287278120618907
  0
ARC
  5
26FF5
  8
0
 10
3131.8777837780771733
 20
164.5975342057236901
 30
0.0
 40
0.0217377389120819
 50
271.6283436917099721
 51
92.3254222952735546
  0
LINE
  5
26FF6
  8
0
 10
3131.8118231279609063
 20
164.6328046070420044
 30
0.0
 11
3131.8118564978599352
 21
164.6066593651420078
 31
0.0
  0
ARC
  5
26FF7
  8
0
 10
3131.8728665126500346
 20
164.6094003031217881
 30
0.0
 40
0.0610715534888087
 50
182.5723424233133017
 51
246.3308897016410128
  0
ARC
  5
26FF8
  8
0
 10
3131.8752453379829603
 20
164.6148273663119141
 30
0.0
 40
0.0669970766585589
 50
246.3308897016410128
 51
332.4315603757933104
  0
ARC
  5
26FF9
  8
0
 10
3131.895690104687219
 20
164.6041534359694936
 30
0.0
 40
0.0439336581229258
 50
332.4315603757933104
 51
358.8488007310261878
  0
LINE
  5
26FFA
  8
0
 10
3131.9396148951609575
 20
164.6032707707420002
 30
0.0
 11
3131.9397759383778066
 21
164.6309123565291088
 31
0.0
  0
ARC
  5
26FFB
  8
0
 10
3131.8730707559489019
 20
164.6321554860298022
 30
0.0
 40
0.0612510676823524
 50
87.0072128386655663
 51
179.3927846156589965
  0
ARC
  5
26FFC
  8
0
 10
3131.8727613362989359
 20
164.6262371521299883
 30
0.0
 40
0.067177484531506
 50
3.9907148924118698
 51
87.0072128386655663
  0
ARC
  5
26FFD
  8
0
 10
3131.7576521506880454
 20
164.2661614352207096
 30
0.0
 40
0.0220238406618899
 50
82.725038174921977
 51
281.2287278120618907
  0
ARC
  5
26FFE
  8
0
 10
3131.7613230664051116
 20
164.2662881435404074
 30
0.0
 40
0.0217377389120819
 50
271.6283436917099721
 51
92.3254222952735546
  0
LINE
  5
26FFF
  8
0
 10
3131.695362416287935
 20
164.3015585448586933
 30
0.0
 11
3131.695395786186964
 21
164.2754133029586967
 31
0.0
  0
ARC
  5
27000
  8
0
 10
3131.7564058009761538
 20
164.2781542409385054
 30
0.0
 40
0.0610715534888087
 50
182.5723424233133017
 51
246.3308897016410128
  0
ARC
  5
27001
  8
0
 10
3131.7587846263099891
 20
164.2835813041286031
 30
0.0
 40
0.0669970766585589
 50
246.3308897016410128
 51
332.4315603757933104
  0
ARC
  5
27002
  8
0
 10
3131.779229393013793
 20
164.2729073737862961
 30
0.0
 40
0.0439336581229258
 50
332.4315603757933104
 51
358.8488007310261878
  0
LINE
  5
27003
  8
0
 10
3131.8231541834879863
 20
164.2720247085586891
 30
0.0
 11
3131.8233152267048354
 21
164.2996662943459114
 31
0.0
  0
ARC
  5
27004
  8
0
 10
3131.7566100442759307
 20
164.3009094238466048
 30
0.0
 40
0.0612510676823524
 50
87.0072128386655663
 51
179.3927846156589965
  0
ARC
  5
27005
  8
0
 10
3131.7563006246259647
 20
164.2949910899467056
 30
0.0
 40
0.067177484531506
 50
3.9907148924118698
 51
87.0072128386655663
  0
ARC
  5
27006
  8
0
 10
3131.2544169591751597
 20
164.4310801416017966
 30
0.0
 40
0.0220238406618899
 50
82.725038174921977
 51
281.2287278120618907
  0
ARC
  5
27007
  8
0
 10
3131.258087874892226
 20
164.4312068499214945
 30
0.0
 40
0.0217377389120819
 50
271.6283436917099721
 51
92.3254222952735546
  0
LINE
  5
27008
  8
0
 10
3131.1921272247759589
 20
164.4664772512398088
 30
0.0
 11
3131.1921605946758973
 21
164.4403320093398122
 31
0.0
  0
ARC
  5
27009
  8
0
 10
3131.2531706094641777
 20
164.4430729473195925
 30
0.0
 40
0.0610715534888087
 50
182.5723424233133017
 51
246.3308897016410128
  0
ARC
  5
2700A
  8
0
 10
3131.255549434798013
 20
164.4485000105096901
 30
0.0
 40
0.0669970766585589
 50
246.3308897016410128
 51
332.4315603757933104
  0
ARC
  5
2700B
  8
0
 10
3131.2759942015018169
 20
164.437826080167298
 30
0.0
 40
0.0439336581229258
 50
332.4315603757933104
 51
358.8488007310261878
  0
LINE
  5
2700C
  8
0
 10
3131.3199189919760101
 20
164.4369434149398046
 30
0.0
 11
3131.3200800351928592
 21
164.4645850007269985
 31
0.0
  0
ARC
  5
2700D
  8
0
 10
3131.2533748527639546
 20
164.4658281302276919
 30
0.0
 40
0.0612510676823524
 50
87.0072128386655663
 51
179.3927846156589965
  0
ARC
  5
2700E
  8
0
 10
3131.2530654331139885
 20
164.4599097963277927
 30
0.0
 40
0.067177484531506
 50
3.9907148924118698
 51
87.0072128386655663
  0
ARC
  5
2700F
  8
0
 10
3130.9745288222161435
 20
164.2021890402131987
 30
0.0
 40
0.0220238406618899
 50
82.725038174921977
 51
281.2287278120618907
  0
ARC
  5
27010
  8
0
 10
3130.9781997379332097
 20
164.2023157485328113
 30
0.0
 40
0.0217377389120819
 50
271.6283436917099721
 51
92.3254222952735546
  0
LINE
  5
27011
  8
0
 10
3130.9122390878169426
 20
164.2375861498512108
 30
0.0
 11
3130.912272457716881
 21
164.2114409079511859
 31
0.0
  0
ARC
  5
27012
  8
0
 10
3130.9732824725051614
 20
164.2141818459309093
 30
0.0
 40
0.0610715534888087
 50
182.5723424233133017
 51
246.3308897016410128
  0
ARC
  5
27013
  8
0
 10
3130.9756612978380872
 20
164.2196089091210922
 30
0.0
 40
0.0669970766585589
 50
246.3308897016410128
 51
332.4315603757933104
  0
ARC
  5
27014
  8
0
 10
3130.9961060645428006
 20
164.2089349787787
 30
0.0
 40
0.0439336581229258
 50
332.4315603757933104
 51
358.8488007310261878
  0
LINE
  5
27015
  8
0
 10
3131.0400308550160844
 20
164.2080523135512067
 30
0.0
 11
3131.0401918982338429
 21
164.2356938993382869
 31
0.0
  0
ARC
  5
27016
  8
0
 10
3130.9734867158040288
 20
164.2369370288390087
 30
0.0
 40
0.0612510676823524
 50
87.0072128386655663
 51
179.3927846156589965
  0
ARC
  5
27017
  8
0
 10
3130.9731772961549723
 20
164.2310186949391095
 30
0.0
 40
0.067177484531506
 50
3.9907148924118698
 51
87.0072128386655663
  0
ARC
  5
27018
  8
0
 10
3130.8441318321670224
 20
164.7313860115143882
 30
0.0
 40
0.0220238406618899
 50
82.725038174921977
 51
281.2287278120618907
  0
ARC
  5
27019
  8
0
 10
3130.8478027478840886
 20
164.7315127198340008
 30
0.0
 40
0.0217377389120819
 50
271.6283436917099721
 51
92.3254222952735546
  0
LINE
  5
2701A
  8
0
 10
3130.7818420977678215
 20
164.7667831211524003
 30
0.0
 11
3130.7818754676668505
 21
164.7406378792522901
 31
0.0
  0
ARC
  5
2701B
  8
0
 10
3130.8428854824569498
 20
164.7433788172320988
 30
0.0
 40
0.0610715534888087
 50
182.5723424233133017
 51
246.3308897016410128
  0
ARC
  5
2701C
  8
0
 10
3130.8452643077898756
 20
164.7488058804223101
 30
0.0
 40
0.0669970766585589
 50
246.3308897016410128
 51
332.4315603757933104
  0
ARC
  5
2701D
  8
0
 10
3130.8657090744941343
 20
164.7381319500798895
 30
0.0
 40
0.0439336581229258
 50
332.4315603757933104
 51
358.8488007310261878
  0
LINE
  5
2701E
  8
0
 10
3130.9096338649678728
 20
164.7372492848523962
 30
0.0
 11
3130.9097949081851766
 21
164.7648908706395048
 31
0.0
  0
ARC
  5
2701F
  8
0
 10
3130.8430897257549077
 20
164.7661340001401982
 30
0.0
 40
0.0612510676823524
 50
87.0072128386655663
 51
179.3927846156589965
  0
ARC
  5
27020
  8
0
 10
3130.8427803061058512
 20
164.760215666240299
 30
0.0
 40
0.067177484531506
 50
3.9907148924118698
 51
87.0072128386655663
  0
ARC
  5
27021
  8
0
 10
3130.6312842896909387
 20
164.4457361941018974
 30
0.0
 40
0.0220238406618899
 50
82.725038174921977
 51
281.2287278120618907
  0
ARC
  5
27022
  8
0
 10
3130.634955205408005
 20
164.4458629024215952
 30
0.0
 40
0.0217377389120819
 50
271.6283436917099721
 51
92.3254222952735546
  0
LINE
  5
27023
  8
0
 10
3130.5689945552921927
 20
164.4811333037399095
 30
0.0
 11
3130.5690279251912216
 21
164.4549880618399129
 31
0.0
  0
ARC
  5
27024
  8
0
 10
3130.6300379399799567
 20
164.4577289998196079
 30
0.0
 40
0.0610715534888087
 50
182.5723424233133017
 51
246.3308897016410128
  0
ARC
  5
27025
  8
0
 10
3130.632416765313792
 20
164.4631560630097908
 30
0.0
 40
0.0669970766585589
 50
246.3308897016410128
 51
332.4315603757933104
  0
ARC
  5
27026
  8
0
 10
3130.6528615320180506
 20
164.4524821326673987
 30
0.0
 40
0.0439336581229258
 50
332.4315603757933104
 51
358.8488007310261878
  0
LINE
  5
27027
  8
0
 10
3130.6967863224917892
 20
164.4515994674399053
 30
0.0
 11
3130.696947365709093
 21
164.4792410532270139
 31
0.0
  0
ARC
  5
27028
  8
0
 10
3130.6302421832801883
 20
164.4804841827277073
 30
0.0
 40
0.0612510676823524
 50
87.0072128386655663
 51
179.3927846156589965
  0
ARC
  5
27029
  8
0
 10
3130.6299327636302223
 20
164.4745658488278082
 30
0.0
 40
0.067177484531506
 50
3.9907148924118698
 51
87.0072128386655663
  0
ARC
  5
2702A
  8
0
 10
3130.3554642360800244
 20
164.7363590285854116
 30
0.0
 40
0.0220238406618899
 50
82.725038174921977
 51
281.2287278120618907
  0
ARC
  5
2702B
  8
0
 10
3130.3591351517980002
 20
164.7364857369051094
 30
0.0
 40
0.0217377389120819
 50
271.6283436917099721
 51
92.3254222952735546
  0
LINE
  5
2702C
  8
0
 10
3130.2931745016808236
 20
164.7717561382233953
 30
0.0
 11
3130.2932078715798525
 21
164.7456108963233987
 31
0.0
  0
ARC
  5
2702D
  8
0
 10
3130.3542178863690424
 20
164.7483518343032074
 30
0.0
 40
0.0610715534888087
 50
182.5723424233133017
 51
246.3308897016410128
  0
ARC
  5
2702E
  8
0
 10
3130.3565967117028777
 20
164.7537788974933051
 30
0.0
 40
0.0669970766585589
 50
246.3308897016410128
 51
332.4315603757933104
  0
ARC
  5
2702F
  8
0
 10
3130.3770414784071363
 20
164.7431049671509129
 30
0.0
 40
0.0439336581229258
 50
332.4315603757933104
 51
358.8488007310261878
  0
LINE
  5
27030
  8
0
 10
3130.4209662688808748
 20
164.7422223019233911
 30
0.0
 11
3130.4211273120981787
 21
164.7698638877106134
 31
0.0
  0
ARC
  5
27031
  8
0
 10
3130.3544221296688193
 20
164.7711070172111931
 30
0.0
 40
0.0612510676823524
 50
87.0072128386655663
 51
179.3927846156589965
  0
ARC
  5
27032
  8
0
 10
3130.3541127100188532
 20
164.7651886833114077
 30
0.0
 40
0.067177484531506
 50
3.9907148924118698
 51
87.0072128386655663
  0
ARC
  5
27033
  8
0
 10
3130.1630444395059385
 20
165.0685841211742115
 30
0.0
 40
0.0220238406618899
 50
82.725038174921977
 51
281.2287278120618907
  0
ARC
  5
27034
  8
0
 10
3130.1667153552230047
 20
165.0687108294939094
 30
0.0
 40
0.0217377389120819
 50
271.6283436917099721
 51
92.3254222952735546
  0
LINE
  5
27035
  8
0
 10
3130.1007547051058282
 20
165.1039812308121952
 30
0.0
 11
3130.1007880750071308
 21
165.0778359889121987
 31
0.0
  0
ARC
  5
27036
  8
0
 10
3130.1617980897949565
 20
165.0805769268920074
 30
0.0
 40
0.0610715534888087
 50
182.5723424233133017
 51
246.3308897016410128
  0
ARC
  5
27037
  8
0
 10
3130.1641769151278822
 20
165.086003990082105
 30
0.0
 40
0.0669970766585589
 50
246.3308897016410128
 51
332.4315603757933104
  0
ARC
  5
27038
  8
0
 10
3130.1846216818330504
 20
165.0753300597397129
 30
0.0
 40
0.0439336581229258
 50
332.4315603757933104
 51
358.8488007310261878
  0
LINE
  5
27039
  8
0
 10
3130.2285464723058794
 20
165.0744473945121911
 30
0.0
 11
3130.2287075155240927
 21
165.1020889802994134
 31
0.0
  0
ARC
  5
2703A
  8
0
 10
3130.1620023330938238
 20
165.1033321098001068
 30
0.0
 40
0.0612510676823524
 50
87.0072128386655663
 51
179.3927846156589965
  0
ARC
  5
2703B
  8
0
 10
3130.1616929134452221
 20
165.0974137759002076
 30
0.0
 40
0.067177484531506
 50
3.9907148924118698
 51
87.0072128386655663
  0
ARC
  5
2703C
  8
0
 10
3130.5788240261358624
 20
165.1227204732198004
 30
0.0
 40
0.0220238406618899
 50
82.725038174921977
 51
281.2287278120618907
  0
ARC
  5
2703D
  8
0
 10
3130.5824949418520191
 20
165.1228471815394983
 30
0.0
 40
0.0217377389120819
 50
271.6283436917099721
 51
92.3254222952735546
  0
LINE
  5
2703E
  8
0
 10
3130.5165342917362068
 20
165.1581175828578125
 30
0.0
 11
3130.5165676616361452
 21
165.1319723409577875
 31
0.0
  0
ARC
  5
2703F
  8
0
 10
3130.5775776764248803
 20
165.1347132789375962
 30
0.0
 40
0.0610715534888087
 50
182.5723424233133017
 51
246.3308897016410128
  0
ARC
  5
27040
  8
0
 10
3130.5799565017578061
 20
165.1401403421276939
 30
0.0
 40
0.0669970766585589
 50
246.3308897016410128
 51
332.4315603757933104
  0
ARC
  5
27041
  8
0
 10
3130.6004012684620648
 20
165.1294664117853017
 30
0.0
 40
0.0439336581229258
 50
332.4315603757933104
 51
358.8488007310261878
  0
LINE
  5
27042
  8
0
 10
3130.6443260589358033
 20
165.1285837465578936
 30
0.0
 11
3130.6444871021531071
 21
165.1562253323450022
 31
0.0
  0
ARC
  5
27043
  8
0
 10
3130.5777819197242025
 20
165.1574684618456956
 30
0.0
 40
0.0612510676823524
 50
87.0072128386655663
 51
179.3927846156589965
  0
ARC
  5
27044
  8
0
 10
3130.5774725000737817
 20
165.1515501279457965
 30
0.0
 40
0.067177484531506
 50
3.9907148924118698
 51
87.0072128386655663
  0
ARC
  5
27045
  8
0
 10
3130.0658725559460436
 20
165.4252343343974871
 30
0.0
 40
0.0220238406618899
 50
82.725038174921977
 51
281.2287278120618907
  0
ARC
  5
27046
  8
0
 10
3130.0695434716631098
 20
165.4253610427172134
 30
0.0
 40
0.0217377389120819
 50
271.6283436917099721
 51
92.3254222952735546
  0
LINE
  5
27047
  8
0
 10
3130.0035828215459333
 20
165.4606314440354993
 30
0.0
 11
3130.0036161914467812
 21
165.4344862021355027
 31
0.0
  0
ARC
  5
27048
  8
0
 10
3130.0646262062350615
 20
165.4372271401153114
 30
0.0
 40
0.0610715534888087
 50
182.5723424233133017
 51
246.3308897016410128
  0
ARC
  5
27049
  8
0
 10
3130.0670050315679873
 20
165.4426542033054091
 30
0.0
 40
0.0669970766585589
 50
246.3308897016410128
 51
332.4315603757933104
  0
ARC
  5
2704A
  8
0
 10
3130.0874497982731555
 20
165.4319802729629885
 30
0.0
 40
0.0439336581229258
 50
332.4315603757933104
 51
358.8488007310261878
  0
LINE
  5
2704B
  8
0
 10
3130.131374588746894
 20
165.4310976077354951
 30
0.0
 11
3130.1315356319641978
 21
165.4587391935226037
 31
0.0
  0
ARC
  5
2704C
  8
0
 10
3130.0648304495339289
 20
165.4599823230232971
 30
0.0
 40
0.0612510676823524
 50
87.0072128386655663
 51
179.3927846156589965
  0
ARC
  5
2704D
  8
0
 10
3130.0645210298848724
 20
165.4540639891235116
 30
0.0
 40
0.067177484531506
 50
3.9907148924118698
 51
87.0072128386655663
  0
ARC
  5
2704E
  8
0
 10
3130.4838444683509806
 20
165.5603252840575976
 30
0.0
 40
0.0220238406618899
 50
82.725038174921977
 51
281.2287278120618907
  0
ARC
  5
2704F
  8
0
 10
3130.4875153840680468
 20
165.5604519923772955
 30
0.0
 40
0.0217377389120819
 50
271.6283436917099721
 51
92.3254222952735546
  0
LINE
  5
27050
  8
0
 10
3130.4215547339508703
 20
165.5957223936956098
 30
0.0
 11
3130.4215881038508087
 21
165.5695771517956132
 31
0.0
  0
ARC
  5
27051
  8
0
 10
3130.4825981186399986
 20
165.5723180897753934
 30
0.0
 40
0.0610715534888087
 50
182.5723424233133017
 51
246.3308897016410128
  0
ARC
  5
27052
  8
0
 10
3130.4849769439738338
 20
165.5777451529654911
 30
0.0
 40
0.0669970766585589
 50
246.3308897016410128
 51
332.4315603757933104
  0
ARC
  5
27053
  8
0
 10
3130.5054217106780925
 20
165.5670712226230989
 30
0.0
 40
0.0439336581229258
 50
332.4315603757933104
 51
358.8488007310261878
  0
LINE
  5
27054
  8
0
 10
3130.549346501151831
 20
165.5661885573956056
 30
0.0
 11
3130.5495075443691348
 21
165.5938301431827995
 31
0.0
  0
ARC
  5
27055
  8
0
 10
3130.4828023619388659
 20
165.5950732726834929
 30
0.0
 40
0.0612510676823524
 50
87.0072128386655663
 51
179.3927846156589965
  0
ARC
  5
27056
  8
0
 10
3130.4824929422898094
 20
165.5891549387835937
 30
0.0
 40
0.067177484531506
 50
3.9907148924118698
 51
87.0072128386655663
  0
ARC
  5
27057
  8
0
 10
3130.5778333859821032
 20
165.999975277433208
 30
0.0
 40
0.0220238406618899
 50
82.725038174921977
 51
281.2287278120618907
  0
ARC
  5
27058
  8
0
 10
3130.5815043016991694
 20
166.0001019857529059
 30
0.0
 40
0.0217377389120819
 50
271.6283436917099721
 51
92.3254222952735546
  0
LINE
  5
27059
  8
0
 10
3130.5155436515819929
 20
166.0353723870713054
 30
0.0
 11
3130.5155770214819313
 21
166.0092271451711952
 31
0.0
  0
ARC
  5
2705A
  8
0
 10
3130.5765870362711212
 20
166.0119680831510038
 30
0.0
 40
0.0610715534888087
 50
182.5723424233133017
 51
246.3308897016410128
  0
ARC
  5
2705B
  8
0
 10
3130.5789658616040469
 20
166.0173951463411015
 30
0.0
 40
0.0669970766585589
 50
246.3308897016410128
 51
332.4315603757933104
  0
ARC
  5
2705C
  8
0
 10
3130.5994106283078509
 20
166.0067212159987093
 30
0.0
 40
0.0439336581229258
 50
332.4315603757933104
 51
358.8488007310261878
  0
LINE
  5
2705D
  8
0
 10
3130.6433354187820441
 20
166.0058385507711876
 30
0.0
 11
3130.6434964619998027
 21
166.0334801365584099
 31
0.0
  0
ARC
  5
2705E
  8
0
 10
3130.5767912795699885
 20
166.0347232660591033
 30
0.0
 40
0.0612510676823524
 50
87.0072128386655663
 51
179.3927846156589965
  0
ARC
  5
2705F
  8
0
 10
3130.5764818599200225
 20
166.0288049321592041
 30
0.0
 40
0.067177484531506
 50
3.9907148924118698
 51
87.0072128386655663
  0
ARC
  5
27060
  8
0
 10
3130.8464751646151853
 20
166.3805779759225913
 30
0.0
 40
0.0220238406618899
 50
82.725038174921977
 51
281.2287278120618907
  0
ARC
  5
27061
  8
0
 10
3130.8501460803308873
 20
166.3807046842422892
 30
0.0
 40
0.0217377389120819
 50
271.6283436917099721
 51
92.3254222952735546
  0
LINE
  5
27062
  8
0
 10
3130.784185430215075
 20
166.4159750855606035
 30
0.0
 11
3130.7842188001150134
 21
166.3898298436606069
 31
0.0
  0
ARC
  5
27063
  8
0
 10
3130.8452288149042033
 20
166.3925707816403872
 30
0.0
 40
0.0610715534888087
 50
182.5723424233133017
 51
246.3308897016410128
  0
ARC
  5
27064
  8
0
 10
3130.8476076402371291
 20
166.3979978448305133
 30
0.0
 40
0.0669970766585589
 50
246.3308897016410128
 51
332.4315603757933104
  0
ARC
  5
27065
  8
0
 10
3130.868052406940933
 20
166.3873239144880927
 30
0.0
 40
0.0439336581229258
 50
332.4315603757933104
 51
358.8488007310261878
  0
LINE
  5
27066
  8
0
 10
3130.9119771974151263
 20
166.3864412492605993
 30
0.0
 11
3130.9121382406328848
 21
166.4140828350477932
 31
0.0
  0
ARC
  5
27067
  8
0
 10
3130.8454330582030707
 20
166.4153259645484866
 30
0.0
 40
0.0612510676823524
 50
87.0072128386655663
 51
179.3927846156589965
  0
ARC
  5
27068
  8
0
 10
3130.8451236385531047
 20
166.4094076306485874
 30
0.0
 40
0.067177484531506
 50
3.9907148924118698
 51
87.0072128386655663
  0
ARC
  5
27069
  8
0
 10
3130.9758842435471706
 20
166.9851777127946946
 30
0.0
 40
0.0220238406618899
 50
82.725038174921977
 51
281.2287278120618907
  0
ARC
  5
2706A
  8
0
 10
3130.9795551592628726
 20
166.9853044211143924
 30
0.0
 40
0.0217377389120819
 50
271.6283436917099721
 51
92.3254222952735546
  0
LINE
  5
2706B
  8
0
 10
3130.9135945091470603
 20
167.0205748224327067
 30
0.0
 11
3130.9136278790469987
 21
166.9944295805327101
 31
0.0
  0
ARC
  5
2706C
  8
0
 10
3130.9746378938361886
 20
166.9971705185124051
 30
0.0
 40
0.0610715534888087
 50
182.5723424233133017
 51
246.3308897016410128
  0
ARC
  5
2706D
  8
0
 10
3130.9770167191691144
 20
167.0025975817025881
 30
0.0
 40
0.0669970766585589
 50
246.3308897016410128
 51
332.4315603757933104
  0
ARC
  5
2706E
  8
0
 10
3130.9974614858729183
 20
166.9919236513601959
 30
0.0
 40
0.0439336581229258
 50
332.4315603757933104
 51
358.8488007310261878
  0
LINE
  5
2706F
  8
0
 10
3131.0413862763471116
 20
166.9910409861327025
 30
0.0
 11
3131.0415473195639606
 21
167.0186825719198112
 31
0.0
  0
ARC
  5
27070
  8
0
 10
3130.974842137135056
 20
167.0199257014205045
 30
0.0
 40
0.0612510676823524
 50
87.0072128386655663
 51
179.3927846156589965
  0
ARC
  5
27071
  8
0
 10
3130.97453271748509
 20
167.0140073675206054
 30
0.0
 40
0.067177484531506
 50
3.9907148924118698
 51
87.0072128386655663
  0
ARC
  5
27072
  8
0
 10
3131.3747974765610707
 20
167.14493990196749
 30
0.0
 40
0.0220238406618899
 50
82.725038174921977
 51
281.2287278120618907
  0
ARC
  5
27073
  8
0
 10
3131.3784683922781369
 20
167.1450666102871878
 30
0.0
 40
0.0217377389120819
 50
271.6283436917099721
 51
92.3254222952735546
  0
LINE
  5
27074
  8
0
 10
3131.3125077421609603
 20
167.1803370116055021
 30
0.0
 11
3131.3125411120608987
 21
167.1541917697055055
 31
0.0
  0
ARC
  5
27075
  8
0
 10
3131.3735511268500886
 20
167.1569327076853142
 30
0.0
 40
0.0610715534888087
 50
182.5723424233133017
 51
246.3308897016410128
  0
ARC
  5
27076
  8
0
 10
3131.3759299521830144
 20
167.1623597708754119
 30
0.0
 40
0.0669970766585589
 50
246.3308897016410128
 51
332.4315603757933104
  0
ARC
  5
27077
  8
0
 10
3131.3963747188881825
 20
167.1516858405329913
 30
0.0
 40
0.0439336581229258
 50
332.4315603757933104
 51
358.8488007310261878
  0
LINE
  5
27078
  8
0
 10
3131.4402995093619211
 20
167.1508031753054979
 30
0.0
 11
3131.4404605525792249
 21
167.1784447610926918
 31
0.0
  0
ARC
  5
27079
  8
0
 10
3131.373755370148956
 20
167.1796878905934136
 30
0.0
 40
0.0612510676823524
 50
87.0072128386655663
 51
179.3927846156589965
  0
ARC
  5
2707A
  8
0
 10
3131.3734459504998995
 20
167.173769556693486
 30
0.0
 40
0.067177484531506
 50
3.9907148924118698
 51
87.0072128386655663
  0
ARC
  5
2707B
  8
0
 10
3130.6316681741209322
 20
166.7577050620213868
 30
0.0
 40
0.0220238406618899
 50
82.725038174921977
 51
281.2287278120618907
  0
ARC
  5
2707C
  8
0
 10
3130.635339089838908
 20
166.757831770341113
 30
0.0
 40
0.0217377389120819
 50
271.6283436917099721
 51
92.3254222952735546
  0
LINE
  5
2707D
  8
0
 10
3130.5693784397221862
 20
166.7931021716593989
 30
0.0
 11
3130.5694118096221246
 21
166.7669569297594023
 31
0.0
  0
ARC
  5
2707E
  8
0
 10
3130.6304218244099502
 20
166.769697867739211
 30
0.0
 40
0.0610715534888087
 50
182.5723424233133017
 51
246.3308897016410128
  0
ARC
  5
2707F
  8
0
 10
3130.6328006497437855
 20
166.7751249309293087
 30
0.0
 40
0.0669970766585589
 50
246.3308897016410128
 51
332.4315603757933104
  0
ARC
  5
27080
  8
0
 10
3130.6532454164489536
 20
166.7644510005868881
 30
0.0
 40
0.0439336581229258
 50
332.4315603757933104
 51
358.8488007310261878
  0
LINE
  5
27081
  8
0
 10
3130.6971702069217827
 20
166.7635683353593947
 30
0.0
 11
3130.6973312501390865
 21
166.7912099211465033
 31
0.0
  0
ARC
  5
27082
  8
0
 10
3130.6306260677101818
 20
166.7924530506473104
 30
0.0
 40
0.0612510676823524
 50
87.0072128386655663
 51
179.3927846156589965
  0
ARC
  5
27083
  8
0
 10
3130.6303166480611253
 20
166.7865347167474113
 30
0.0
 40
0.067177484531506
 50
3.9907148924118698
 51
87.0072128386655663
  0
ARC
  5
27084
  8
0
 10
3130.3547592350528248
 20
166.472232755127294
 30
0.0
 40
0.0220238406618899
 50
82.725038174921977
 51
281.2287278120618907
  0
ARC
  5
27085
  8
0
 10
3130.3584301507689815
 20
166.4723594634469919
 30
0.0
 40
0.0217377389120819
 50
271.6283436917099721
 51
92.3254222952735546
  0
LINE
  5
27086
  8
0
 10
3130.2924695006531692
 20
166.5076298647653061
 30
0.0
 11
3130.2925028705531076
 21
166.4814846228653096
 31
0.0
  0
ARC
  5
27087
  8
0
 10
3130.3535128853418428
 20
166.4842255608450046
 30
0.0
 40
0.0610715534888087
 50
182.5723424233133017
 51
246.3308897016410128
  0
ARC
  5
27088
  8
0
 10
3130.3558917106752233
 20
166.4896526240351875
 30
0.0
 40
0.0669970766585589
 50
246.3308897016410128
 51
332.4315603757933104
  0
ARC
  5
27089
  8
0
 10
3130.3763364773799367
 20
166.4789786936927953
 30
0.0
 40
0.0439336581229258
 50
332.4315603757933104
 51
358.8488007310261878
  0
LINE
  5
2708A
  8
0
 10
3130.4202612678532205
 20
166.478096028465302
 30
0.0
 11
3130.4204223110700696
 21
166.5057376142524106
 31
0.0
  0
ARC
  5
2708B
  8
0
 10
3130.3537171286411649
 20
166.506980743753104
 30
0.0
 40
0.0612510676823524
 50
87.0072128386655663
 51
179.3927846156589965
  0
ARC
  5
2708C
  8
0
 10
3130.3534077089921084
 20
166.5010624098532048
 30
0.0
 40
0.067177484531506
 50
3.9907148924118698
 51
87.0072128386655663
  0
ARC
  5
2708D
  8
0
 10
3130.1627988262448525
 20
166.1451108176889875
 30
0.0
 40
0.0220238406618899
 50
82.725038174921977
 51
281.2287278120618907
  0
ARC
  5
2708E
  8
0
 10
3130.1664697419619188
 20
166.1452375260087138
 30
0.0
 40
0.0217377389120819
 50
271.6283436917099721
 51
92.3254222952735546
  0
LINE
  5
2708F
  8
0
 10
3130.100509091845197
 20
166.1805079273269996
 30
0.0
 11
3130.1005424617451354
 21
166.154362685427003
 31
0.0
  0
ARC
  5
27090
  8
0
 10
3130.1615524765338705
 20
166.1571036234068117
 30
0.0
 40
0.0610715534888087
 50
182.5723424233133017
 51
246.3308897016410128
  0
ARC
  5
27091
  8
0
 10
3130.1639313018667963
 20
166.1625306865969094
 30
0.0
 40
0.0669970766585589
 50
246.3308897016410128
 51
332.4315603757933104
  0
ARC
  5
27092
  8
0
 10
3130.1843760685719644
 20
166.1518567562544888
 30
0.0
 40
0.0439336581229258
 50
332.4315603757933104
 51
358.8488007310261878
  0
LINE
  5
27093
  8
0
 10
3130.2283008590447935
 20
166.1509740910269954
 30
0.0
 11
3130.2284619022630068
 21
166.1786156768141041
 31
0.0
  0
ARC
  5
27094
  8
0
 10
3130.1617567198331926
 20
166.1798588063149111
 30
0.0
 40
0.0612510676823524
 50
87.0072128386655663
 51
179.3927846156589965
  0
ARC
  5
27095
  8
0
 10
3130.1614473001841361
 20
166.173940472415012
 30
0.0
 40
0.067177484531506
 50
3.9907148924118698
 51
87.0072128386655663
  0
ARC
  5
27096
  8
0
 10
3130.0647581994830944
 20
165.7903429782766125
 30
0.0
 40
0.0220238406618899
 50
82.725038174921977
 51
281.2287278120618907
  0
ARC
  5
27097
  8
0
 10
3130.0684291152001606
 20
165.7904696865963103
 30
0.0
 40
0.0217377389120819
 50
271.6283436917099721
 51
92.3254222952735546
  0
LINE
  5
27098
  8
0
 10
3130.0024684650838935
 20
165.8257400879145962
 30
0.0
 11
3130.0025018349829224
 21
165.7995948460145996
 31
0.0
  0
ARC
  5
27099
  8
0
 10
3130.0635118497730218
 20
165.8023357839944083
 30
0.0
 40
0.0610715534888087
 50
182.5723424233133017
 51
246.3308897016410128
  0
ARC
  5
2709A
  8
0
 10
3130.0658906751059476
 20
165.807762847184506
 30
0.0
 40
0.0669970766585589
 50
246.3308897016410128
 51
332.4315603757933104
  0
ARC
  5
2709B
  8
0
 10
3130.0863354418102062
 20
165.7970889168421138
 30
0.0
 40
0.0439336581229258
 50
332.4315603757933104
 51
358.8488007310261878
  0
LINE
  5
2709C
  8
0
 10
3130.1302602322839448
 20
165.796206251614592
 30
0.0
 11
3130.1304212755007939
 21
165.8238478374017859
 31
0.0
  0
ARC
  5
2709D
  8
0
 10
3130.0637160930718892
 20
165.8250909669025077
 30
0.0
 40
0.0612510676823524
 50
87.0072128386655663
 51
179.3927846156589965
  0
ARC
  5
2709E
  8
0
 10
3130.0634066734219232
 20
165.8191726330026086
 30
0.0
 40
0.067177484531506
 50
3.9907148924118698
 51
87.0072128386655663
  0
ARC
  5
2709F
  8
0
 10
3132.0327145448200099
 20
165.1733383283954879
 30
0.0
 40
2.900901115062295
 50
62.1982059589807577
 51
90.1020527727375367
  0
ARC
  5
270A0
  8
0
 10
3124.8608418140538561
 20
166.1072405597300019
 30
0.0
 40
9.6437497583084841
 50
358.4766506058085724
 51
359.1157514054629019
  0
ARC
  5
270A1
  8
0
 10
3132.3912573247930595
 20
165.8740473901501105
 30
0.0
 40
2.1138700487285909
 50
2.2873378541705058
 51
61.9362147665524603
  0
ARC
  5
270A2
  8
0
 10
3132.5006018360550115
 20
165.815874923958404
 30
0.0
 40
2.000887401957304
 50
301.4044717075472022
 51
1.002082292387765
  0
ARC
  5
270A3
  8
0
 10
3156.4891988847271023
 20
135.3794913553140873
 30
0.0
 40
36.7675249881581578
 50
128.6149034368222033
 51
129.645799424189903
  0
ARC
  5
270A4
  8
0
 10
3133.7130475469120938
 20
162.8346528797621886
 30
0.0
 40
1.0950535540491551
 50
128.5871182380946891
 51
158.1243437148195881
  0
ARC
  5
270A5
  8
0
 10
3133.5644145730930177
 20
162.9086108200991987
 30
0.0
 40
0.9296611689740297
 50
158.9411577215275884
 51
178.412787072486708
  0
ARC
  5
270A6
  8
0
 10
1682.5127527510480832
 20
199.722066090298398
 30
0.0
 40
1450.5889102390149219
 50
358.4259184852401745
 51
358.5467928066466925
  0
ARC
  5
270A7
  8
0
 10
3131.8802816740872004
 20
163.9438783906246044
 30
0.0
 40
4.1416778857876828
 50
272.0376993396366743
 51
278.9695196389461103
  0
ARC
  5
270A8
  8
0
 10
3131.9515585512817779
 20
163.4723334745634986
 30
0.0
 40
0.7118909310061742
 50
299.6296981166374849
 51
338.8202600510801972
  0
ARC
  5
270A9
  8
0
 10
3132.0260189523819463
 20
163.3413300391279108
 30
0.0
 40
0.5612050024803898
 50
270.1560649855281895
 51
299.6341132061402277
  0
ARC
  5
270AA
  8
0
 10
3133.7014319042918942
 20
162.7969735406456948
 30
0.0
 40
1.1637880270483849
 50
127.1575645766057931
 51
158.9423465309853896
  0
ARC
  5
270AB
  8
0
 10
3125.6560981368679677
 20
173.4126262973585142
 30
0.0
 40
12.1561023208619297
 50
307.1575645766058074
 51
311.3615980630838749
  0
ARC
  5
270AC
  8
0
 10
3132.5659950418480548
 20
165.7674519414287886
 30
0.0
 40
1.8567232264051921
 50
307.215158440334676
 51
354.6369329590111192
  0
ARC
  5
270AD
  8
0
 10
3132.7205312702408264
 20
165.7094035639929075
 30
0.0
 40
1.6979913750768889
 50
356.099872655269678
 51
37.9442827459429424
  0
ARC
  5
270AE
  8
0
 10
3132.2573711464860935
 20
165.340032751952009
 30
0.0
 40
2.290377084417611
 50
38.1067456933904367
 51
67.9421119083465044
  0
ARC
  5
270AF
  8
0
 10
3132.0350746713302215
 20
164.8507928000404945
 30
0.0
 40
2.827376895197236
 50
67.490312309678302
 51
90.1525338358700736
  0
ARC
  5
270B0
  8
0
 10
3132.0435457960379608
 20
164.9242695956770888
 30
0.0
 40
2.8519181337222692
 50
55.9563939877890704
 51
90.3214098693864145
  0
ARC
  5
270B1
  8
0
 10
3132.5238016119369604
 20
165.6419463297021935
 30
0.0
 40
1.9883878570971609
 50
6.0312485174214157
 51
55.8461230648807927
  0
ARC
  5
270B2
  8
0
 10
3132.2500669027290314
 20
167.2255102589633111
 30
0.0
 40
0.0220238406618899
 50
258.7712721879382229
 51
97.2749618250780088
  0
ARC
  5
270B3
  8
0
 10
3132.2463959870119652
 20
167.225636967283009
 30
0.0
 40
0.0217377389120819
 50
87.6745777047264454
 51
268.3716563082900279
  0
LINE
  5
270B4
  8
0
 10
3132.3123566371277775
 20
167.2609073686012948
 30
0.0
 11
3132.3123232672292033
 21
167.2347621267012983
 31
0.0
  0
ARC
  5
270B5
  8
0
 10
3132.251313252439104
 20
167.2375030646811069
 30
0.0
 40
0.0610715534888087
 50
293.6691102983589872
 51
357.4276575766850783
  0
ARC
  5
270B6
  8
0
 10
3132.2489344271061782
 20
167.2429301278712046
 30
0.0
 40
0.0669970766585589
 50
207.5684396242066896
 51
293.6691102983589872
  0
ARC
  5
270B7
  8
0
 10
3132.2284896604019195
 20
167.2322561975288124
 30
0.0
 40
0.0439336581229258
 50
181.1511992689738122
 51
207.5684396242052117
  0
LINE
  5
270B8
  8
0
 10
3132.1845648699290905
 20
167.2313735323012907
 30
0.0
 11
3132.1844038267108772
 21
167.2590151180883993
 31
0.0
  0
ARC
  5
270B9
  8
0
 10
3132.2511090091397818
 20
167.2602582475890927
 30
0.0
 40
0.0612510676823524
 50
0.6072153843393322
 51
92.9927871613344337
  0
ARC
  5
270BA
  8
0
 10
3132.2514184287902026
 20
167.2543399136891935
 30
0.0
 40
0.067177484531506
 50
92.9927871613344337
 51
176.0092851075881129
  0
ARC
  5
270BB
  8
0
 10
3132.5765818206868971
 20
166.3416828189301953
 30
0.0
 40
0.177882960600706
 50
97.0528380313159857
 51
160.6470656535234127
  0
ARC
  5
270BC
  8
0
 10
3132.5785741782719924
 20
166.3255791556645136
 30
0.0
 40
0.194109403813036
 50
39.3739457143404223
 51
97.0528380313159857
  0
ARC
  5
270BD
  8
0
 10
3132.6474258757070857
 20
166.3820821632797902
 30
0.0
 40
0.1050411933834529
 50
358.082317125933514
 51
39.3739457143404223
  0
ARC
  5
270BE
  8
0
 10
3132.5684766807380583
 20
166.3847255705252053
 30
0.0
 40
0.1840346297445655
 50
322.6823091169069926
 51
358.082317125933514
  0
ARC
  5
270BF
  8
0
 10
3132.5771445976738505
 20
166.3979368564070001
 30
0.0
 40
0.1858199503913451
 50
282.198290703030807
 51
317.8165442683928745
  0
ARC
  5
270C0
  8
0
 10
3132.5732183495429126
 20
166.4051204313720973
 30
0.0
 40
0.1936848272965836
 50
245.0779664027602962
 51
282.884532997165195
  0
ARC
  5
270C1
  8
0
 10
3132.5546335320718754
 20
166.3689966518234939
 30
0.0
 40
0.1531021657744578
 50
197.4528249694809858
 51
245.6888122857178018
  0
ARC
  5
270C2
  8
0
 10
3132.5816058184150279
 20
166.3614741392752876
 30
0.0
 40
0.1772352702222621
 50
167.2363207404316938
 51
192.5116637097858074
  0
ARC
  5
270C3
  8
0
 10
3132.5446353436309437
 20
166.3053332079556128
 30
0.0
 40
0.0038103401713618
 50
78.2614028354619649
 51
175.1475849562438896
  0
ARC
  5
270C4
  8
0
 10
3139.0072661638259888
 20
166.353544223476689
 30
0.0
 40
6.466604826975539
 50
180.4243100686472019
 51
180.6252560312908884
  0
ARC
  5
270C5
  8
0
 10
3132.544496796966996
 20
166.2833367930385009
 30
0.0
 40
0.0034691210502517
 50
185.9528327367204952
 51
249.0726582816467953
  0
ARC
  5
270C6
  8
0
 10
3132.0852673446288463
 20
165.4605863980015101
 30
0.0
 40
0.9388034847996898
 50
55.9060574373071901
 51
60.800979472042691
  0
ARC
  5
270C7
  8
0
 10
3132.5803149834491705
 20
166.5210841587569917
 30
0.0
 40
0.214874213121645
 50
260.6513758203897737
 51
323.0387517281230885
  0
ARC
  5
270C8
  8
0
 10
3132.5800842669691519
 20
166.4992130110742039
 30
0.0
 40
0.2158231363875009
 50
260.7432317929985857
 51
322.2121125384692277
  0
ARC
  5
270C9
  8
0
 10
3132.5446337247221891
 20
166.2826760123473946
 30
0.0
 40
0.0035999476005692
 50
78.2448794467513125
 51
175.2037806736036032
  0
ARC
  5
270CA
  8
0
 10
3132.584888850949028
 20
166.40631155415781
 30
0.0
 40
0.1703769867345041
 50
278.9909136541323278
 51
349.130384693290523
  0
ARC
  5
270CB
  8
0
 10
3132.5705247298801623
 20
166.4061131727619909
 30
0.0
 40
0.1730110939482651
 50
196.2312180299479962
 51
283.7049903024575883
  0
LINE
  5
270CC
  8
0
 10
3132.4411334813980829
 20
166.3346753019052073
 30
0.0
 11
3132.4413409860280808
 21
166.3573613156013096
 31
0.0
  0
ARC
  5
270CD
  8
0
 10
3132.4375419196771873
 20
166.3350572532073954
 30
0.0
 40
0.0036118142803375
 50
261.4894507754132178
 51
353.9295900402427151
  0
ARC
  5
270CE
  8
0
 10
3131.1951955721688137
 20
163.173103097547795
 30
0.0
 40
3.3937404420817701
 50
68.5362536862964191
 51
69.0287284150380742
  0
ARC
  5
270CF
  8
0
 10
3132.5555537775589983
 20
166.4810887859910054
 30
0.0
 40
0.1674154665718183
 50
208.7292365225123945
 51
226.5366558328792053
  0
ARC
  5
270D0
  8
0
 10
3132.4382984663370735
 20
166.357366845098511
 30
0.0
 40
0.0030425247165697
 50
359.8958703524253906
 51
46.565156736277757
  0
ARC
  5
270D1
  8
0
 10
3133.130460343318191
 20
165.545394828890494
 30
0.0
 40
0.177882960600706
 50
97.0528380313159857
 51
160.6470656535234127
  0
ARC
  5
270D2
  8
0
 10
3133.1324527009041958
 20
165.5292911656248123
 30
0.0
 40
0.194109403813036
 50
39.3739457143404223
 51
97.0528380313159857
  0
ARC
  5
270D3
  8
0
 10
3133.2013043983379248
 20
165.5857941732400889
 30
0.0
 40
0.1050411933834529
 50
358.082317125933514
 51
39.3739457143404223
  0
ARC
  5
270D4
  8
0
 10
3133.1223552033688975
 20
165.588437580485504
 30
0.0
 40
0.1840346297445655
 50
322.6823091169069926
 51
358.082317125933514
  0
ARC
  5
270D5
  8
0
 10
3133.1310231203051444
 20
165.6016488663672988
 30
0.0
 40
0.1858199503913451
 50
282.198290703030807
 51
317.8165442683928745
  0
ARC
  5
270D6
  8
0
 10
3133.1270968721742065
 20
165.608832441332396
 30
0.0
 40
0.1936848272965836
 50
245.0779664027602962
 51
282.884532997165195
  0
ARC
  5
270D7
  8
0
 10
3133.1085120547040788
 20
165.5727086617837926
 30
0.0
 40
0.1531021657744578
 50
197.4528249694809858
 51
245.6888122857178018
  0
ARC
  5
270D8
  8
0
 10
3133.1354843410467765
 20
165.5651861492355863
 30
0.0
 40
0.1772352702222621
 50
167.2363207404316938
 51
192.5116637097858074
  0
ARC
  5
270D9
  8
0
 10
3133.0985138662617828
 20
165.5090452179159115
 30
0.0
 40
0.0038103401713618
 50
78.2614028354619649
 51
175.1475849562438896
  0
ARC
  5
270DA
  8
0
 10
3139.5611446864568279
 20
165.5572562334369877
 30
0.0
 40
6.466604826975539
 50
180.4243100686472019
 51
180.6252560312908884
  0
ARC
  5
270DB
  8
0
 10
3133.0983753195978352
 20
165.4870488029986859
 30
0.0
 40
0.0034691210502517
 50
185.9528327367204952
 51
249.0726582816467953
  0
ARC
  5
270DC
  8
0
 10
3132.6391458672601402
 20
164.6642984079618088
 30
0.0
 40
0.9388034847996898
 50
55.9060574373071901
 51
60.800979472042691
  0
ARC
  5
270DD
  8
0
 10
3133.1341935060809192
 20
165.7247961687172904
 30
0.0
 40
0.214874213121645
 50
260.6513758203897737
 51
323.0387517281230885
  0
ARC
  5
270DE
  8
0
 10
3133.1339627896009006
 20
165.7029250210345026
 30
0.0
 40
0.2158231363875009
 50
260.7432317929985857
 51
322.2121125384692277
  0
ARC
  5
270DF
  8
0
 10
3133.0985122473530282
 20
165.486388022307608
 30
0.0
 40
0.0035999476005692
 50
78.2448794467513125
 51
175.2037806736036032
  0
ARC
  5
270E0
  8
0
 10
3133.1387673735798671
 20
165.6100235641181087
 30
0.0
 40
0.1703769867345041
 50
278.9909136541323278
 51
349.130384693290523
  0
ARC
  5
270E1
  8
0
 10
3133.124403252511911
 20
165.6098251827222896
 30
0.0
 40
0.1730110939482651
 50
196.2312180299479962
 51
283.7049903024575883
  0
LINE
  5
270E2
  8
0
 10
3132.9950120040289221
 20
165.538387311865506
 30
0.0
 11
3132.9952195086598294
 21
165.5610733255616083
 31
0.0
  0
ARC
  5
270E3
  8
0
 10
3132.9914204423080264
 20
165.5387692631676941
 30
0.0
 40
0.0036118142803375
 50
261.4894507754132178
 51
353.9295900402427151
  0
ARC
  5
270E4
  8
0
 10
3131.7490740948010171
 20
162.3768151075080937
 30
0.0
 40
3.3937404420817701
 50
68.5362536862964191
 51
69.0287284150380742
  0
ARC
  5
270E5
  8
0
 10
3133.1094323001898374
 20
165.6848007959511904
 30
0.0
 40
0.1674154665718183
 50
208.7292365225123945
 51
226.5366558328792053
  0
ARC
  5
270E6
  8
0
 10
3132.9921769889679126
 20
165.5610788550588097
 30
0.0
 40
0.0030425247165697
 50
359.8958703524253906
 51
46.565156736277757
  0
ARC
  5
270E7
  8
0
 10
3132.5788844267008244
 20
164.738345158244897
 30
0.0
 40
0.177882960600706
 50
97.0528380313159857
 51
160.6470656535234127
  0
ARC
  5
270E8
  8
0
 10
3132.5808767842859197
 20
164.7222414949791869
 30
0.0
 40
0.194109403813036
 50
39.3739457143404223
 51
97.0528380313159857
  0
ARC
  5
270E9
  8
0
 10
3132.6497284817201034
 20
164.7787445025944066
 30
0.0
 40
0.1050411933834529
 50
358.082317125933514
 51
39.3739457143404223
  0
ARC
  5
270EA
  8
0
 10
3132.5707792867510761
 20
164.7813879098397933
 30
0.0
 40
0.1840346297445655
 50
322.6823091169069926
 51
358.082317125933514
  0
ARC
  5
270EB
  8
0
 10
3132.5794472036868683
 20
164.7945991957217018
 30
0.0
 40
0.1858199503913451
 50
282.198290703030807
 51
317.8165442683928745
  0
ARC
  5
270EC
  8
0
 10
3132.5755209555559304
 20
164.8017827706867138
 30
0.0
 40
0.1936848272965836
 50
245.0779664027602962
 51
282.884532997165195
  0
ARC
  5
270ED
  8
0
 10
3132.5569361380858027
 20
164.7656589911381957
 30
0.0
 40
0.1531021657744578
 50
197.4528249694809858
 51
245.6888122857178018
  0
ARC
  5
270EE
  8
0
 10
3132.5839084244289552
 20
164.7581364785899893
 30
0.0
 40
0.1772352702222621
 50
167.2363207404316938
 51
192.5116637097858074
  0
ARC
  5
270EF
  8
0
 10
3132.546937949644871
 20
164.7019955472702861
 30
0.0
 40
0.0038103401713618
 50
78.2614028354619649
 51
175.1475849562438896
  0
ARC
  5
270F0
  8
0
 10
3139.0095687698390066
 20
164.7502065627913908
 30
0.0
 40
6.466604826975539
 50
180.4243100686472019
 51
180.6252560312908884
  0
ARC
  5
270F1
  8
0
 10
3132.5467994029800138
 20
164.679999132353089
 30
0.0
 40
0.0034691210502517
 50
185.9528327367204952
 51
249.0726582816467953
  0
ARC
  5
270F2
  8
0
 10
3132.0875699506418641
 20
163.8572487373162119
 30
0.0
 40
0.9388034847996898
 50
55.9060574373071901
 51
60.800979472042691
  0
ARC
  5
270F3
  8
0
 10
3132.5826175894630978
 20
164.9177464980716934
 30
0.0
 40
0.214874213121645
 50
260.6513758203897737
 51
323.0387517281230885
  0
ARC
  5
270F4
  8
0
 10
3132.5823868729830792
 20
164.8958753503889056
 30
0.0
 40
0.2158231363875009
 50
260.7432317929985857
 51
322.2121125384692277
  0
ARC
  5
270F5
  8
0
 10
3132.5469363307352069
 20
164.6793383516620111
 30
0.0
 40
0.0035999476005692
 50
78.2448794467513125
 51
175.2037806736036032
  0
ARC
  5
270F6
  8
0
 10
3132.5871914569620458
 20
164.8029738934725117
 30
0.0
 40
0.1703769867345041
 50
278.9909136541323278
 51
349.130384693290523
  0
ARC
  5
270F7
  8
0
 10
3132.5728273358940896
 20
164.8027755120766074
 30
0.0
 40
0.1730110939482651
 50
196.2312180299479962
 51
283.7049903024575883
  0
LINE
  5
270F8
  8
0
 10
3132.4434360874111007
 20
164.7313376412199091
 30
0.0
 11
3132.4436435920420081
 21
164.7540236549160113
 31
0.0
  0
ARC
  5
270F9
  8
0
 10
3132.439844525690205
 20
164.7317195925220972
 30
0.0
 40
0.0036118142803375
 50
261.4894507754132178
 51
353.9295900402427151
  0
ARC
  5
270FA
  8
0
 10
3131.1974981781818315
 20
161.5697654368624967
 30
0.0
 40
3.3937404420817701
 50
68.5362536862964191
 51
69.0287284150380742
  0
ARC
  5
270FB
  8
0
 10
3132.5578563835720161
 20
164.8777511253055934
 30
0.0
 40
0.1674154665718183
 50
208.7292365225123945
 51
226.5366558328792053
  0
ARC
  5
270FC
  8
0
 10
3132.4406010723500913
 20
164.7540291844132128
 30
0.0
 40
0.0030425247165697
 50
359.8958703524253906
 51
46.565156736277757
  0
ARC
  5
270FD
  8
0
 10
3132.1163786565139162
 20
165.7113409275470985
 30
0.0
 40
0.9313767988639604
 50
46.9655178888720002
 51
60.2161587691008222
  0
ARC
  5
270FE
  8
0
 10
3132.2989630975521322
 20
166.8221789514691125
 30
0.0
 40
0.0220238406618899
 50
258.7712721879382229
 51
97.2749618250780088
  0
ARC
  5
270FF
  8
0
 10
3132.295292181835066
 20
166.8223056597886966
 30
0.0
 40
0.0217377389120819
 50
87.6745777047264454
 51
268.3716563082900279
  0
LINE
  5
27100
  8
0
 10
3132.3612528319517878
 20
166.8575760611070109
 30
0.0
 11
3132.3612194620518494
 21
166.8314308192070996
 31
0.0
  0
ARC
  5
27101
  8
0
 10
3132.3002094472631143
 20
166.8341717571867946
 30
0.0
 40
0.0610715534888087
 50
293.6691102983589872
 51
357.4276575766850783
  0
ARC
  5
27102
  8
0
 10
3132.2978306219301885
 20
166.8395988203768923
 30
0.0
 40
0.0669970766585589
 50
207.5684396242066896
 51
293.6691102983589872
  0
ARC
  5
27103
  8
0
 10
3132.2773858552259298
 20
166.8289248900345001
 30
0.0
 40
0.0439336581229258
 50
181.1511992689738122
 51
207.5684396242052117
  0
LINE
  5
27104
  8
0
 10
3132.2334610647521913
 20
166.8280422248070067
 30
0.0
 11
3132.233300021533978
 21
166.8556838105942006
 31
0.0
  0
ARC
  5
27105
  8
0
 10
3132.3000052039637922
 20
166.856926940094894
 30
0.0
 40
0.0612510676823524
 50
0.6072153843393322
 51
92.9927871613344337
  0
ARC
  5
27106
  8
0
 10
3132.3003146236128487
 20
166.8510086061949949
 30
0.0
 40
0.067177484531506
 50
92.9927871613344337
 51
176.0092851075881129
  0
ARC
  5
27107
  8
0
 10
3132.183408425908965
 20
166.436852621851898
 30
0.0
 40
0.0220238406618899
 50
258.7712721879382229
 51
97.2749618250780088
  0
ARC
  5
27108
  8
0
 10
3132.1797375101928083
 20
166.4369793301715106
 30
0.0
 40
0.0217377389120819
 50
87.6745777047264454
 51
268.3716563082900279
  0
LINE
  5
27109
  8
0
 10
3132.2456981603090753
 20
166.4722497314897964
 30
0.0
 11
3132.2456647904100464
 21
166.4461044895897999
 31
0.0
  0
ARC
  5
2710A
  8
0
 10
3132.1846547756208565
 20
166.4488454275696085
 30
0.0
 40
0.0610715534888087
 50
293.6691102983589872
 51
357.4276575766850783
  0
ARC
  5
2710B
  8
0
 10
3132.1822759502879308
 20
166.4542724907597062
 30
0.0
 40
0.0669970766585589
 50
207.5684396242066896
 51
293.6691102983589872
  0
ARC
  5
2710C
  8
0
 10
3132.1618311835832174
 20
166.443598560417314
 30
0.0
 40
0.0439336581229258
 50
181.1511992689738122
 51
207.5684396242052117
  0
LINE
  5
2710D
  8
0
 10
3132.1179063931090241
 20
166.4427158951897923
 30
0.0
 11
3132.117745349892175
 21
166.4703574809769862
 31
0.0
  0
ARC
  5
2710E
  8
0
 10
3132.1844505323219892
 20
166.471600610477708
 30
0.0
 40
0.0612510676823524
 50
0.6072153843393322
 51
92.9927871613344337
  0
ARC
  5
2710F
  8
0
 10
3132.1847599519710457
 20
166.4656822765778088
 30
0.0
 40
0.067177484531506
 50
92.9927871613344337
 51
176.0092851075881129
  0
ARC
  5
27110
  8
0
 10
3132.8015233074352182
 20
166.6688937181770029
 30
0.0
 40
0.0220238406618899
 50
258.7712721879382229
 51
97.2749618250780088
  0
ARC
  5
27111
  8
0
 10
3132.7978523917181519
 20
166.6690204264965871
 30
0.0
 40
0.0217377389120819
 50
87.6745777047264454
 51
268.3716563082900279
  0
LINE
  5
27112
  8
0
 10
3132.8638130418348737
 20
166.7042908278149866
 30
0.0
 11
3132.8637796719349353
 21
166.6781455859149901
 31
0.0
  0
ARC
  5
27113
  8
0
 10
3132.8027696571471097
 20
166.6808865238947135
 30
0.0
 40
0.0610715534888087
 50
293.6691102983589872
 51
357.4276575766850783
  0
ARC
  5
27114
  8
0
 10
3132.8003908318128197
 20
166.6863135870848112
 30
0.0
 40
0.0669970766585589
 50
207.5684396242066896
 51
293.6691102983589872
  0
ARC
  5
27115
  8
0
 10
3132.7799460651090158
 20
166.6756396567425043
 30
0.0
 40
0.0439336581229258
 50
181.1511992689738122
 51
207.5684396242052117
  0
LINE
  5
27116
  8
0
 10
3132.7360212746348225
 20
166.6747569915150109
 30
0.0
 11
3132.7358602314179734
 21
166.7023985773020911
 31
0.0
  0
ARC
  5
27117
  8
0
 10
3132.8025654138468781
 20
166.7036417068028129
 30
0.0
 40
0.0612510676823524
 50
0.6072153843393322
 51
92.9927871613344337
  0
ARC
  5
27118
  8
0
 10
3132.8028748334968441
 20
166.6977233729029138
 30
0.0
 40
0.067177484531506
 50
92.9927871613344337
 51
176.0092851075881129
  0
ARC
  5
27119
  8
0
 10
3132.900466335512192
 20
166.0947920308119876
 30
0.0
 40
0.0220238406618899
 50
258.7712721879382229
 51
97.2749618250780088
  0
ARC
  5
2711A
  8
0
 10
3132.8967954197951258
 20
166.0949187391317139
 30
0.0
 40
0.0217377389120819
 50
87.6745777047264454
 51
268.3716563082900279
  0
LINE
  5
2711B
  8
0
 10
3132.9627560699118476
 20
166.1301891404499997
 30
0.0
 11
3132.9627227000119092
 21
166.1040438985500032
 31
0.0
  0
ARC
  5
2711C
  8
0
 10
3132.901712685223174
 20
166.1067848365296982
 30
0.0
 40
0.0610715534888087
 50
293.6691102983589872
 51
357.4276575766850783
  0
ARC
  5
2711D
  8
0
 10
3132.8993338598897935
 20
166.1122118997197958
 30
0.0
 40
0.0669970766585589
 50
207.5684396242066896
 51
293.6691102983589872
  0
ARC
  5
2711E
  8
0
 10
3132.8788890931859896
 20
166.1015379693774889
 30
0.0
 40
0.0439336581229258
 50
181.1511992689738122
 51
207.5684396242052117
  0
LINE
  5
2711F
  8
0
 10
3132.8349643027117963
 20
166.1006553041499956
 30
0.0
 11
3132.8348032594949473
 21
166.1282968899371042
 31
0.0
  0
ARC
  5
27120
  8
0
 10
3132.9015084419238519
 20
166.1295400194377976
 30
0.0
 40
0.0612510676823524
 50
0.6072153843393322
 51
92.9927871613344337
  0
ARC
  5
27121
  8
0
 10
3132.9018178615729084
 20
166.1236216855378984
 30
0.0
 40
0.067177484531506
 50
92.9927871613344337
 51
176.0092851075881129
  0
ARC
  5
27122
  8
0
 10
3133.0486777716450888
 20
165.8688071057815989
 30
0.0
 40
0.0220238406618899
 50
258.7712721879382229
 51
97.2749618250780088
  0
ARC
  5
27123
  8
0
 10
3133.0450068559280226
 20
165.8689338141012968
 30
0.0
 40
0.0217377389120819
 50
87.6745777047264454
 51
268.3716563082900279
  0
LINE
  5
27124
  8
0
 10
3133.1109675060451991
 20
165.904204215419611
 30
0.0
 11
3133.110934136144806
 21
165.8780589735195861
 31
0.0
  0
ARC
  5
27125
  8
0
 10
3133.0499241213560708
 20
165.8807999114993947
 30
0.0
 40
0.0610715534888087
 50
293.6691102983589872
 51
357.4276575766850783
  0
ARC
  5
27126
  8
0
 10
3133.0475452960231451
 20
165.8862269746894924
 30
0.0
 40
0.0669970766585589
 50
207.5684396242066896
 51
293.6691102983589872
  0
ARC
  5
27127
  8
0
 10
3133.0271005293179769
 20
165.8755530443471002
 30
0.0
 40
0.0439336581229258
 50
181.1511992689738122
 51
207.5684396242052117
  0
LINE
  5
27128
  8
0
 10
3132.9831757388451479
 20
165.8746703791196069
 30
0.0
 11
3132.983014695627844
 21
165.9023119649066871
 31
0.0
  0
ARC
  5
27129
  8
0
 10
3133.0497198780572035
 20
165.9035550944074089
 30
0.0
 40
0.0612510676823524
 50
0.6072153843393322
 51
92.9927871613344337
  0
ARC
  5
2712A
  8
0
 10
3133.0500292977058052
 20
165.897636760507595
 30
0.0
 40
0.067177484531506
 50
92.9927871613344337
 51
176.0092851075881129
  0
ARC
  5
2712B
  8
0
 10
3133.054387617912198
 20
165.178588914097503
 30
0.0
 40
0.0220238406618899
 50
258.7712721879382229
 51
97.2749618250780088
  0
ARC
  5
2712C
  8
0
 10
3133.0507167021951318
 20
165.1787156224172008
 30
0.0
 40
0.0217377389120819
 50
87.6745777047264454
 51
268.3716563082900279
  0
LINE
  5
2712D
  8
0
 10
3133.1166773523118536
 20
165.2139860237354867
 30
0.0
 11
3133.1166439824110057
 21
165.1878407818354901
 31
0.0
  0
ARC
  5
2712E
  8
0
 10
3133.0556339676218158
 20
165.1905817198152988
 30
0.0
 40
0.0610715534888087
 50
293.6691102983589872
 51
357.4276575766850783
  0
ARC
  5
2712F
  8
0
 10
3133.0532551422897996
 20
165.1960087830053965
 30
0.0
 40
0.0669970766585589
 50
207.5684396242066896
 51
293.6691102983589872
  0
ARC
  5
27130
  8
0
 10
3133.0328103755850861
 20
165.1853348526630043
 30
0.0
 40
0.0439336581229258
 50
181.1511992689738122
 51
207.5684396242052117
  0
LINE
  5
27131
  8
0
 10
3132.9888855851118024
 20
165.184452187435511
 30
0.0
 11
3132.9887245418940438
 21
165.2120937732227048
 31
0.0
  0
ARC
  5
27132
  8
0
 10
3133.055429724323858
 20
165.2133369027233982
 30
0.0
 40
0.0612510676823524
 50
0.6072153843393322
 51
92.9927871613344337
  0
ARC
  5
27133
  8
0
 10
3133.0557391439729145
 20
165.2074185688234991
 30
0.0
 40
0.067177484531506
 50
92.9927871613344337
 51
176.0092851075881129
  0
ARC
  5
27134
  8
0
 10
3132.8999732896318164
 20
164.9536896213311934
 30
0.0
 40
0.0220238406618899
 50
258.7712721879382229
 51
97.2749618250780088
  0
ARC
  5
27135
  8
0
 10
3132.896302373915205
 20
164.9538163296508912
 30
0.0
 40
0.0217377389120819
 50
87.6745777047264454
 51
268.3716563082900279
  0
LINE
  5
27136
  8
0
 10
3132.9622630240319268
 20
164.9890867309692055
 30
0.0
 11
3132.9622296541319884
 21
164.962941489069209
 31
0.0
  0
ARC
  5
27137
  8
0
 10
3132.9012196393427985
 20
164.9656824270489892
 30
0.0
 40
0.0610715534888087
 50
293.6691102983589872
 51
357.4276575766850783
  0
ARC
  5
27138
  8
0
 10
3132.8988408140098727
 20
164.9711094902390869
 30
0.0
 40
0.0669970766585589
 50
207.5684396242066896
 51
293.6691102983589872
  0
ARC
  5
27139
  8
0
 10
3132.8783960473060688
 20
164.9604355598968084
 30
0.0
 40
0.0439336581229258
 50
181.1511992689738122
 51
207.5684396242052117
  0
LINE
  5
2713A
  8
0
 10
3132.8344712568318755
 20
164.9595528946692866
 30
0.0
 11
3132.8343102136150264
 21
164.9871944804563952
 31
0.0
  0
ARC
  5
2713B
  8
0
 10
3132.9010153960439311
 20
164.9884376099570886
 30
0.0
 40
0.0612510676823524
 50
0.6072153843393322
 51
92.9927871613344337
  0
ARC
  5
2713C
  8
0
 10
3132.9013248156938971
 20
164.9825192760571895
 30
0.0
 40
0.067177484531506
 50
92.9927871613344337
 51
176.0092851075881129
  0
ARC
  5
2713D
  8
0
 10
3132.18098231269596
 20
164.5974074974039922
 30
0.0
 40
0.0220238406618899
 50
258.7712721879382229
 51
97.2749618250780088
  0
ARC
  5
2713E
  8
0
 10
3132.1773113969798032
 20
164.5975342057236901
 30
0.0
 40
0.0217377389120819
 50
87.6745777047264454
 51
268.3716563082900279
  0
LINE
  5
2713F
  8
0
 10
3132.2432720470960703
 20
164.6328046070420044
 30
0.0
 11
3132.2432386771961319
 21
164.6066593651420078
 31
0.0
  0
ARC
  5
27140
  8
0
 10
3132.182228662406942
 20
164.6094003031217881
 30
0.0
 40
0.0610715534888087
 50
293.6691102983589872
 51
357.4276575766850783
  0
ARC
  5
27141
  8
0
 10
3132.1798498370740162
 20
164.6148273663119141
 30
0.0
 40
0.0669970766585589
 50
207.5684396242066896
 51
293.6691102983589872
  0
ARC
  5
27142
  8
0
 10
3132.1594050703702123
 20
164.6041534359694936
 30
0.0
 40
0.0439336581229258
 50
181.1511992689738122
 51
207.5684396242052117
  0
LINE
  5
27143
  8
0
 10
3132.1154802798960191
 20
164.6032707707420002
 30
0.0
 11
3132.11531923667917
 21
164.6309123565291088
 31
0.0
  0
ARC
  5
27144
  8
0
 10
3132.1820244191080747
 20
164.6321554860298022
 30
0.0
 40
0.0612510676823524
 50
0.6072153843393322
 51
92.9927871613344337
  0
ARC
  5
27145
  8
0
 10
3132.1823338387571312
 20
164.6262371521299883
 30
0.0
 40
0.067177484531506
 50
92.9927871613344337
 51
176.0092851075881129
  0
ARC
  5
27146
  8
0
 10
3132.2974430243689312
 20
164.2661614352207096
 30
0.0
 40
0.0220238406618899
 50
258.7712721879382229
 51
97.2749618250780088
  0
ARC
  5
27147
  8
0
 10
3132.293772108651865
 20
164.2662881435404074
 30
0.0
 40
0.0217377389120819
 50
87.6745777047264454
 51
268.3716563082900279
  0
LINE
  5
27148
  8
0
 10
3132.3597327587690415
 20
164.3015585448586933
 30
0.0
 11
3132.3596993888691031
 21
164.2754133029586967
 31
0.0
  0
ARC
  5
27149
  8
0
 10
3132.2986893740799133
 20
164.2781542409385054
 30
0.0
 40
0.0610715534888087
 50
293.6691102983589872
 51
357.4276575766850783
  0
ARC
  5
2714A
  8
0
 10
3132.2963105487469875
 20
164.2835813041286031
 30
0.0
 40
0.0669970766585589
 50
207.5684396242066896
 51
293.6691102983589872
  0
ARC
  5
2714B
  8
0
 10
3132.2758657820418193
 20
164.2729073737862961
 30
0.0
 40
0.0439336581229258
 50
181.1511992689738122
 51
207.5684396242052117
  0
LINE
  5
2714C
  8
0
 10
3132.2319409915689903
 20
164.2720247085586891
 30
0.0
 11
3132.2317799483521412
 21
164.2996662943459114
 31
0.0
  0
ARC
  5
2714D
  8
0
 10
3132.2984851307810459
 20
164.3009094238466048
 30
0.0
 40
0.0612510676823524
 50
0.6072153843393322
 51
92.9927871613344337
  0
ARC
  5
2714E
  8
0
 10
3132.2987945504301024
 20
164.2949910899467056
 30
0.0
 40
0.067177484531506
 50
92.9927871613344337
 51
176.0092851075881129
  0
ARC
  5
2714F
  8
0
 10
3132.8006782158809074
 20
164.4310801416017966
 30
0.0
 40
0.0220238406618899
 50
258.7712721879382229
 51
97.2749618250780088
  0
ARC
  5
27150
  8
0
 10
3132.7970073001638411
 20
164.4312068499214945
 30
0.0
 40
0.0217377389120819
 50
87.6745777047264454
 51
268.3716563082900279
  0
LINE
  5
27151
  8
0
 10
3132.8629679502810177
 20
164.4664772512398088
 30
0.0
 11
3132.8629345803810793
 21
164.4403320093398122
 31
0.0
  0
ARC
  5
27152
  8
0
 10
3132.8019245655918894
 20
164.4430729473195925
 30
0.0
 40
0.0610715534888087
 50
293.6691102983589872
 51
357.4276575766850783
  0
ARC
  5
27153
  8
0
 10
3132.7995457402589636
 20
164.4485000105096901
 30
0.0
 40
0.0669970766585589
 50
207.5684396242066896
 51
293.6691102983589872
  0
ARC
  5
27154
  8
0
 10
3132.7791009735537955
 20
164.437826080167298
 30
0.0
 40
0.0439336581229258
 50
181.1511992689738122
 51
207.5684396242052117
  0
LINE
  5
27155
  8
0
 10
3132.7351761830809664
 20
164.4369434149398046
 30
0.0
 11
3132.7350151398632079
 21
164.4645850007269985
 31
0.0
  0
ARC
  5
27156
  8
0
 10
3132.801720322293022
 20
164.4658281302276919
 30
0.0
 40
0.0612510676823524
 50
0.6072153843393322
 51
92.9927871613344337
  0
ARC
  5
27157
  8
0
 10
3132.8020297419420785
 20
164.4599097963277927
 30
0.0
 40
0.067177484531506
 50
92.9927871613344337
 51
176.0092851075881129
  0
ARC
  5
27158
  8
0
 10
3133.0805663528408331
 20
164.2021890402131987
 30
0.0
 40
0.0220238406618899
 50
258.7712721879382229
 51
97.2749618250780088
  0
ARC
  5
27159
  8
0
 10
3133.0768954371228574
 20
164.2023157485328113
 30
0.0
 40
0.0217377389120819
 50
87.6745777047264454
 51
268.3716563082900279
  0
LINE
  5
2715A
  8
0
 10
3133.142856087240034
 20
164.2375861498512108
 30
0.0
 11
3133.1428227173400956
 21
164.2114409079511859
 31
0.0
  0
ARC
  5
2715B
  8
0
 10
3133.0818127025509057
 20
164.2141818459309093
 30
0.0
 40
0.0610715534888087
 50
293.6691102983589872
 51
357.4276575766850783
  0
ARC
  5
2715C
  8
0
 10
3133.0794338772179799
 20
164.2196089091210922
 30
0.0
 40
0.0669970766585589
 50
207.5684396242066896
 51
293.6691102983589872
  0
ARC
  5
2715D
  8
0
 10
3133.058989110514176
 20
164.2089349787787
 30
0.0
 40
0.0439336581229258
 50
181.1511992689738122
 51
207.5684396242052117
  0
LINE
  5
2715E
  8
0
 10
3133.0150643200399827
 20
164.2080523135512067
 30
0.0
 11
3133.0149032768231336
 21
164.2356938993382869
 31
0.0
  0
ARC
  5
2715F
  8
0
 10
3133.0816084592520383
 20
164.2369370288390087
 30
0.0
 40
0.0612510676823524
 50
0.6072153843393322
 51
92.9927871613344337
  0
ARC
  5
27160
  8
0
 10
3133.0819178789020043
 20
164.2310186949391095
 30
0.0
 40
0.067177484531506
 50
92.9927871613344337
 51
176.0092851075881129
  0
ARC
  5
27161
  8
0
 10
3133.2109633428899542
 20
164.7313860115143882
 30
0.0
 40
0.0220238406618899
 50
258.7712721879382229
 51
97.2749618250780088
  0
ARC
  5
27162
  8
0
 10
3133.207292427172888
 20
164.7315127198340008
 30
0.0
 40
0.0217377389120819
 50
87.6745777047264454
 51
268.3716563082900279
  0
LINE
  5
27163
  8
0
 10
3133.273253077289155
 20
164.7667831211524003
 30
0.0
 11
3133.2732197073892166
 21
164.7406378792522901
 31
0.0
  0
ARC
  5
27164
  8
0
 10
3133.2122096926000268
 20
164.7433788172320988
 30
0.0
 40
0.0610715534888087
 50
293.6691102983589872
 51
357.4276575766850783
  0
ARC
  5
27165
  8
0
 10
3133.209830867267101
 20
164.7488058804223101
 30
0.0
 40
0.0669970766585589
 50
207.5684396242066896
 51
293.6691102983589872
  0
ARC
  5
27166
  8
0
 10
3133.1893861005628423
 20
164.7381319500798895
 30
0.0
 40
0.0439336581229258
 50
181.1511992689738122
 51
207.5684396242052117
  0
LINE
  5
27167
  8
0
 10
3133.1454613100891038
 20
164.7372492848523962
 30
0.0
 11
3133.1453002668718
 21
164.7648908706395048
 31
0.0
  0
ARC
  5
27168
  8
0
 10
3133.2120054493011594
 20
164.7661340001401982
 30
0.0
 40
0.0612510676823524
 50
0.6072153843393322
 51
92.9927871613344337
  0
ARC
  5
27169
  8
0
 10
3133.2123148689511254
 20
164.760215666240299
 30
0.0
 40
0.067177484531506
 50
92.9927871613344337
 51
176.0092851075881129
  0
ARC
  5
2716A
  8
0
 10
3133.4238108853651283
 20
164.4457361941018974
 30
0.0
 40
0.0220238406618899
 50
258.7712721879382229
 51
97.2749618250780088
  0
ARC
  5
2716B
  8
0
 10
3133.4201399696480621
 20
164.4458629024215952
 30
0.0
 40
0.0217377389120819
 50
87.6745777047264454
 51
268.3716563082900279
  0
LINE
  5
2716C
  8
0
 10
3133.4861006197647839
 20
164.4811333037399095
 30
0.0
 11
3133.4860672498648455
 21
164.4549880618399129
 31
0.0
  0
ARC
  5
2716D
  8
0
 10
3133.4250572350761104
 20
164.4577289998196079
 30
0.0
 40
0.0610715534888087
 50
293.6691102983589872
 51
357.4276575766850783
  0
ARC
  5
2716E
  8
0
 10
3133.4226784097431846
 20
164.4631560630097908
 30
0.0
 40
0.0669970766585589
 50
207.5684396242066896
 51
293.6691102983589872
  0
ARC
  5
2716F
  8
0
 10
3133.4022336430389259
 20
164.4524821326673987
 30
0.0
 40
0.0439336581229258
 50
181.1511992689738122
 51
207.5684396242052117
  0
LINE
  5
27170
  8
0
 10
3133.3583088525651874
 20
164.4515994674399053
 30
0.0
 11
3133.3581478093478836
 21
164.4792410532270139
 31
0.0
  0
ARC
  5
27171
  8
0
 10
3133.4248529917767883
 20
164.4804841827277073
 30
0.0
 40
0.0612510676823524
 50
0.6072153843393322
 51
92.9927871613344337
  0
ARC
  5
27172
  8
0
 10
3133.4251624114258448
 20
164.4745658488278082
 30
0.0
 40
0.067177484531506
 50
92.9927871613344337
 51
176.0092851075881129
  0
ARC
  5
27173
  8
0
 10
3133.6996309389760427
 20
164.7363590285854116
 30
0.0
 40
0.0220238406618899
 50
258.7712721879382229
 51
97.2749618250780088
  0
ARC
  5
27174
  8
0
 10
3133.6959600232589764
 20
164.7364857369051094
 30
0.0
 40
0.0217377389120819
 50
87.6745777047264454
 51
268.3716563082900279
  0
LINE
  5
27175
  8
0
 10
3133.761920673376153
 20
164.7717561382233953
 30
0.0
 11
3133.7618873034762146
 21
164.7456108963233987
 31
0.0
  0
ARC
  5
27176
  8
0
 10
3133.7008772886870247
 20
164.7483518343032074
 30
0.0
 40
0.0610715534888087
 50
293.6691102983589872
 51
357.4276575766850783
  0
ARC
  5
27177
  8
0
 10
3133.6984984633540989
 20
164.7537788974933051
 30
0.0
 40
0.0669970766585589
 50
207.5684396242066896
 51
293.6691102983589872
  0
ARC
  5
27178
  8
0
 10
3133.6780536966489308
 20
164.7431049671509129
 30
0.0
 40
0.0439336581229258
 50
181.1511992689738122
 51
207.5684396242052117
  0
LINE
  5
27179
  8
0
 10
3133.6341289061761017
 20
164.7422223019233911
 30
0.0
 11
3133.6339678629587979
 21
164.7698638877106134
 31
0.0
  0
ARC
  5
2717A
  8
0
 10
3133.7006730453881573
 20
164.7711070172111931
 30
0.0
 40
0.0612510676823524
 50
0.6072153843393322
 51
92.9927871613344337
  0
ARC
  5
2717B
  8
0
 10
3133.7009824650372138
 20
164.7651886833114077
 30
0.0
 40
0.067177484531506
 50
92.9927871613344337
 51
176.0092851075881129
  0
ARC
  5
2717C
  8
0
 10
3133.8920507355501286
 20
165.0685841211742115
 30
0.0
 40
0.0220238406618899
 50
258.7712721879382229
 51
97.2749618250780088
  0
ARC
  5
2717D
  8
0
 10
3133.8883798198330624
 20
165.0687108294939094
 30
0.0
 40
0.0217377389120819
 50
87.6745777047264454
 51
268.3716563082900279
  0
LINE
  5
2717E
  8
0
 10
3133.9543404699497842
 20
165.1039812308121952
 30
0.0
 11
3133.9543071000498458
 21
165.0778359889121987
 31
0.0
  0
ARC
  5
2717F
  8
0
 10
3133.8932970852611106
 20
165.0805769268920074
 30
0.0
 40
0.0610715534888087
 50
293.6691102983589872
 51
357.4276575766850783
  0
ARC
  5
27180
  8
0
 10
3133.8909182599281849
 20
165.086003990082105
 30
0.0
 40
0.0669970766585589
 50
207.5684396242066896
 51
293.6691102983589872
  0
ARC
  5
27181
  8
0
 10
3133.8704734932239262
 20
165.0753300597397129
 30
0.0
 40
0.0439336581229258
 50
181.1511992689738122
 51
207.5684396242052117
  0
LINE
  5
27182
  8
0
 10
3133.8265487027501877
 20
165.0744473945121911
 30
0.0
 11
3133.8263876595319744
 21
165.1020889802994134
 31
0.0
  0
ARC
  5
27183
  8
0
 10
3133.8930928419617885
 20
165.1033321098001068
 30
0.0
 40
0.0612510676823524
 50
0.6072153843393322
 51
92.9927871613344337
  0
ARC
  5
27184
  8
0
 10
3133.8934022616122093
 20
165.0974137759002076
 30
0.0
 40
0.067177484531506
 50
92.9927871613344337
 51
176.0092851075881129
  0
ARC
  5
27185
  8
0
 10
3133.4762711489211142
 20
165.1227204732198004
 30
0.0
 40
0.0220238406618899
 50
258.7712721879382229
 51
97.2749618250780088
  0
ARC
  5
27186
  8
0
 10
3133.472600233204048
 20
165.1228471815394983
 30
0.0
 40
0.0217377389120819
 50
87.6745777047264454
 51
268.3716563082900279
  0
LINE
  5
27187
  8
0
 10
3133.5385608833212245
 20
165.1581175828578125
 30
0.0
 11
3133.5385275134208314
 21
165.1319723409577875
 31
0.0
  0
ARC
  5
27188
  8
0
 10
3133.4775174986320962
 20
165.1347132789375962
 30
0.0
 40
0.0610715534888087
 50
293.6691102983589872
 51
357.4276575766850783
  0
ARC
  5
27189
  8
0
 10
3133.4751386732991705
 20
165.1401403421276939
 30
0.0
 40
0.0669970766585589
 50
207.5684396242066896
 51
293.6691102983589872
  0
ARC
  5
2718A
  8
0
 10
3133.4546939065949118
 20
165.1294664117853017
 30
0.0
 40
0.0439336581229258
 50
181.1511992689738122
 51
207.5684396242052117
  0
LINE
  5
2718B
  8
0
 10
3133.4107691161211733
 20
165.1285837465578936
 30
0.0
 11
3133.41060807290296
 21
165.1562253323450022
 31
0.0
  0
ARC
  5
2718C
  8
0
 10
3133.4773132553327741
 20
165.1574684618456956
 30
0.0
 40
0.0612510676823524
 50
0.6072153843393322
 51
92.9927871613344337
  0
ARC
  5
2718D
  8
0
 10
3133.4776226749831949
 20
165.1515501279457965
 30
0.0
 40
0.067177484531506
 50
92.9927871613344337
 51
176.0092851075881129
  0
ARC
  5
2718E
  8
0
 10
3133.9892226191100235
 20
165.4252343343974871
 30
0.0
 40
0.0220238406618899
 50
258.7712721879382229
 51
97.2749618250780088
  0
ARC
  5
2718F
  8
0
 10
3133.9855517033938668
 20
165.4253610427172134
 30
0.0
 40
0.0217377389120819
 50
87.6745777047264454
 51
268.3716563082900279
  0
LINE
  5
27190
  8
0
 10
3134.0515123535101338
 20
165.4606314440354993
 30
0.0
 11
3134.0514789836101954
 21
165.4344862021355027
 31
0.0
  0
ARC
  5
27191
  8
0
 10
3133.9904689688210055
 20
165.4372271401153114
 30
0.0
 40
0.0610715534888087
 50
293.6691102983589872
 51
357.4276575766850783
  0
ARC
  5
27192
  8
0
 10
3133.9880901434880798
 20
165.4426542033054091
 30
0.0
 40
0.0669970766585589
 50
207.5684396242066896
 51
293.6691102983589872
  0
ARC
  5
27193
  8
0
 10
3133.9676453767829116
 20
165.4319802729629885
 30
0.0
 40
0.0439336581229258
 50
181.1511992689738122
 51
207.5684396242052117
  0
LINE
  5
27194
  8
0
 10
3133.9237205863100826
 20
165.4310976077354951
 30
0.0
 11
3133.9235595430918693
 21
165.4587391935226037
 31
0.0
  0
ARC
  5
27195
  8
0
 10
3133.9902647255221382
 20
165.4599823230232971
 30
0.0
 40
0.0612510676823524
 50
0.6072153843393322
 51
92.9927871613344337
  0
ARC
  5
27196
  8
0
 10
3133.9905741451711947
 20
165.4540639891235116
 30
0.0
 40
0.067177484531506
 50
92.9927871613344337
 51
176.0092851075881129
  0
ARC
  5
27197
  8
0
 10
3133.5712507067050865
 20
165.5603252840575976
 30
0.0
 40
0.0220238406618899
 50
258.7712721879382229
 51
97.2749618250780088
  0
ARC
  5
27198
  8
0
 10
3133.5675797909880202
 20
165.5604519923772955
 30
0.0
 40
0.0217377389120819
 50
87.6745777047264454
 51
268.3716563082900279
  0
LINE
  5
27199
  8
0
 10
3133.6335404411051968
 20
165.5957223936956098
 30
0.0
 11
3133.6335070712048037
 21
165.5695771517956132
 31
0.0
  0
ARC
  5
2719A
  8
0
 10
3133.5724970564160685
 20
165.5723180897753934
 30
0.0
 40
0.0610715534888087
 50
293.6691102983589872
 51
357.4276575766850783
  0
ARC
  5
2719B
  8
0
 10
3133.5701182310831427
 20
165.5777451529654911
 30
0.0
 40
0.0669970766585589
 50
207.5684396242066896
 51
293.6691102983589872
  0
ARC
  5
2719C
  8
0
 10
3133.5496734643788841
 20
165.5670712226230989
 30
0.0
 40
0.0439336581229258
 50
181.1511992689738122
 51
207.5684396242052117
  0
LINE
  5
2719D
  8
0
 10
3133.5057486739051456
 20
165.5661885573956056
 30
0.0
 11
3133.5055876306878417
 21
165.5938301431827995
 31
0.0
  0
ARC
  5
2719E
  8
0
 10
3133.5722928131172011
 20
165.5950732726834929
 30
0.0
 40
0.0612510676823524
 50
0.6072153843393322
 51
92.9927871613344337
  0
ARC
  5
2719F
  8
0
 10
3133.5726022327658029
 20
165.5891549387835937
 30
0.0
 40
0.067177484531506
 50
92.9927871613344337
 51
176.0092851075881129
  0
ARC
  5
271A0
  8
0
 10
3133.4772617890748734
 20
165.999975277433208
 30
0.0
 40
0.0220238406618899
 50
258.7712721879382229
 51
97.2749618250780088
  0
ARC
  5
271A1
  8
0
 10
3133.4735908733578071
 20
166.0001019857529059
 30
0.0
 40
0.0217377389120819
 50
87.6745777047264454
 51
268.3716563082900279
  0
LINE
  5
271A2
  8
0
 10
3133.5395515234740742
 20
166.0353723870713054
 30
0.0
 11
3133.5395181535741358
 21
166.0092271451711952
 31
0.0
  0
ARC
  5
271A3
  8
0
 10
3133.4785081387849459
 20
166.0119680831510038
 30
0.0
 40
0.0610715534888087
 50
293.6691102983589872
 51
357.4276575766850783
  0
ARC
  5
271A4
  8
0
 10
3133.4761293134520201
 20
166.0173951463411015
 30
0.0
 40
0.0669970766585589
 50
207.5684396242066896
 51
293.6691102983589872
  0
ARC
  5
271A5
  8
0
 10
3133.4556845467482162
 20
166.0067212159987093
 30
0.0
 40
0.0439336581229258
 50
181.1511992689738122
 51
207.5684396242052117
  0
LINE
  5
271A6
  8
0
 10
3133.4117597562740229
 20
166.0058385507711876
 30
0.0
 11
3133.4115987130571739
 21
166.0334801365584099
 31
0.0
  0
ARC
  5
271A7
  8
0
 10
3133.4783038954860785
 20
166.0347232660591033
 30
0.0
 40
0.0612510676823524
 50
0.6072153843393322
 51
92.9927871613344337
  0
ARC
  5
271A8
  8
0
 10
3133.4786133151360445
 20
166.0288049321592041
 30
0.0
 40
0.067177484531506
 50
92.9927871613344337
 51
176.0092851075881129
  0
ARC
  5
271A9
  8
0
 10
3133.2086200104417912
 20
166.3805779759225913
 30
0.0
 40
0.0220238406618899
 50
258.7712721879382229
 51
97.2749618250780088
  0
ARC
  5
271AA
  8
0
 10
3133.2049490947251797
 20
166.3807046842422892
 30
0.0
 40
0.0217377389120819
 50
87.6745777047264454
 51
268.3716563082900279
  0
LINE
  5
271AB
  8
0
 10
3133.2709097448419016
 20
166.4159750855606035
 30
0.0
 11
3133.2708763749419631
 21
166.3898298436606069
 31
0.0
  0
ARC
  5
271AC
  8
0
 10
3133.2098663601527733
 20
166.3925707816403872
 30
0.0
 40
0.0610715534888087
 50
293.6691102983589872
 51
357.4276575766850783
  0
ARC
  5
271AD
  8
0
 10
3133.2074875348198475
 20
166.3979978448305133
 30
0.0
 40
0.0669970766585589
 50
207.5684396242066896
 51
293.6691102983589872
  0
ARC
  5
271AE
  8
0
 10
3133.1870427681160436
 20
166.3873239144880927
 30
0.0
 40
0.0439336581229258
 50
181.1511992689738122
 51
207.5684396242052117
  0
LINE
  5
271AF
  8
0
 10
3133.1431179776418503
 20
166.3864412492605993
 30
0.0
 11
3133.1429569344240917
 21
166.4140828350477932
 31
0.0
  0
ARC
  5
271B0
  8
0
 10
3133.2096621168539059
 20
166.4153259645484866
 30
0.0
 40
0.0612510676823524
 50
0.6072153843393322
 51
92.9927871613344337
  0
ARC
  5
271B1
  8
0
 10
3133.2099715365029624
 20
166.4094076306485874
 30
0.0
 40
0.067177484531506
 50
92.9927871613344337
 51
176.0092851075881129
  0
ARC
  5
271B2
  8
0
 10
3133.079210931509806
 20
166.9851777127946946
 30
0.0
 40
0.0220238406618899
 50
258.7712721879382229
 51
97.2749618250780088
  0
ARC
  5
271B3
  8
0
 10
3133.075540015794104
 20
166.9853044211143924
 30
0.0
 40
0.0217377389120819
 50
87.6745777047264454
 51
268.3716563082900279
  0
LINE
  5
271B4
  8
0
 10
3133.1415006659099163
 20
167.0205748224327067
 30
0.0
 11
3133.1414672960099779
 21
166.9944295805327101
 31
0.0
  0
ARC
  5
271B5
  8
0
 10
3133.080457281220788
 20
166.9971705185124051
 30
0.0
 40
0.0610715534888087
 50
293.6691102983589872
 51
357.4276575766850783
  0
ARC
  5
271B6
  8
0
 10
3133.0780784558878622
 20
167.0025975817025881
 30
0.0
 40
0.0669970766585589
 50
207.5684396242066896
 51
293.6691102983589872
  0
ARC
  5
271B7
  8
0
 10
3133.0576336891831488
 20
166.9919236513601959
 30
0.0
 40
0.0439336581229258
 50
181.1511992689738122
 51
207.5684396242052117
  0
LINE
  5
271B8
  8
0
 10
3133.013708898709865
 20
166.9910409861327025
 30
0.0
 11
3133.013547855493016
 21
167.0186825719198112
 31
0.0
  0
ARC
  5
271B9
  8
0
 10
3133.0802530379219206
 20
167.0199257014205045
 30
0.0
 40
0.0612510676823524
 50
0.6072153843393322
 51
92.9927871613344337
  0
ARC
  5
271BA
  8
0
 10
3133.0805624575709771
 20
167.0140073675206054
 30
0.0
 40
0.067177484531506
 50
92.9927871613344337
 51
176.0092851075881129
  0
ARC
  5
271BB
  8
0
 10
3132.6802976984949964
 20
167.14493990196749
 30
0.0
 40
0.0220238406618899
 50
258.7712721879382229
 51
97.2749618250780088
  0
ARC
  5
271BC
  8
0
 10
3132.6766267827788397
 20
167.1450666102871878
 30
0.0
 40
0.0217377389120819
 50
87.6745777047264454
 51
268.3716563082900279
  0
LINE
  5
271BD
  8
0
 10
3132.7425874328951068
 20
167.1803370116055021
 30
0.0
 11
3132.7425540629951684
 21
167.1541917697055055
 31
0.0
  0
ARC
  5
271BE
  8
0
 10
3132.6815440482059785
 20
167.1569327076853142
 30
0.0
 40
0.0610715534888087
 50
293.6691102983589872
 51
357.4276575766850783
  0
ARC
  5
271BF
  8
0
 10
3132.6791652228730527
 20
167.1623597708754119
 30
0.0
 40
0.0669970766585589
 50
207.5684396242066896
 51
293.6691102983589872
  0
ARC
  5
271C0
  8
0
 10
3132.658720456168794
 20
167.1516858405329913
 30
0.0
 40
0.0439336581229258
 50
181.1511992689738122
 51
207.5684396242052117
  0
LINE
  5
271C1
  8
0
 10
3132.6147956656950555
 20
167.1508031753054979
 30
0.0
 11
3132.6146346224768422
 21
167.1784447610926918
 31
0.0
  0
ARC
  5
271C2
  8
0
 10
3132.6813398049080206
 20
167.1796878905934136
 30
0.0
 40
0.0612510676823524
 50
0.6072153843393322
 51
92.9927871613344337
  0
ARC
  5
271C3
  8
0
 10
3132.6816492245570771
 20
167.173769556693486
 30
0.0
 40
0.067177484531506
 50
92.9927871613344337
 51
176.0092851075881129
  0
ARC
  5
271C4
  8
0
 10
3133.4234270009351349
 20
166.7577050620213868
 30
0.0
 40
0.0220238406618899
 50
258.7712721879382229
 51
97.2749618250780088
  0
ARC
  5
271C5
  8
0
 10
3133.4197560852180686
 20
166.757831770341113
 30
0.0
 40
0.0217377389120819
 50
87.6745777047264454
 51
268.3716563082900279
  0
LINE
  5
271C6
  8
0
 10
3133.4857167353338809
 20
166.7931021716593989
 30
0.0
 11
3133.485683365434852
 21
166.7669569297594023
 31
0.0
  0
ARC
  5
271C7
  8
0
 10
3133.4246733506461169
 20
166.769697867739211
 30
0.0
 40
0.0610715534888087
 50
293.6691102983589872
 51
357.4276575766850783
  0
ARC
  5
271C8
  8
0
 10
3133.4222945253118269
 20
166.7751249309293087
 30
0.0
 40
0.0669970766585589
 50
207.5684396242066896
 51
293.6691102983589872
  0
ARC
  5
271C9
  8
0
 10
3133.401849758608023
 20
166.7644510005868881
 30
0.0
 40
0.0439336581229258
 50
181.1511992689738122
 51
207.5684396242052117
  0
LINE
  5
271CA
  8
0
 10
3133.3579249681338297
 20
166.7635683353593947
 30
0.0
 11
3133.3577639249169806
 21
166.7912099211465033
 31
0.0
  0
ARC
  5
271CB
  8
0
 10
3133.4244691073458853
 20
166.7924530506473104
 30
0.0
 40
0.0612510676823524
 50
0.6072153843393322
 51
92.9927871613344337
  0
ARC
  5
271CC
  8
0
 10
3133.4247785269958513
 20
166.7865347167474113
 30
0.0
 40
0.067177484531506
 50
92.9927871613344337
 51
176.0092851075881129
  0
ARC
  5
271CD
  8
0
 10
3133.7003359400041518
 20
166.472232755127294
 30
0.0
 40
0.0220238406618899
 50
258.7712721879382229
 51
97.2749618250780088
  0
ARC
  5
271CE
  8
0
 10
3133.6966650242870855
 20
166.4723594634469919
 30
0.0
 40
0.0217377389120819
 50
87.6745777047264454
 51
268.3716563082900279
  0
LINE
  5
271CF
  8
0
 10
3133.7626256744038074
 20
166.5076298647653061
 30
0.0
 11
3133.7625923045029595
 21
166.4814846228653096
 31
0.0
  0
ARC
  5
271D0
  8
0
 10
3133.7015822897142243
 20
166.4842255608450046
 30
0.0
 40
0.0610715534888087
 50
293.6691102983589872
 51
357.4276575766850783
  0
ARC
  5
271D1
  8
0
 10
3133.6992034643808438
 20
166.4896526240351875
 30
0.0
 40
0.0669970766585589
 50
207.5684396242066896
 51
293.6691102983589872
  0
ARC
  5
271D2
  8
0
 10
3133.6787586976770399
 20
166.4789786936927953
 30
0.0
 40
0.0439336581229258
 50
181.1511992689738122
 51
207.5684396242052117
  0
LINE
  5
271D3
  8
0
 10
3133.6348339072028466
 20
166.478096028465302
 30
0.0
 11
3133.6346728639859975
 21
166.5057376142524106
 31
0.0
  0
ARC
  5
271D4
  8
0
 10
3133.7013780464158117
 20
166.506980743753104
 30
0.0
 40
0.0612510676823524
 50
0.6072153843393322
 51
92.9927871613344337
  0
ARC
  5
271D5
  8
0
 10
3133.7016874660648682
 20
166.5010624098532048
 30
0.0
 40
0.067177484531506
 50
92.9927871613344337
 51
176.0092851075881129
  0
ARC
  5
271D6
  8
0
 10
3133.8922963488121241
 20
166.1451108176889875
 30
0.0
 40
0.0220238406618899
 50
258.7712721879382229
 51
97.2749618250780088
  0
ARC
  5
271D7
  8
0
 10
3133.8886254330950578
 20
166.1452375260087138
 30
0.0
 40
0.0217377389120819
 50
87.6745777047264454
 51
268.3716563082900279
  0
LINE
  5
271D8
  8
0
 10
3133.9545860832108701
 20
166.1805079273269996
 30
0.0
 11
3133.9545527133109317
 21
166.154362685427003
 31
0.0
  0
ARC
  5
271D9
  8
0
 10
3133.8935426985231061
 20
166.1571036234068117
 30
0.0
 40
0.0610715534888087
 50
293.6691102983589872
 51
357.4276575766850783
  0
ARC
  5
271DA
  8
0
 10
3133.8911638731888161
 20
166.1625306865969094
 30
0.0
 40
0.0669970766585589
 50
207.5684396242066896
 51
293.6691102983589872
  0
ARC
  5
271DB
  8
0
 10
3133.8707191064841027
 20
166.1518567562544888
 30
0.0
 40
0.0439336581229258
 50
181.1511992689738122
 51
207.5684396242052117
  0
LINE
  5
271DC
  8
0
 10
3133.8267943160108189
 20
166.1509740910269954
 30
0.0
 11
3133.8266332727939698
 21
166.1786156768141041
 31
0.0
  0
ARC
  5
271DD
  8
0
 10
3133.8933384552228745
 20
166.1798588063149111
 30
0.0
 40
0.0612510676823524
 50
0.6072153843393322
 51
92.9927871613344337
  0
ARC
  5
271DE
  8
0
 10
3133.893647874871931
 20
166.173940472415012
 30
0.0
 40
0.067177484531506
 50
92.9927871613344337
 51
176.0092851075881129
  0
ARC
  5
271DF
  8
0
 10
3133.9903369755729727
 20
165.7903429782766125
 30
0.0
 40
0.0220238406618899
 50
258.7712721879382229
 51
97.2749618250780088
  0
ARC
  5
271E0
  8
0
 10
3133.9866660598559065
 20
165.7904696865963103
 30
0.0
 40
0.0217377389120819
 50
87.6745777047264454
 51
268.3716563082900279
  0
LINE
  5
271E1
  8
0
 10
3134.0526267099730831
 20
165.8257400879145962
 30
0.0
 11
3134.0525933400731446
 21
165.7995948460145996
 31
0.0
  0
ARC
  5
271E2
  8
0
 10
3133.9915833252839548
 20
165.8023357839944083
 30
0.0
 40
0.0610715534888087
 50
293.6691102983589872
 51
357.4276575766850783
  0
ARC
  5
271E3
  8
0
 10
3133.989204499951029
 20
165.807762847184506
 30
0.0
 40
0.0669970766585589
 50
207.5684396242066896
 51
293.6691102983589872
  0
ARC
  5
271E4
  8
0
 10
3133.9687597332458608
 20
165.7970889168421138
 30
0.0
 40
0.0439336581229258
 50
181.1511992689738122
 51
207.5684396242052117
  0
LINE
  5
271E5
  8
0
 10
3133.9248349427730318
 20
165.796206251614592
 30
0.0
 11
3133.9246738995548185
 21
165.8238478374017859
 31
0.0
  0
ARC
  5
271E6
  8
0
 10
3133.9913790819850874
 20
165.8250909669025077
 30
0.0
 40
0.0612510676823524
 50
0.6072153843393322
 51
92.9927871613344337
  0
ARC
  5
271E7
  8
0
 10
3133.9916885016341439
 20
165.8191726330026086
 30
0.0
 40
0.067177484531506
 50
92.9927871613344337
 51
176.0092851075881129
  0
ARC
  5
271E8
  8
0
 10
3135.6914164291338238
 20
131.1416703272819007
 30
0.0
 40
0.015784436990312
 50
249.1679240029378946
 51
269.3164871091715895
  0
LINE
  5
271E9
  8
0
 10
3129.5225877771449632
 20
137.7102656743649902
 30
0.0
 11
3130.506839745743946
 21
137.7102656743649902
 31
0.0
  0
ARC
  5
271EA
  8
0
 10
3178.475712124274196
 20
161.1273958990599908
 30
0.0
 40
47.0015692080682683
 50
181.4033491701526941
 51
181.528176332987897
  0
ARC
  5
271EB
  8
0
 10
3131.5100633106258101
 20
159.876326446471694
 30
0.0
 40
0.0193520550577932
 50
187.1063656165426892
 51
213.8440021062818914
  0
ARC
  5
271EC
  8
0
 10
3131.5154796955989696
 20
159.8826617104107868
 30
0.0
 40
0.0274708995633738
 50
218.5320868714262019
 51
244.3050417905328118
  0
ARC
  5
271ED
  8
0
 10
3131.532523879198834
 20
159.9210456987140105
 30
0.0
 40
0.0694611714353004
 50
245.3640160773346111
 51
260.9213240164506828
  0
ARC
  5
271EE
  8
0
 10
3132.5162598754691317
 20
159.9081408923373999
 30
0.0
 40
0.0561460162550743
 50
279.9969364779856278
 51
298.8969442910620842
  0
ARC
  5
271EF
  8
0
 10
3132.5324453953821831
 20
159.8789330979732881
 30
0.0
 40
0.0227535236340963
 50
298.7558875102990896
 51
334.4336238494669828
  0
ARC
  5
271F0
  8
0
 10
3132.5409341729591688
 20
159.8748720806744075
 30
0.0
 40
0.0133433585842843
 50
334.4336238494669828
 51
1.3545098789668171
  0
ARC
  5
271F1
  8
0
 10
3131.8182530356548341
 20
159.9352483142934034
 30
0.0
 40
0.2985767614760108
 50
204.8014676444269071
 51
215.3912802135160121
  0
ARC
  5
271F2
  8
0
 10
3131.6841301028957787
 20
159.8732706496774085
 30
0.0
 40
0.1508263232262761
 50
188.8006382918960071
 51
204.8014676444269071
  0
ARC
  5
271F3
  8
0
 10
3131.8726484247208646
 20
160.3002098933527861
 30
0.0
 40
0.5184361545653696
 50
244.0433985894100886
 51
255.9431549892896953
  0
ARC
  5
271F4
  8
0
 10
3132.0015560465008093
 20
160.8150535512764066
 30
0.0
 40
1.049172592976602
 50
255.9431549892896953
 51
267.7406318556995757
  0
ARC
  5
271F5
  8
0
 10
3132.0305723331121044
 20
160.6862402726598873
 30
0.0
 40
0.9222329783940443
 50
265.6233535246619795
 51
276.8451965587789232
  0
ARC
  5
271F6
  8
0
 10
3132.0684901988570346
 20
160.6411456613579958
 30
0.0
 40
0.8735368513091784
 50
274.7279182277192717
 51
290.7864738420619801
  0
ARC
  5
271F7
  8
0
 10
3132.3052226557970243
 20
160.017499603057189
 30
0.0
 40
0.2064711407506011
 50
290.7864738420619801
 51
297.4637617410609778
  0
ARC
  5
271F8
  8
0
 10
3131.8772452868720393
 20
160.3084633005391879
 30
0.0
 40
0.5167404339847465
 50
247.9338990787281034
 51
254.4468433920941948
  0
ARC
  5
271F9
  8
0
 10
3131.9944684892579971
 20
160.7578610973598074
 30
0.0
 40
0.9811427369549486
 50
254.8887563891746026
 51
267.0340202740284212
  0
ARC
  5
271FA
  8
0
 10
3132.0178340675288382
 20
161.2088260741736008
 30
0.0
 40
1.4327126214253949
 50
267.0340202740284212
 51
276.0520948271487214
  0
ARC
  5
271FB
  8
0
 10
3132.0830109673720472
 20
160.5940864909466086
 30
0.0
 40
0.8145275492509615
 50
276.0520948271487214
 51
287.9627634685409134
  0
ARC
  5
271FC
  8
0
 10
3132.205963524480012
 20
160.2148389571891016
 30
0.0
 40
0.4158471971384434
 50
287.9627634685409134
 51
292.195708925573399
  0
ARC
  5
271FD
  8
0
 10
3117.8794475581380539
 20
159.2456407087821049
 30
0.0
 40
14.6141904594109207
 50
359.457413030794612
 51
2.3529500311207219
  0
LINE
  5
271FE
  8
0
 10
3129.4231575356561734
 20
168.3008168554650013
 30
0.0
 11
3130.6062354097830394
 21
168.3008168554650013
 31
0.0
  0
LINE
  5
271FF
  8
0
 10
3130.6059590749609924
 20
168.7732578002649859
 30
0.0
 11
3129.4231975500679255
 21
168.7732578002649859
 31
0.0
  0
ARC
  5
27200
  8
0
 10
3129.4242066490710386
 20
168.7535545072423986
 30
0.0
 40
0.0197291164711834
 50
92.9318268222190937
 51
179.9469889381020948
  0
LINE
  5
27201
  8
0
 10
3129.4044775410447983
 20
168.7535727609649996
 30
0.0
 11
3129.4044775409452086
 21
168.3205018947649876
 31
0.0
  0
ARC
  5
27202
  8
0
 10
3129.4241977986471284
 20
168.3205096581349949
 30
0.0
 40
0.0197202592297893
 50
180.0225559078081972
 51
266.9761880254393986
  0
ARC
  5
27203
  8
0
 10
3130.6052040475669855
 20
168.320535865847603
 30
0.0
 40
0.0197459635998966
 50
272.9940095693527269
 51
359.9014279244046861
  0
LINE
  5
27204
  8
0
 10
3130.6249499819450648
 20
168.3205018947649876
 30
0.0
 11
3130.6249499977698179
 21
168.7535727163649995
 31
0.0
  0
ARC
  5
27205
  8
0
 10
3130.6052453508091276
 20
168.753566082368593
 30
0.0
 40
0.0197046480779554
 50
0.0192898650035539
 51
87.9242294220543954
  0
ARC
  5
27206
  8
0
 10
3129.4761555397949451
 20
169.1794408139591042
 30
0.0
 40
0.4267071448645245
 50
287.842732999277473
 51
289.8450379681715958
  0
ARC
  5
27207
  8
0
 10
3130.1802924122580407
 20
168.0996728354043057
 30
0.0
 40
0.7156788553555121
 50
70.2512300047674785
 51
71.4126950891451457
  0
ARC
  5
27208
  8
0
 10
3130.0147137614449093
 20
167.6019979577650076
 30
0.0
 40
1.2401574802999991
 50
16.5943378581023104
 51
60.5236999134052809
  0
ARC
  5
27209
  8
0
 10
3130.0147137614449093
 20
167.6019979577650076
 30
0.0
 40
1.2401574802999991
 50
119.4762993818224999
 51
250.7837726433052978
  0
LINE
  5
2720A
  8
0
 10
3132.3079421079451095
 20
158.3241638356649901
 30
0.0
 11
3132.3079421079451095
 21
158.0572235313649969
 31
0.0
  0
ARC
  5
2720B
  8
0
 10
3137.5582682673989439
 20
158.0572235313649969
 30
0.0
 40
5.2503261594544757
 50
180.0
 51
190.8856205832780972
  0
ARC
  5
2720C
  8
0
 10
3158.0180143513907751
 20
161.9918247192561012
 30
0.0
 40
26.0849678969357193
 50
190.8856205832780972
 51
196.2308630389929078
  0
ARC
  5
2720D
  8
0
 10
3206.0923513823759095
 20
175.9867967032382978
 30
0.0
 40
76.1549301677528803
 50
196.2308630389929078
 51
199.2417862789851881
  0
ARC
  5
2720E
  8
0
 10
3052.5600312565620698
 20
122.3956030319140069
 30
0.0
 40
86.4617644313333784
 50
15.1322446870288498
 51
19.2417862789852308
  0
ARC
  5
2720F
  8
0
 10
3096.6912512558010349
 20
134.3297682276239868
 30
0.0
 40
40.7453682748155614
 50
7.1387488838774269
 51
15.1322446870288498
  0
ARC
  5
27210
  8
0
 10
3097.549172075477145
 20
138.1165493649384075
 30
0.0
 40
39.7211908537414971
 50
356.1759674198336256
 51
358.6548970059042745
  0
ARC
  5
27211
  8
0
 10
3094.7780274246988483
 20
135.6268708791762947
 30
0.0
 40
42.5099226134673174
 50
2.0993652022769771
 51
5.0831380158032511
  0
ARC
  5
27212
  8
0
 10
3126.6111491715528246
 20
136.4580577685360083
 30
0.0
 40
10.6170924773601403
 50
334.7116990687619023
 51
354.6463223786793719
  0
ARC
  5
27213
  8
0
 10
3128.3371740141938062
 20
135.6426007025231968
 30
0.0
 40
8.7081315076372281
 50
317.7398318726661728
 51
334.7116990687619023
  0
ARC
  5
27214
  8
0
 10
3130.449731993612204
 20
133.7230037907069118
 30
0.0
 40
5.8537045037964388
 50
299.9666853236922748
 51
317.7398318726661728
  0
ARC
  5
27215
  8
0
 10
3131.5197001514848125
 20
131.8672735344460136
 30
0.0
 40
3.7116105182614909
 50
280.0638986653514166
 51
299.9666853236922748
  0
ARC
  5
27216
  8
0
 10
3131.7906014308750855
 20
130.3408724198735911
 30
0.0
 40
2.1613563888546241
 50
248.3716635635227021
 51
280.0638986653514166
  0
ARC
  5
27217
  8
0
 10
3131.603678368259807
 20
129.869439979786705
 30
0.0
 40
1.654218560544209
 50
215.0292577619246117
 51
248.3716635635227021
  0
LINE
  5
27218
  8
0
 10
3129.7292806906448277
 20
131.3874310286649916
 30
0.0
 11
3129.7292827284450141
 21
130.8205018947649876
 31
0.0
  0
ARC
  5
27219
  8
0
 10
3134.1892347244179291
 20
130.8205179258517887
 30
0.0
 40
4.459951996001652
 50
180.0002059469738072
 51
194.7557512313794064
  0
ARC
  5
2721A
  8
0
 10
3131.9880046479870543
 20
130.2407461344828903
 30
0.0
 40
2.183650350909224
 50
194.7557512313794064
 51
217.2192960525673016
  0
LINE
  5
2721B
  8
0
 10
3130.3001468323450354
 20
131.3874310286649916
 30
0.0
 11
3130.3001468323450354
 21
130.8205018947649876
 31
0.0
  0
ARC
  5
2721C
  8
0
 10
3134.2053092158130312
 20
130.8205018947649876
 30
0.0
 40
3.9051623834692148
 50
180.0
 51
193.9541693201389876
  0
ARC
  5
2721D
  8
0
 10
3132.1076427108419011
 20
130.2992767617614049
 30
0.0
 40
1.7437090748461821
 50
193.9541693201389876
 51
219.8662720120317999
  0
ARC
  5
2721E
  8
0
 10
3131.6358092229629619
 20
129.9052344293758949
 30
0.0
 40
1.1289764500447601
 50
219.8662720120317999
 51
248.4726971221909082
  0
ARC
  5
2721F
  8
0
 10
3131.776122188951831
 20
130.2609424720230038
 30
0.0
 40
1.511358379571011
 50
248.4726971221909082
 51
275.8860218907909143
  0
ARC
  5
27220
  8
0
 10
3131.6489573105841373
 20
131.494434604438311
 30
0.0
 40
2.7513881159164111
 50
275.8860218907909143
 51
299.7820142589987995
  0
ARC
  5
27221
  8
0
 10
3130.1695112924398927
 20
134.0795743511432079
 30
0.0
 40
5.7299293747538549
 50
299.7820142589987995
 51
317.8763029824140176
  0
ARC
  5
27222
  8
0
 10
3128.8088146261011389
 20
135.3100807584492884
 30
0.0
 40
7.5644978352384191
 50
317.8763029824140176
 51
331.9737079862164819
  0
ARC
  5
27223
  8
0
 10
3126.9436304731329983
 20
136.3176725228420878
 30
0.0
 40
9.6865775378536263
 50
334.9275802157230828
 51
347.5472365487976276
  0
ARC
  5
27224
  8
0
 10
3124.7779692884041651
 20
136.7959151953683943
 30
0.0
 40
11.9044153184102104
 50
347.5472365487976276
 51
357.0252737113800094
  0
ARC
  5
27225
  8
0
 10
3117.8185662058581329
 20
137.1575638367640977
 30
0.0
 40
18.8732086863598312
 50
357.0252737113800094
 51
9.6083702469791348
  0
ARC
  5
27226
  8
0
 10
3081.4884185522209918
 20
131.0073199314097963
 30
0.0
 40
55.7202591603176884
 50
9.6083702469791348
 51
14.6592741447094106
  0
ARC
  5
27227
  8
0
 10
2990.3876695301100881
 20
103.3111997975318985
 30
0.0
 40
150.9108948087468889
 50
16.0792402802248908
 51
18.970256890453971
  0
ARC
  5
27228
  8
0
 10
3183.6162221950630737
 20
169.2616026834452896
 30
0.0
 40
53.2637660834263187
 50
194.84419648822211
 51
198.4907658388553955
  0
ARC
  5
27229
  8
0
 10
3144.3860203558401736
 20
158.924387623055793
 30
0.0
 40
12.6946580213317208
 50
185.7295455826314026
 51
195.1069726877645962
  0
ARC
  5
2722A
  8
0
 10
3136.634005264228108
 20
158.0734062343053949
 30
0.0
 40
4.8969559046053392
 50
180.1889356914412019
 51
184.8774493516793882
  0
LINE
  5
2722B
  8
0
 10
3131.7370759839500352
 20
158.0571946200103923
 30
0.0
 11
3131.7370759613691007
 21
158.3205018947649876
 31
0.0
  0
LINE
  5
2722C
  8
0
 10
3129.5422728166449815
 20
137.6787696113649986
 30
0.0
 11
3130.4871547063448816
 21
137.6787696113649986
 31
0.0
  0
ARC
  5
2722D
  8
0
 10
3130.4871547063448816
 20
137.6590845719649963
 30
0.0
 40
0.0196850394000006
 50
0.0
 51
90.0
  0
LINE
  5
2722E
  8
0
 10
3130.506839745743946
 20
137.6590845719649963
 30
0.0
 11
3130.506839745743946
 21
137.5527853593650036
 31
0.0
  0
LINE
  5
2722F
  8
0
 10
3130.506839745743946
 20
137.5527853593650036
 30
0.0
 11
3130.4871547063448816
 21
137.5331003199650013
 31
0.0
  0
LINE
  5
27230
  8
0
 10
3130.4871547063448816
 20
137.5331003199650013
 30
0.0
 11
3130.4871547063448816
 21
137.0606593750650006
 31
0.0
  0
LINE
  5
27231
  8
0
 10
3130.4871547063448816
 20
137.0606593750650006
 30
0.0
 11
3129.5422728166449815
 21
137.0606593750650006
 31
0.0
  0
LINE
  5
27232
  8
0
 10
3129.5422728166449815
 20
137.0606593750650006
 30
0.0
 11
3129.5422728166449815
 21
137.5331003199650013
 31
0.0
  0
LINE
  5
27233
  8
0
 10
3129.5422728166449815
 20
137.5331003199650013
 30
0.0
 11
3129.5225877772450076
 21
137.5527853593650036
 31
0.0
  0
LINE
  5
27234
  8
0
 10
3129.5225877772450076
 20
137.5527853593650036
 30
0.0
 11
3129.5225877772450076
 21
137.6590845719649963
 31
0.0
  0
ARC
  5
27235
  8
0
 10
3129.5422728166449815
 20
137.6590845719649963
 30
0.0
 40
0.0196850394000006
 50
89.9999989148049053
 51
180.0000000000015916
  0
LINE
  5
27236
  8
0
 10
3129.6505405331449765
 20
137.7102656743649902
 30
0.0
 11
3129.6505405331449765
 21
137.6787696113649986
 31
0.0
  0
LINE
  5
27237
  8
0
 10
3130.3788869897448421
 20
137.7102656743649902
 30
0.0
 11
3130.3788869897448421
 21
137.6787696113649986
 31
0.0
  0
LINE
  5
27238
  8
0
 10
3129.2469972260450959
 20
137.0016042569650097
 30
0.0
 11
3130.7824302969452219
 21
137.0016042569650097
 31
0.0
  0
ARC
  5
27239
  8
0
 10
3130.7824302969452219
 20
136.9819192175650073
 30
0.0
 40
0.0196850394000006
 50
0.00000029106808
 51
90.0
  0
LINE
  5
2723A
  8
0
 10
3130.8021153363451958
 20
136.9819192176649949
 30
0.0
 11
3130.802115339185093
 21
136.4228640995650039
 31
0.0
  0
ARC
  5
2723B
  8
0
 10
3130.7824302998851635
 20
136.4228640994649879
 30
0.0
 40
0.0196850392999988
 50
269.9999914426180112
 51
0.00000029106808
  0
LINE
  5
2723C
  8
0
 10
3130.7824302969452219
 20
136.4031790601650016
 30
0.0
 11
3129.2469972260450959
 21
136.4031792894890884
 31
0.0
  0
ARC
  5
2723D
  8
0
 10
3129.2469972289850375
 20
136.4228643318305103
 30
0.0
 40
0.0196850423414399
 50
180.0006760377432897
 51
269.9999914426180112
  0
LINE
  5
2723E
  8
0
 10
3129.227312186645122
 20
136.4228640995650039
 30
0.0
 11
3129.2273055903060595
 21
136.981919217626114
 31
0.0
  0
ARC
  5
2723F
  8
0
 10
3129.2469903985647761
 20
136.9819194498888066
 30
0.0
 40
0.0196848082602193
 50
89.9801275290109714
 51
180.000676037744995
  0
LINE
  5
27240
  8
0
 10
3129.6505405331449765
 20
137.0606593750650006
 30
0.0
 11
3129.6505405331449765
 21
137.0016042569650097
 31
0.0
  0
LINE
  5
27241
  8
0
 10
3130.3788869898448866
 20
137.0606593750650006
 30
0.0
 11
3130.3788869898448866
 21
137.0016042569650097
 31
0.0
  0
LINE
  5
27242
  8
0
 10
3129.227312186645122
 20
136.3992420522650093
 30
0.0
 11
3129.227312186645122
 21
136.3697144932650076
 31
0.0
  0
LINE
  5
27243
  8
0
 10
3129.227312186645122
 20
136.3697144932650076
 30
0.0
 11
3130.8021153363451958
 21
136.3697144932650076
 31
0.0
  0
LINE
  5
27244
  8
0
 10
3130.8021153363451958
 20
136.3697144932650076
 30
0.0
 11
3130.8021153363451958
 21
136.3992420522650093
 31
0.0
  0
LINE
  5
27245
  8
0
 10
3130.8021153363451958
 20
136.3992420522650093
 30
0.0
 11
3129.227312186645122
 21
136.3992420522650093
 31
0.0
  0
LINE
  5
27246
  8
0
 10
3129.2981783284449193
 20
136.4031790601650016
 30
0.0
 11
3129.2981783284449193
 21
136.3992420522650093
 31
0.0
  0
LINE
  5
27247
  8
0
 10
3130.7312418102451375
 20
136.4031790601650016
 30
0.0
 11
3130.7312418102451375
 21
136.3992420522650093
 31
0.0
  0
LINE
  5
27248
  8
0
 10
3129.237154706444926
 20
136.3618404774649946
 30
0.0
 11
3130.7922728156449921
 21
136.3618404774649946
 31
0.0
  0
ARC
  5
27249
  8
0
 10
3130.7922728156449921
 20
136.3519979567649898
 30
0.0
 40
0.0098425206999995
 50
0.000005821250866
 51
90.0
  0
LINE
  5
2724A
  8
0
 10
3130.8021153363451958
 20
136.3519979577650076
 30
0.0
 11
3130.8021153943450372
 21
135.7811318160649989
 31
0.0
  0
ARC
  5
2724B
  8
0
 10
3130.7922728756448123
 20
135.7811318150650095
 30
0.0
 40
0.0098425187001797
 50
269.9996565471955137
 51
0.0000058212492375
  0
LINE
  5
2724C
  8
0
 10
3130.7922728166449815
 20
135.771289296365012
 30
0.0
 11
3129.2371547073730653
 21
135.7712986183373971
 31
0.0
  0
ARC
  5
2724D
  8
0
 10
3129.2371547663719866
 20
135.7811412025411073
 30
0.0
 40
0.0098425842039048
 50
180.0546406853403028
 51
269.9996565471955137
  0
LINE
  5
2724E
  8
0
 10
3129.227312186645122
 20
135.7811318160649989
 30
0.0
 11
3129.227312186645122
 21
136.351997698172994
 31
0.0
  0
ARC
  5
2724F
  8
0
 10
3129.2371547063448816
 20
136.3519979577650076
 30
0.0
 40
0.0098425196999994
 50
90.0
 51
180.0
  0
ARC
  5
27250
  8
0
 10
3129.896960688362924
 20
136.3517899444067041
 30
0.0
 40
0.0102018037206798
 50
99.8790368334555154
 51
178.8316660632877984
  0
LINE
  5
27251
  8
0
 10
3129.8867610055449404
 20
136.3519979577650076
 30
0.0
 11
3129.8867610055449404
 21
135.7811318160649989
 31
0.0
  0
ARC
  5
27252
  8
0
 10
3129.8969192294061941
 20
135.7811572980328094
 30
0.0
 40
0.0101582558224209
 50
180.1437265179189922
 51
256.1431176523940962
  0
ARC
  5
27253
  8
0
 10
3130.1322459203252038
 20
135.7814696553529927
 30
0.0
 40
0.0104260721140714
 50
282.4637313845108224
 51
358.1431018220127953
  0
LINE
  5
27254
  8
0
 10
3130.1426665174449226
 20
135.7811318160649989
 30
0.0
 11
3130.1426665174449226
 21
136.3519979577650076
 31
0.0
  0
ARC
  5
27255
  8
0
 10
3130.1320665114089934
 20
136.3517348028977096
 30
0.0
 40
0.0106032720621522
 50
1.4221281351700461
 51
72.3774001443330803
  0
LINE
  5
27256
  8
0
 10
3129.2273121871448893
 20
135.7594782727649942
 30
0.0
 11
3130.8021153358449737
 21
135.7594782727649942
 31
0.0
  0
ARC
  5
27257
  8
0
 10
3133.824726042524162
 20
135.752096382990004
 30
0.0
 40
3.0226197202764888
 50
179.8600712003087949
 51
181.456619882803011
  0
ARC
  5
27258
  8
0
 10
3132.0323007417218832
 20
135.7065180701156919
 30
0.0
 40
1.2296150238080941
 50
181.456619882803011
 51
190.0892483751530904
  0
ARC
  5
27259
  8
0
 10
3131.9782748205138887
 20
135.6969050471709011
 30
0.0
 40
1.1747405272499889
 50
190.0892483751530904
 51
209.5273407717845942
  0
ARC
  5
2725A
  8
0
 10
3131.1541148675619297
 20
135.2300984748553105
 30
0.0
 40
0.2275615557732456
 50
209.5273407717845942
 51
245.5108178753114032
  0
ARC
  5
2725B
  8
0
 10
3131.2171194439119972
 20
135.3684186016180888
 30
0.0
 40
0.3795550888881797
 50
245.5108178753114032
 51
261.4022243331481263
  0
ARC
  5
2725C
  8
0
 10
3126.1848905046431355
 20
135.7492436653199093
 30
0.0
 40
3.0424388963957099
 50
358.9440282398913951
 51
0.1927404090992363
  0
ARC
  5
2725D
  8
0
 10
3127.9567012124011853
 20
135.7165851701180941
 30
0.0
 40
1.2703272290811849
 50
352.9422914343447246
 51
358.9440282398913951
  0
ARC
  5
2725E
  8
0
 10
3127.773212129687181
 20
135.7393024170814897
 30
0.0
 40
1.455217241750064
 50
340.7615094810856249
 51
352.9422914343447246
  0
ARC
  5
2725F
  8
0
 10
3128.6442124647110177
 20
135.4353317719769905
 30
0.0
 40
0.5326990919572065
 50
315.5424026741465013
 51
340.7615094810856249
  0
ARC
  5
27260
  8
0
 10
3128.8578198890468229
 20
135.2257308590000093
 30
0.0
 40
0.2334321969417234
 50
274.8337338626666906
 51
315.5424026741465013
  0
ARC
  5
27261
  8
0
 10
3130.2337898750902241
 20
131.5943188016389058
 30
0.0
 40
1.591433751742678
 50
112.6247388521929054
 51
115.942857040808903
  0
ARC
  5
27262
  8
0
 10
3130.0908973762379901
 20
131.9371786461875047
 30
0.0
 40
1.219989086641454
 50
101.1661315528336047
 51
112.6247388521929054
  0
ARC
  5
27263
  8
0
 10
3130.0842025348529205
 20
131.520138661301786
 30
0.0
 40
1.6301787721435561
 50
92.4430572955279928
 51
98.0952886068444627
  0
ARC
  5
27264
  8
0
 10
3129.9781046132497977
 20
131.8138002598900869
 30
0.0
 40
1.335537320514705
 50
82.5493535544670607
 51
88.4292371164039963
  0
ARC
  5
27265
  8
0
 10
3130.0111068994769994
 20
132.1880349987775105
 30
0.0
 40
0.9603128521721556
 50
67.0184373941541196
 51
81.6063763213488187
  0
ARC
  5
27266
  8
0
 10
3129.008052902981035
 20
129.8228720682672872
 30
0.0
 40
3.5293813619141319
 50
65.1466465841068612
 51
67.0184373941541196
  0
LINE
  5
27267
  8
0
 10
3129.6398948837450007
 20
131.3874310286649916
 30
0.0
 11
3130.3895326392448624
 21
131.3874310286649916
 31
0.0
  0
ARC
  5
27268
  8
0
 10
3130.3895326392448624
 20
131.4071160680649939
 30
0.0
 40
0.0196850394000023
 50
270.0
 51
357.6140557158673801
  0
LINE
  5
27269
  8
0
 10
3130.4092006131509152
 20
131.406296569065006
 30
0.0
 11
3130.4671279309281999
 21
132.7965520477073937
 31
0.0
  0
ARC
  5
2726A
  8
0
 10
3130.4592607411768768
 20
132.7968798473152958
 30
0.0
 40
0.0078740159497551
 50
357.6140557158689717
 51
90.000043890760594
  0
LINE
  5
2726B
  8
0
 10
3130.4592607351451079
 20
132.804753863265006
 30
0.0
 11
3129.5701667878452099
 21
132.8047531821848111
 31
0.0
  0
ARC
  5
2726C
  8
0
 10
3129.5701667938769788
 20
132.7968791604228045
 30
0.0
 40
0.007874021762048
 50
90.000043890760594
 51
179.9949999695595864
  0
LINE
  5
2726D
  8
0
 10
3129.5622927721437918
 20
132.796879847565009
 30
0.0
 11
3129.620226909944904
 21
131.406296569065006
 31
0.0
  0
ARC
  5
2726E
  8
0
 10
3129.6398948837450007
 20
131.4071160680649939
 30
0.0
 40
0.0196850393999998
 50
182.3859442841115026
 51
270.0000002910614967
  0
LINE
  5
2726F
  8
0
 10
3129.5521153363438316
 20
133.0323665092660974
 30
0.0
 11
3129.5521153363438316
 21
132.8953050443649886
 31
0.0
  0
LINE
  5
27270
  8
0
 10
3129.5521153363438316
 20
132.8953050443649886
 30
0.0
 11
3130.477312186645122
 21
132.8953050443649886
 31
0.0
  0
LINE
  5
27271
  8
0
 10
3130.477312186645122
 20
132.8953050443649886
 30
0.0
 11
3130.477312186645122
 21
133.0318921609427036
 31
0.0
  0
ARC
  5
27272
  8
0
 10
3129.6347925016448244
 20
132.8756200050650023
 30
0.0
 40
0.0196850393999881
 50
359.9999999999690772
 51
90.0000000000260485
  0
LINE
  5
27273
  8
0
 10
3129.6544775410438888
 20
132.8756200050650023
 30
0.0
 11
3129.6544775410438888
 21
132.8362499262649976
 31
0.0
  0
ARC
  5
27274
  8
0
 10
3129.6347925016448244
 20
132.8362499262649976
 30
0.0
 40
0.0196850394000112
 50
270.0057752171870789
 51
359.999999999970612
  0
LINE
  5
27275
  8
0
 10
3129.6021940764439933
 20
132.804753863265006
 30
0.0
 11
3129.6021940764439933
 21
132.8165648869650113
 31
0.0
  0
LINE
  5
27276
  8
0
 10
3129.6021940764439933
 20
132.8165648869650113
 30
0.0
 11
3130.4272334465449603
 21
132.8165648869650113
 31
0.0
  0
LINE
  5
27277
  8
0
 10
3130.4272334465449603
 20
132.8165648869650113
 30
0.0
 11
3130.4272334465449603
 21
132.804753863265006
 31
0.0
  0
ARC
  5
27278
  8
0
 10
3130.3946350213450387
 20
132.8756200050650023
 30
0.0
 40
0.0196850393999881
 50
89.9999999999739515
 51
180.0000000000308944
  0
LINE
  5
27279
  8
0
 10
3130.3749499819450648
 20
132.8756200050650023
 30
0.0
 11
3130.3749499819450648
 21
132.8362499262649976
 31
0.0
  0
ARC
  5
2727A
  8
0
 10
3130.3946350213450387
 20
132.8362499262649976
 30
0.0
 40
0.0196850394000112
 50
180.0000000000293028
 51
269.9942247828129211
  0
ARC
  5
2727B
  8
0
 10
3130.0146921523910351
 20
132.9972632104268939
 30
0.0
 40
1.325625412314519
 50
89.999065121348707
 51
92.7024915148720652
  0
ARC
  5
2727C
  8
0
 10
3130.0058301796848355
 20
133.1850073835533976
 30
0.0
 40
1.1376722024372541
 50
92.7024915148720652
 51
97.8383706567822173
  0
ARC
  5
2727D
  8
0
 10
3129.9384467482941545
 20
133.6744803242557964
 30
0.0
 40
0.6435828517061103
 50
97.8383706567822173
 51
103.6807000147057067
  0
ARC
  5
2727E
  8
0
 10
3129.8690608953079391
 20
133.9595297879945974
 30
0.0
 40
0.3502100626264428
 50
103.6807000147057067
 51
111.3107005673069949
  0
ARC
  5
2727F
  8
0
 10
3129.7894100505850474
 20
134.1637109590535033
 30
0.0
 40
0.1310429855366077
 50
111.3107005673069949
 51
124.7730950094634039
  0
ARC
  5
27280
  8
0
 10
3129.7394322943960105
 20
134.2356916277853998
 30
0.0
 40
0.04341312313396
 50
124.7730950094634039
 51
149.3228936829065958
  0
ARC
  5
27281
  8
0
 10
3129.7172944222061233
 20
134.2488241730962955
 30
0.0
 40
0.0176730933851642
 50
149.3228936829052884
 51
210.7954160675631101
  0
ARC
  5
27282
  8
0
 10
3130.0146954760721201
 20
135.5088006182922982
 30
0.0
 40
1.3340328967485531
 50
268.4529503415952263
 51
270.0007727271349722
  0
ARC
  5
27283
  8
0
 10
3130.0125493829200423
 20
135.4310370556360965
 30
0.0
 40
1.256239740500112
 50
264.9845127119776862
 51
268.455042127030481
  0
ARC
  5
27284
  8
0
 10
3129.9786975461411203
 20
135.040443200681807
 30
0.0
 40
0.864184434355835
 50
256.789421614139485
 51
265.0667905094969115
  0
ARC
  5
27285
  8
0
 10
3129.836012965853115
 20
134.4326091968877108
 30
0.0
 40
0.2398279131114953
 50
241.0488929320655984
 51
256.789421614139485
  0
ARC
  5
27286
  8
0
 10
3129.7433255806217858
 20
134.2650596958609128
 30
0.0
 40
0.0483500118400317
 50
211.5290210078163113
 51
241.0488929320655984
  0
ARC
  5
27287
  8
0
 10
3129.7546403928690779
 20
134.3108697201359121
 30
0.0
 40
0.066805352764098
 50
224.217907204681012
 51
231.8161607878247992
  0
ARC
  5
27288
  8
0
 10
3129.7698216256349042
 20
134.3301728266577868
 30
0.0
 40
0.0913630348548323
 50
231.8161607878247992
 51
245.0108887355034142
  0
ARC
  5
27289
  8
0
 10
3130.0171638723618344
 20
134.7706846508208116
 30
0.0
 40
0.5963445040201196
 50
241.3482332718629948
 51
248.6073966432464886
  0
ARC
  5
2728A
  8
0
 10
3130.0172204944269652
 20
134.7770400372002939
 30
0.0
 40
0.602286936711522
 50
248.8229100658313087
 51
256.4112409429056925
  0
ARC
  5
2728B
  8
0
 10
3129.9575043425111289
 20
134.4829175854235075
 30
0.0
 40
0.3025696338377783
 50
254.3164161108539929
 51
262.0917291540637279
  0
ARC
  5
2728C
  8
0
 10
3130.0054679455779478
 20
134.7020222139526879
 30
0.0
 40
0.5264760235573755
 50
260.2019668523669225
 51
266.9038848815552001
  0
ARC
  5
2728D
  8
0
 10
3129.7486274457219224
 20
129.5951531192893924
 30
0.0
 40
4.58685185778904
 50
86.787808918954056
 51
87.1457430561771247
  0
ARC
  5
2728E
  8
0
 10
3130.0147747877122129
 20
134.7873400201380889
 30
0.0
 40
0.6057888395217521
 50
262.6834935129942892
 51
269.9942003242354076
  0
ARC
  5
2728F
  8
0
 10
3130.0144950792400778
 20
134.78500668435899
 30
0.0
 40
0.6034388815881144
 50
254.9479373903770067
 51
262.6816211114121984
  0
ARC
  5
27290
  8
0
 10
3130.013512030477159
 20
134.7813511861446898
 30
0.0
 40
0.5996535081499658
 50
247.2973823891416885
 51
254.9479373903770067
  0
ARC
  5
27291
  8
0
 10
3130.0120992922561527
 20
134.7779743600644053
 30
0.0
 40
0.5959930732501777
 50
244.808983203815302
 51
247.2973823891416885
  0
LINE
  5
27292
  8
0
 10
3129.7584223372191445
 20
134.2386639245590061
 30
0.0
 11
3129.7579169216319315
 21
134.2398271791421962
 31
0.0
  0
LINE
  5
27293
  8
0
 10
3129.7584223372191445
 20
134.2386639245590061
 30
0.0
 11
3129.7749140363448532
 21
134.2485302764650044
 31
0.0
  0
LINE
  5
27294
  8
0
 10
3129.7749140363448532
 20
134.2485302764650044
 30
0.0
 11
3129.7749140363448532
 21
134.2367932550650096
 31
0.0
  0
LINE
  5
27295
  8
0
 10
3129.7749140363448532
 20
134.2367932550650096
 30
0.0
 11
3129.8090918921448065
 21
134.2367932550650096
 31
0.0
  0
LINE
  5
27296
  8
0
 10
3129.8090918921448065
 20
134.2367932550650096
 30
0.0
 11
3129.8090918921448065
 21
134.241686364237097
 31
0.0
  0
LINE
  5
27297
  8
0
 10
3129.7579169216837727
 20
134.2398271791199136
 30
0.0
 11
3129.7543215949140176
 21
134.2415353663830899
 31
0.0
  0
LINE
  5
27298
  8
0
 10
3129.7543215949140176
 20
134.2415353663830899
 30
0.0
 11
3129.7444790752510926
 21
134.2492221466399087
 31
0.0
  0
LINE
  5
27299
  8
0
 10
3129.7444790752510926
 20
134.2492221466399087
 30
0.0
 11
3129.7543198162447879
 21
134.2478096443649918
 31
0.0
  0
LINE
  5
2729A
  8
0
 10
3129.7543198162447879
 20
134.2478096443649918
 30
0.0
 11
3129.7563393128898497
 21
134.2468497793591098
 31
0.0
  0
LINE
  5
2729B
  8
0
 10
3129.7563393128898497
 20
134.2468497793591098
 30
0.0
 11
3129.7722141570438907
 21
134.2564590468649897
 31
0.0
  0
LINE
  5
2729C
  8
0
 10
3129.756339315445075
 20
134.2468497467650081
 30
0.0
 11
3129.7561495533450397
 21
134.2492708464650093
 31
0.0
  0
LINE
  5
2729D
  8
0
 10
3129.7561495533450397
 20
134.2492708464650093
 30
0.0
 11
3129.7563393440509572
 21
134.251924651336509
 31
0.0
  0
LINE
  5
2729E
  8
0
 10
3129.7563393440509572
 20
134.251924651336509
 30
0.0
 11
3129.7672872686080154
 21
134.258652053376494
 31
0.0
  0
LINE
  5
2729F
  8
0
 10
3129.756339315844798
 20
134.2519246336649985
 30
0.0
 11
3129.7543204867452005
 21
134.2528846792590969
 31
0.0
  0
LINE
  5
272A0
  8
0
 10
3129.7543204867452005
 20
134.2528846792590969
 30
0.0
 11
3129.7444790751551409
 21
134.2623143185560934
 31
0.0
  0
LINE
  5
272A1
  8
0
 10
3129.7444790751551409
 20
134.2623143185560934
 30
0.0
 11
3129.7543205855449742
 21
134.2626448234649956
 31
0.0
  0
LINE
  5
272A2
  8
0
 10
3129.7543205855449742
 20
134.2626448234649956
 30
0.0
 11
3129.7577770618950126
 21
134.2610025611149922
 31
0.0
  0
LINE
  5
272A3
  8
0
 10
3129.7577770618950126
 20
134.2610025611149922
 30
0.0
 11
3129.7584231708128755
 21
134.2627331176720133
 31
0.0
  0
ARC
  5
272A4
  8
0
 10
3130.0124439119131239
 20
134.8028008239718076
 30
0.0
 40
0.5968246512143286
 50
244.8100615749563929
 51
245.7468930816374098
  0
ARC
  5
272A5
  8
0
 10
3130.0123823863900725
 20
134.802661632934786
 30
0.0
 40
0.596672472476718
 50
245.746789374289591
 51
247.9285878473436924
  0
ARC
  5
272A6
  8
0
 10
3130.0137627604822228
 20
134.8061512706441931
 30
0.0
 40
0.6004250692697949
 50
247.9316469837696957
 51
256.2098947786843155
  0
ARC
  5
272A7
  8
0
 10
3130.0147606143827943
 20
134.8110175727659055
 30
0.0
 40
0.6053942715833392
 50
261.6651705019987162
 51
269.9955657400092264
  0
ARC
  5
272A8
  8
0
 10
3130.0145863716379608
 20
134.8098356070123884
 30
0.0
 40
0.6041995320994265
 50
256.2173245193998241
 51
261.6652717163983084
  0
LINE
  5
272A9
  8
0
 10
3129.7560307124908832
 20
134.249417957517295
 30
0.0
 11
3129.7461728598391346
 21
134.2584838650373058
 31
0.0
  0
LINE
  5
272AA
  8
0
 10
3129.7461728598391346
 20
134.2584838650373058
 30
0.0
 11
3129.7264827453700491
 21
134.2687212294929111
 31
0.0
  0
LINE
  5
272AB
  8
0
 10
3129.7264827453700491
 20
134.2687212294929111
 30
0.0
 11
3129.7166402256889342
 21
134.2699093089109112
 31
0.0
  0
LINE
  5
272AC
  8
0
 10
3129.7166402256889342
 20
134.2699093089109112
 30
0.0
 11
3129.7264827452681857
 21
134.2607039443660994
 31
0.0
  0
LINE
  5
272AD
  8
0
 10
3129.7264827452681857
 20
134.2607039443660994
 30
0.0
 11
3129.7461677846449675
 21
134.2504690405631891
 31
0.0
  0
LINE
  5
272AE
  8
0
 10
3129.7461677846449675
 20
134.2504690405631891
 30
0.0
 11
3129.7560307124908832
 21
134.249417957517295
 31
0.0
  0
LINE
  5
272AF
  8
0
 10
3129.7560103042010269
 20
134.2391899055521947
 30
0.0
 11
3129.7461677845981285
 21
134.2465062558659099
 31
0.0
  0
LINE
  5
272B0
  8
0
 10
3129.7461677845981285
 20
134.2465062558659099
 30
0.0
 11
3129.7264827453209364
 21
134.256763943040113
 31
0.0
  0
LINE
  5
272B1
  8
0
 10
3129.7264827453209364
 20
134.256763943040113
 30
0.0
 11
3129.7166402257171285
 21
134.259781127030891
 31
0.0
  0
LINE
  5
272B2
  8
0
 10
3129.7166402257171285
 20
134.259781127030891
 30
0.0
 11
3129.7264827452440841
 21
134.2523494968650084
 31
0.0
  0
LINE
  5
272B3
  8
0
 10
3129.7264827452440841
 20
134.2523494968650084
 30
0.0
 11
3129.7461677846690691
 21
134.242018810854006
 31
0.0
  0
LINE
  5
272B4
  8
0
 10
3129.7461677846690691
 20
134.242018810854006
 30
0.0
 11
3129.7560103043037998
 21
134.2391899055265867
 31
0.0
  0
LINE
  5
272B5
  8
0
 10
3129.7444790752119843
 20
134.241909000986908
 30
0.0
 11
3129.75432159490083
 21
134.2386767132977923
 31
0.0
  0
LINE
  5
272B6
  8
0
 10
3129.75432159490083
 20
134.2386767132977923
 30
0.0
 11
3129.7660281557041344
 21
134.2331984724484926
 31
0.0
  0
LINE
  5
272B7
  8
0
 10
3129.7660281557041344
 20
134.2331984724484926
 30
0.0
 11
3129.7709369806739232
 21
134.2293872043564988
 31
0.0
  0
LINE
  5
272B8
  8
0
 10
3129.7709369806739232
 20
134.2293872043564988
 30
0.0
 11
3129.7836068447950311
 21
134.2238792092649931
 31
0.0
  0
LINE
  5
272B9
  8
0
 10
3129.7836068447950311
 20
134.2238792092649931
 30
0.0
 11
3129.7740066343440049
 21
134.2268209256172042
 31
0.0
  0
LINE
  5
272BA
  8
0
 10
3129.7740066343440049
 20
134.2268209256172042
 30
0.0
 11
3129.7543215949449404
 21
134.235949990857705
 31
0.0
  0
LINE
  5
272BB
  8
0
 10
3129.7543215949449404
 20
134.235949990857705
 30
0.0
 11
3129.7444790752119843
 21
134.241909000986908
 31
0.0
  0
LINE
  5
272BC
  8
0
 10
3129.7242234073369218
 20
134.2773901814308886
 30
0.0
 11
3129.7264827452440841
 21
134.2749310016326945
 31
0.0
  0
LINE
  5
272BD
  8
0
 10
3129.7264827452440841
 20
134.2749310016326945
 30
0.0
 11
3129.7461677846449675
 21
134.264673314465
 31
0.0
  0
LINE
  5
272BE
  8
0
 10
3129.7461677846449675
 20
134.264673314465
 30
0.0
 11
3129.7560103043888375
 21
134.2653742492859976
 31
0.0
  0
LINE
  5
272BF
  8
0
 10
3129.7560103043888375
 20
134.2653742492859976
 30
0.0
 11
3129.7461677846449675
 21
134.2762204397650123
 31
0.0
  0
LINE
  5
272C0
  8
0
 10
3129.7461677846449675
 20
134.2762204397650123
 30
0.0
 11
3129.7339976752191433
 21
134.2824616757447984
 31
0.0
  0
LINE
  5
272C1
  8
0
 10
3129.7444790752028894
 20
134.2811855166881116
 30
0.0
 11
3129.7543215949699515
 21
134.2832437917001869
 31
0.0
  0
LINE
  5
272C2
  8
0
 10
3129.7543215949699515
 20
134.2832437917001869
 30
0.0
 11
3129.7740066343440049
 21
134.2741147263940888
 31
0.0
  0
LINE
  5
272C3
  8
0
 10
3129.7740066343440049
 20
134.2741147263940888
 30
0.0
 11
3129.7838491540110226
 21
134.263018807481501
 31
0.0
  0
LINE
  5
272C4
  8
0
 10
3129.7838491540110226
 20
134.263018807481501
 30
0.0
 11
3129.7709369808208066
 21
134.2682689709650106
 31
0.0
  0
LINE
  5
272C5
  8
0
 10
3129.7709369808208066
 20
134.2682689709650106
 30
0.0
 11
3129.7660281557450617
 21
134.2644577028650019
 31
0.0
  0
LINE
  5
272C6
  8
0
 10
3129.7660281557450617
 20
134.2644577028650019
 30
0.0
 11
3129.7543215949240221
 21
134.2699359437864075
 31
0.0
  0
LINE
  5
272C7
  8
0
 10
3129.7543215949240221
 20
134.2699359437864075
 30
0.0
 11
3129.7444790752119843
 21
134.2811855166766861
 31
0.0
  0
LINE
  5
272C8
  8
0
 10
3129.7572366568251709
 20
134.2914069153362107
 30
0.0
 11
3129.7740066343098988
 21
134.2836176165147037
 31
0.0
  0
LINE
  5
272C9
  8
0
 10
3129.7740066343098988
 20
134.2836176165147037
 30
0.0
 11
3129.7838491539928327
 21
134.2874540251773965
 31
0.0
  0
LINE
  5
272CA
  8
0
 10
3129.7838491539928327
 20
134.2874540251773965
 30
0.0
 11
3129.7763691573959477
 21
134.2972505745740079
 31
0.0
  0
LINE
  5
272CB
  8
0
 10
3129.778924808641932
 20
134.297941628575586
 30
0.0
 11
3129.7821604445362027
 21
134.2936144119823041
 31
0.0
  0
LINE
  5
272CC
  8
0
 10
3129.7821604445362027
 20
134.2936144119823041
 30
0.0
 11
3129.8018454839620972
 21
134.2855113933306939
 31
0.0
  0
LINE
  5
272CD
  8
0
 10
3129.8018454839620972
 20
134.2855113933306939
 30
0.0
 11
3129.8116880036468501
 21
134.2907234691492988
 31
0.0
  0
LINE
  5
272CE
  8
0
 10
3129.8116880036468501
 20
134.2907234691492988
 30
0.0
 11
3129.8022843465441838
 21
134.3034943840033009
 31
0.0
  0
LINE
  5
272CF
  8
0
 10
3129.8050813675818063
 20
134.3040933500406027
 30
0.0
 11
3129.8099992942220524
 21
134.2973298575915067
 31
0.0
  0
LINE
  5
272D0
  8
0
 10
3129.8099992942220524
 20
134.2973298575915067
 30
0.0
 11
3129.8296843335961057
 21
134.2902715915388967
 31
0.0
  0
LINE
  5
272D1
  8
0
 10
3129.8296843335961057
 20
134.2902715915388967
 30
0.0
 11
3129.8395268533258786
 21
134.2968525016057129
 31
0.0
  0
LINE
  5
272D2
  8
0
 10
3129.8395268533258786
 20
134.2968525016057129
 30
0.0
 11
3129.8307805815888969
 21
134.3089934317304994
 31
0.0
  0
LINE
  5
272D3
  8
0
 10
3129.8339063775069917
 20
134.3095394545858881
 30
0.0
 11
3129.8378381437978533
 21
134.3039248714781877
 31
0.0
  0
LINE
  5
272D4
  8
0
 10
3129.8378381437978533
 20
134.3039248714781877
 30
0.0
 11
3129.8575231832451209
 21
134.2978684431649867
 31
0.0
  0
LINE
  5
272D5
  8
0
 10
3129.8575231832451209
 20
134.2978684431649867
 30
0.0
 11
3129.8673657028930393
 21
134.3058341339219908
 31
0.0
  0
LINE
  5
272D6
  8
0
 10
3129.8673657028930393
 20
134.3058341339219908
 30
0.0
 11
3129.8619245302479612
 21
134.3135414788550861
 31
0.0
  0
LINE
  5
272D7
  8
0
 10
3129.8652850788707838
 20
134.3139649181115942
 30
0.0
 11
3129.8656769935450939
 21
134.3134002872650115
 31
0.0
  0
LINE
  5
272D8
  8
0
 10
3129.8656769935450939
 20
134.3134002872650115
 30
0.0
 11
3129.8853620328968645
 21
134.3083194123719863
 31
0.0
  0
LINE
  5
272D9
  8
0
 10
3129.8853620328968645
 20
134.3083194123719863
 30
0.0
 11
3129.8947332903048846
 21
134.3172421301358099
 31
0.0
  0
LINE
  5
272DA
  8
0
 10
3129.8935158432450407
 20
134.3106382944376946
 30
0.0
 11
3129.8836733235148131
 21
134.3016624536371069
 31
0.0
  0
LINE
  5
272DB
  8
0
 10
3129.8836733235148131
 20
134.3016624536371069
 30
0.0
 11
3129.8935158431640957
 21
134.2887746405590121
 31
0.0
  0
LINE
  5
272DC
  8
0
 10
3129.8935158431640957
 20
134.2887746405590121
 30
0.0
 11
3129.9132008825317826
 21
134.2848449542447895
 31
0.0
  0
LINE
  5
272DD
  8
0
 10
3129.9132008825317826
 20
134.2848449542447895
 30
0.0
 11
3129.9230434023079397
 21
134.2936993819726013
 31
0.0
  0
LINE
  5
272DE
  8
0
 10
3129.9230434023079397
 20
134.2936993819726013
 30
0.0
 11
3129.9132008826509264
 21
134.3066029833155142
 31
0.0
  0
LINE
  5
272DF
  8
0
 10
3129.9132008826509264
 20
134.3066029833155142
 30
0.0
 11
3129.8935158432450407
 21
134.3106382944376946
 31
0.0
  0
LINE
  5
272E0
  8
0
 10
3129.916136035009913
 20
134.3191383286429073
 30
0.0
 11
3129.911512173167921
 21
134.3143345558382009
 31
0.0
  0
LINE
  5
272E1
  8
0
 10
3129.911512173167921
 20
134.3143345558382009
 30
0.0
 11
3129.9213546928608594
 21
134.3009769278220062
 31
0.0
  0
LINE
  5
272E2
  8
0
 10
3129.9213546928608594
 20
134.3009769278220062
 30
0.0
 11
3129.9410397322449171
 21
134.2979949751650111
 31
0.0
  0
LINE
  5
272E3
  8
0
 10
3129.9410397322449171
 20
134.2979949751650111
 30
0.0
 11
3129.9508822519428577
 21
134.3082798299346052
 31
0.0
  0
LINE
  5
272E4
  8
0
 10
3129.9508822519428577
 20
134.3082798299346052
 30
0.0
 11
3129.9416386038110431
 21
134.3208671820256086
 31
0.0
  0
LINE
  5
272E5
  8
0
 10
3129.9455883676819212
 20
134.3210835096492133
 30
0.0
 11
3129.9491935425439806
 21
134.3161003279057866
 31
0.0
  0
LINE
  5
272E6
  8
0
 10
3129.9491935425439806
 20
134.3161003279057866
 30
0.0
 11
3129.9688785818439101
 21
134.3140771797359889
 31
0.0
  0
LINE
  5
272E7
  8
0
 10
3129.9688785818439101
 20
134.3140771797359889
 30
0.0
 11
3129.9758249250489825
 21
134.3223187082884067
 31
0.0
  0
LINE
  5
272E8
  8
0
 10
3129.9115121731119871
 20
134.2787682238185027
 30
0.0
 11
3129.9213546928431242
 21
134.2872311493653115
 31
0.0
  0
LINE
  5
272E9
  8
0
 10
3129.9213546928431242
 20
134.2872311493653115
 30
0.0
 11
3129.9410397322121753
 21
134.2842978919678956
 31
0.0
  0
LINE
  5
272EA
  8
0
 10
3129.9410397322121753
 20
134.2842978919678956
 30
0.0
 11
3129.9508822518910165
 21
134.2729662353586946
 31
0.0
  0
LINE
  5
272EB
  8
0
 10
3129.9508822518910165
 20
134.2729662353586946
 30
0.0
 11
3129.9410397322449171
 21
134.2645874910523105
 31
0.0
  0
LINE
  5
272EC
  8
0
 10
3129.9410397322449171
 20
134.2645874910523105
 30
0.0
 11
3129.9213546928908727
 21
134.2674572021695099
 31
0.0
  0
LINE
  5
272ED
  8
0
 10
3129.9213546928908727
 20
134.2674572021695099
 30
0.0
 11
3129.9115121731110776
 21
134.278768223817309
 31
0.0
  0
LINE
  5
272EE
  8
0
 10
3129.8558344739499262
 20
134.2918739806513884
 30
0.0
 11
3129.8656769935450939
 21
134.2994456255649993
 31
0.0
  0
LINE
  5
272EF
  8
0
 10
3129.8656769935450939
 20
134.2994456255649993
 30
0.0
 11
3129.8853620329450678
 21
134.2944513734163081
 31
0.0
  0
LINE
  5
272F0
  8
0
 10
3129.8853620329450678
 20
134.2944513734163081
 30
0.0
 11
3129.8952045525948051
 21
134.281999837780603
 31
0.0
  0
LINE
  5
272F1
  8
0
 10
3129.8952045525948051
 20
134.281999837780603
 30
0.0
 11
3129.8853620329450678
 21
134.2745180577290114
 31
0.0
  0
LINE
  5
272F2
  8
0
 10
3129.8853620329450678
 20
134.2745180577290114
 30
0.0
 11
3129.8656769935678312
 21
134.2793995512354002
 31
0.0
  0
LINE
  5
272F3
  8
0
 10
3129.8656769935678312
 20
134.2793995512354002
 30
0.0
 11
3129.8558344739099084
 21
134.2918739806218866
 31
0.0
  0
LINE
  5
272F4
  8
0
 10
3129.8279956241881337
 20
134.2849151704627104
 30
0.0
 11
3129.8378381438437827
 21
134.2911158227427961
 31
0.0
  0
LINE
  5
272F5
  8
0
 10
3129.8378381438437827
 20
134.2911158227427961
 30
0.0
 11
3129.8575231832451209
 21
134.2851488543649907
 31
0.0
  0
LINE
  5
272F6
  8
0
 10
3129.8575231832451209
 20
134.2851488543649907
 30
0.0
 11
3129.8673657029157766
 21
134.2730974060081905
 31
0.0
  0
LINE
  5
272F7
  8
0
 10
3129.8673657029157766
 20
134.2730974060081905
 30
0.0
 11
3129.8575231832160171
 21
134.2669542876843991
 31
0.0
  0
LINE
  5
272F8
  8
0
 10
3129.8575231832160171
 20
134.2669542876843991
 30
0.0
 11
3129.8378381438069482
 21
134.2728062038343921
 31
0.0
  0
LINE
  5
272F9
  8
0
 10
3129.8378381438069482
 20
134.2728062038343921
 30
0.0
 11
3129.8279956241881337
 21
134.2849151704627104
 31
0.0
  0
LINE
  5
272FA
  8
0
 10
3129.8099992942438803
 20
134.2856192270448048
 30
0.0
 11
3129.8296843336452184
 21
134.2786504203650111
 31
0.0
  0
LINE
  5
272FB
  8
0
 10
3129.8296843336452184
 20
134.2786504203650111
 30
0.0
 11
3129.8395268533008675
 21
134.2669548622571085
 31
0.0
  0
LINE
  5
272FC
  8
0
 10
3129.8395268533008675
 20
134.2669548622571085
 30
0.0
 11
3129.8296843336452184
 21
134.2621377872023913
 31
0.0
  0
LINE
  5
272FD
  8
0
 10
3129.8296843336452184
 20
134.2621377872023913
 30
0.0
 11
3129.8099992942438803
 21
134.2689938473650102
 31
0.0
  0
LINE
  5
272FE
  8
0
 10
3129.8099992942438803
 20
134.2689938473650102
 30
0.0
 11
3129.8099992942438803
 21
134.2803799747653954
 31
0.0
  0
LINE
  5
272FF
  8
0
 10
3129.8099992942438803
 20
134.2803799747653954
 30
0.0
 11
3129.8099992989327802
 21
134.2856192253850907
 31
0.0
  0
LINE
  5
27300
  8
0
 10
3129.8099992989327802
 20
134.2856192253850907
 30
0.0
 11
3129.8001567746218825
 21
134.2807792508691023
 31
0.0
  0
LINE
  5
27301
  8
0
 10
3129.8001567746218825
 20
134.2807792508691023
 30
0.0
 11
3129.8099992941711207
 21
134.2689938473909024
 31
0.0
  0
LINE
  5
27302
  8
0
 10
3129.8296843336452184
 20
134.2621377872023913
 30
0.0
 11
3129.8296843293901475
 21
134.2786504218711912
 31
0.0
  0
LINE
  5
27303
  8
0
 10
3129.7723179248710039
 20
134.2795060776888079
 30
0.0
 11
3129.7821604445448429
 21
134.2829732388634909
 31
0.0
  0
LINE
  5
27304
  8
0
 10
3129.7821604445448429
 20
134.2829732388634909
 30
0.0
 11
3129.8018454839698279
 21
134.274956841439888
 31
0.0
  0
LINE
  5
27305
  8
0
 10
3129.8018454839698279
 20
134.274956841439888
 30
0.0
 11
3129.8116880036041039
 21
134.263578534162491
 31
0.0
  0
LINE
  5
27306
  8
0
 10
3129.8116880036041039
 20
134.263578534162491
 30
0.0
 11
3129.8018454839830156
 21
134.2600955788655028
 31
0.0
  0
LINE
  5
27307
  8
0
 10
3129.8018454839830156
 20
134.2600955788655028
 30
0.0
 11
3129.7821604446298807
 21
134.2680063748452142
 31
0.0
  0
LINE
  5
27308
  8
0
 10
3129.7821604446298807
 20
134.2680063748452142
 30
0.0
 11
3129.7723179248710039
 21
134.2795060776888079
 31
0.0
  0
LINE
  5
27309
  8
0
 10
3129.800156166852048
 20
134.2564870871503047
 30
0.0
 11
3129.8100003776380618
 21
134.2596136315833917
 31
0.0
  0
LINE
  5
2730A
  8
0
 10
3129.8100003776380618
 20
134.2596136315833917
 30
0.0
 11
3129.8296843335519952
 21
134.2528122322208048
 31
0.0
  0
LINE
  5
2730B
  8
0
 10
3129.8296843335519952
 20
134.2528122322208048
 30
0.0
 11
3129.8395268533281524
 21
134.2429483960023049
 31
0.0
  0
LINE
  5
2730C
  8
0
 10
3129.8395268533281524
 20
134.2429483960023049
 30
0.0
 11
3129.800156166852048
 21
134.2564870871503047
 31
0.0
  0
LINE
  5
2730D
  8
0
 10
3129.8279956241981381
 20
134.2579231558297863
 30
0.0
 11
3129.8378381438437827
 21
134.2623821985075097
 31
0.0
  0
LINE
  5
2730E
  8
0
 10
3129.8378381438437827
 20
134.2623821985075097
 30
0.0
 11
3129.8575231832451209
 21
134.2565883517243037
 31
0.0
  0
LINE
  5
2730F
  8
0
 10
3129.8575231832451209
 20
134.2565883517243037
 30
0.0
 11
3129.8673657029930837
 21
134.2464066018241908
 31
0.0
  0
LINE
  5
27310
  8
0
 10
3129.8673657029930837
 20
134.2464066018241908
 30
0.0
 11
3129.8575231832810459
 21
134.2419574372582076
 31
0.0
  0
LINE
  5
27311
  8
0
 10
3129.8575231832810459
 20
134.2419574372582076
 30
0.0
 11
3129.837838143837871
 21
134.2476803084751111
 31
0.0
  0
LINE
  5
27312
  8
0
 10
3129.837838143837871
 20
134.2476803084751111
 30
0.0
 11
3129.8279956241981381
 21
134.2579231558297863
 31
0.0
  0
LINE
  5
27313
  8
0
 10
3129.8558312417449088
 20
134.238225192464995
 30
0.0
 11
3129.8656769936228557
 21
134.2423236855632069
 31
0.0
  0
LINE
  5
27314
  8
0
 10
3129.8656769936228557
 20
134.2423236855632069
 30
0.0
 11
3129.8853620328850411
 21
134.2376095465585024
 31
0.0
  0
LINE
  5
27315
  8
0
 10
3129.8853620328850411
 20
134.2376095465585024
 30
0.0
 11
3129.8952045526179973
 21
134.2288354313407126
 31
0.0
  0
LINE
  5
27316
  8
0
 10
3129.8952045526179973
 20
134.2288354313407126
 30
0.0
 11
3129.8558312417449088
 21
134.238225192464995
 31
0.0
  0
LINE
  5
27317
  8
0
 10
3129.8558344737898551
 20
134.2621324069897071
 30
0.0
 11
3129.8656769934391377
 21
134.267911581246409
 31
0.0
  0
LINE
  5
27318
  8
0
 10
3129.8656769934391377
 20
134.267911581246409
 30
0.0
 11
3129.8853620329450678
 21
134.2630881572015085
 31
0.0
  0
LINE
  5
27319
  8
0
 10
3129.8853620329450678
 20
134.2630881572015085
 30
0.0
 11
3129.8952045525920767
 21
134.2525595020098876
 31
0.0
  0
LINE
  5
2731A
  8
0
 10
3129.8952045525920767
 20
134.2525595020098876
 30
0.0
 11
3129.8853620329450678
 21
134.2468170211649863
 31
0.0
  0
LINE
  5
2731B
  8
0
 10
3129.8853620329450678
 20
134.2468170211649863
 30
0.0
 11
3129.8656769934959812
 21
134.2515670646317005
 31
0.0
  0
LINE
  5
2731C
  8
0
 10
3129.8656769934959812
 20
134.2515670646317005
 30
0.0
 11
3129.8558344738630694
 21
134.2621324069162085
 31
0.0
  0
LINE
  5
2731D
  8
0
 10
3129.8836733235280008
 20
134.2690787057846933
 30
0.0
 11
3129.8935158431709169
 21
134.2761855834380071
 31
0.0
  0
LINE
  5
2731E
  8
0
 10
3129.8935158431709169
 20
134.2761855834380071
 30
0.0
 11
3129.9132008825881712
 21
134.272310943804996
 31
0.0
  0
LINE
  5
2731F
  8
0
 10
3129.9132008825881712
 20
134.272310943804996
 30
0.0
 11
3129.9221159181870462
 21
134.2623972998956958
 31
0.0
  0
LINE
  5
27320
  8
0
 10
3129.9221159181870462
 20
134.2623972998956958
 30
0.0
 11
3129.9132008825440607
 21
134.2543554735823932
 31
0.0
  0
LINE
  5
27321
  8
0
 10
3129.9132008825440607
 20
134.2543554735823932
 30
0.0
 11
3129.8935158431909258
 21
134.2581591320752068
 31
0.0
  0
LINE
  5
27322
  8
0
 10
3129.8935158431909258
 20
134.2581591320752068
 30
0.0
 11
3129.8836733235320935
 21
134.2690787057811121
 31
0.0
  0
LINE
  5
27323
  8
0
 10
3129.8836733235548309
 20
134.2424874135764128
 30
0.0
 11
3129.8935158432450407
 21
134.2478781492650057
 31
0.0
  0
LINE
  5
27324
  8
0
 10
3129.8935158432450407
 20
134.2478781492650057
 30
0.0
 11
3129.9132008825440607
 21
134.2441103954903099
 31
0.0
  0
LINE
  5
27325
  8
0
 10
3129.9132008825440607
 20
134.2441103954903099
 30
0.0
 11
3129.9230434022651934
 21
134.2349961195747028
 31
0.0
  0
LINE
  5
27326
  8
0
 10
3129.9230434022651934
 20
134.2349961195747028
 30
0.0
 11
3129.9132008825440607
 21
134.2296273628649885
 31
0.0
  0
LINE
  5
27327
  8
0
 10
3129.9132008825440607
 20
134.2296273628649885
 30
0.0
 11
3129.8935158432450407
 21
134.2333511609027141
 31
0.0
  0
LINE
  5
27328
  8
0
 10
3129.8935158432450407
 20
134.2333511609027141
 30
0.0
 11
3129.8836733235571046
 21
134.2424874135780044
 31
0.0
  0
LINE
  5
27329
  8
0
 10
3129.9115121731938416
 20
134.2494241586663009
 30
0.0
 11
3129.9213546928449432
 21
134.2561094708071892
 31
0.0
  0
LINE
  5
2732A
  8
0
 10
3129.9213546928449432
 20
134.2561094708071892
 30
0.0
 11
3129.9410397322449171
 21
134.253272554565001
 31
0.0
  0
LINE
  5
2732B
  8
0
 10
3129.9410397322449171
 20
134.253272554565001
 30
0.0
 11
3129.9508822518878333
 21
134.2437922380867121
 31
0.0
  0
LINE
  5
2732C
  8
0
 10
3129.9508822518878333
 20
134.2437922380867121
 30
0.0
 11
3129.9410397322449171
 21
134.237146851864992
 31
0.0
  0
LINE
  5
2732D
  8
0
 10
3129.9410397322449171
 20
134.237146851864992
 30
0.0
 11
3129.9213546928449432
 21
134.2399422600649928
 31
0.0
  0
LINE
  5
2732E
  8
0
 10
3129.9213546928449432
 20
134.2399422600649928
 30
0.0
 11
3129.9115121731938416
 21
134.2494241586663009
 31
0.0
  0
LINE
  5
2732F
  8
0
 10
3129.911512173130177
 20
134.225759685459991
 30
0.0
 11
3129.9210342813239549
 21
134.2306115115127056
 31
0.0
  0
LINE
  5
27330
  8
0
 10
3129.9210342813239549
 20
134.2306115115127056
 30
0.0
 11
3129.9410397321980781
 21
134.2280106004575089
 31
0.0
  0
LINE
  5
27331
  8
0
 10
3129.9410397321980781
 20
134.2280106004575089
 30
0.0
 11
3129.950882251882831
 21
134.2202331720517918
 31
0.0
  0
LINE
  5
27332
  8
0
 10
3129.950882251882831
 20
134.2202331720517918
 30
0.0
 11
3129.911512173130177
 21
134.225759685459991
 31
0.0
  0
LINE
  5
27333
  8
0
 10
3129.9393510228078412
 20
134.232689314006393
 30
0.0
 11
3129.9491935425439806
 21
134.2389850629650141
 31
0.0
  0
LINE
  5
27334
  8
0
 10
3129.9491935425439806
 20
134.2389850629650141
 30
0.0
 11
3129.9688785817547796
 21
134.2371280061616119
 31
0.0
  0
LINE
  5
27335
  8
0
 10
3129.9688785817547796
 20
134.2371280061616119
 30
0.0
 11
3129.978721101526844
 21
134.2289964281449102
 31
0.0
  0
LINE
  5
27336
  8
0
 10
3129.978721101526844
 20
134.2289964281449102
 30
0.0
 11
3129.9688785818680117
 21
134.2227248908982062
 31
0.0
  0
LINE
  5
27337
  8
0
 10
3129.9688785818680117
 20
134.2227248908982062
 30
0.0
 11
3129.9491935426249256
 21
134.2245608851424947
 31
0.0
  0
LINE
  5
27338
  8
0
 10
3129.9491935426249256
 20
134.2245608851424947
 30
0.0
 11
3129.9393510228078412
 21
134.232689314006393
 31
0.0
  0
LINE
  5
27339
  8
0
 10
3129.9671898724168386
 20
134.2187165696846023
 30
0.0
 11
3129.9770323922139141
 21
134.2246463745794074
 31
0.0
  0
LINE
  5
2733A
  8
0
 10
3129.9770323922139141
 20
134.2246463745794074
 30
0.0
 11
3129.9967174314770091
 21
134.2237298822888079
 31
0.0
  0
LINE
  5
2733B
  8
0
 10
3129.9967174314770091
 20
134.2237298822888079
 30
0.0
 11
3130.0065599512531662
 21
134.2168912613705913
 31
0.0
  0
LINE
  5
2733C
  8
0
 10
3130.0065599512531662
 20
134.2168912613705913
 30
0.0
 11
3129.9671898724168386
 21
134.2187165696846023
 31
0.0
  0
LINE
  5
2733D
  8
0
 10
3129.9671898725518986
 20
134.2422470795019933
 30
0.0
 11
3129.9770323920770352
 21
134.2498341973119977
 31
0.0
  0
LINE
  5
2733E
  8
0
 10
3129.9770323920770352
 20
134.2498341973119977
 30
0.0
 11
3129.9967174315929697
 21
134.2488976679834138
 31
0.0
  0
LINE
  5
2733F
  8
0
 10
3129.9967174315929697
 20
134.2488976679834138
 30
0.0
 11
3130.0065599511908658
 21
134.2403876101419087
 31
0.0
  0
LINE
  5
27340
  8
0
 10
3130.0065599511908658
 20
134.2403876101419087
 30
0.0
 11
3129.9967174315452212
 21
134.2328351594021001
 31
0.0
  0
LINE
  5
27341
  8
0
 10
3129.9967174315452212
 20
134.2328351594021001
 30
0.0
 11
3129.977032392143883
 21
134.2337582432388956
 31
0.0
  0
LINE
  5
27342
  8
0
 10
3129.977032392143883
 20
134.2337582432388956
 30
0.0
 11
3129.9671898724009225
 21
134.2422470794938931
 31
0.0
  0
LINE
  5
27343
  8
0
 10
3129.939351022836945
 20
134.2590381564461097
 30
0.0
 11
3129.94919354251806
 21
134.2670426340370966
 31
0.0
  0
LINE
  5
27344
  8
0
 10
3129.94919354251806
 20
134.2670426340370966
 30
0.0
 11
3129.9688785818439101
 21
134.265134447047302
 31
0.0
  0
LINE
  5
27345
  8
0
 10
3129.9688785818439101
 20
134.265134447047302
 30
0.0
 11
3129.9787211016127912
 21
134.2552561631260062
 31
0.0
  0
LINE
  5
27346
  8
0
 10
3129.9787211016127912
 20
134.2552561631260062
 30
0.0
 11
3129.9688785819162149
 21
134.2473078444463113
 31
0.0
  0
LINE
  5
27347
  8
0
 10
3129.9688785819162149
 20
134.2473078444463113
 30
0.0
 11
3129.9491935425448901
 21
134.2491820906600992
 31
0.0
  0
LINE
  5
27348
  8
0
 10
3129.9491935425448901
 20
134.2491820906600992
 30
0.0
 11
3129.939351022836945
 21
134.2590381564461097
 31
0.0
  0
LINE
  5
27349
  8
0
 10
3129.9671898724718631
 20
134.2713750470329899
 30
0.0
 11
3129.9770323921538875
 21
134.280744162716303
 31
0.0
  0
LINE
  5
2734A
  8
0
 10
3129.9770323921538875
 20
134.280744162716303
 30
0.0
 11
3129.9967174315838747
 21
134.2797764697347986
 31
0.0
  0
LINE
  5
2734B
  8
0
 10
3129.9967174315838747
 20
134.2797764697347986
 30
0.0
 11
3130.0065599511990513
 21
134.2694605379257951
 31
0.0
  0
LINE
  5
2734C
  8
0
 10
3130.0065599511990513
 20
134.2694605379257951
 30
0.0
 11
3129.9967174315611373
 21
134.2601627010928951
 31
0.0
  0
LINE
  5
2734D
  8
0
 10
3129.9967174315611373
 20
134.2601627010928951
 30
0.0
 11
3129.977032392143883
 21
134.2601627010928951
 31
0.0
  0
LINE
  5
2734E
  8
0
 10
3129.977032392143883
 20
134.2601627010928951
 30
0.0
 11
3129.9671898724718631
 21
134.2713750470329899
 31
0.0
  0
LINE
  5
2734F
  8
0
 10
3129.9393510228428568
 20
134.2912500897087966
 30
0.0
 11
3129.9491935425280644
 21
134.301120125727607
 31
0.0
  0
LINE
  5
27350
  8
0
 10
3129.9491935425280644
 20
134.301120125727607
 30
0.0
 11
3129.9688785818811994
 21
134.2991353180987062
 31
0.0
  0
LINE
  5
27351
  8
0
 10
3129.9688785818811994
 20
134.2991353180987062
 30
0.0
 11
3129.9787211015641333
 21
134.2873317613866959
 31
0.0
  0
LINE
  5
27352
  8
0
 10
3129.9787211015641333
 20
134.2873317613866959
 30
0.0
 11
3129.9688785819012082
 21
134.2775686176775025
 31
0.0
  0
LINE
  5
27353
  8
0
 10
3129.9688785819012082
 20
134.2775686176775025
 30
0.0
 11
3129.9491935425439806
 21
134.2795030879649971
 31
0.0
  0
LINE
  5
27354
  8
0
 10
3129.9491935425439806
 20
134.2795030879649971
 30
0.0
 11
3129.9393510228428568
 21
134.2912500897087966
 31
0.0
  0
LINE
  5
27355
  8
0
 10
3129.9671898724318453
 20
134.3066203400441907
 30
0.0
 11
3129.977032392062938
 21
134.3179752258373867
 31
0.0
  0
LINE
  5
27356
  8
0
 10
3129.977032392062938
 20
134.3179752258373867
 30
0.0
 11
3129.9967174314911063
 21
134.3169618526598867
 31
0.0
  0
LINE
  5
27357
  8
0
 10
3129.9967174314911063
 20
134.3169618526598867
 30
0.0
 11
3130.0065599512108747
 21
134.3046242173402902
 31
0.0
  0
LINE
  5
27358
  8
0
 10
3130.0065599512108747
 20
134.3046242173402902
 30
0.0
 11
3129.9967174315020202
 21
134.2933995631840105
 31
0.0
  0
LINE
  5
27359
  8
0
 10
3129.9967174315020202
 20
134.2933995631840105
 30
0.0
 11
3129.9770323920802184
 21
134.2943829839200873
 31
0.0
  0
LINE
  5
2735A
  8
0
 10
3129.9770323920802184
 20
134.2943829839200873
 30
0.0
 11
3129.9671898724500352
 21
134.3066203400414054
 31
0.0
  0
LINE
  5
2735B
  8
0
 10
3129.9967142682899066
 20
134.3227667107834122
 30
0.0
 11
3130.0048712418438299
 21
134.3122345494649892
 31
0.0
  0
LINE
  5
2735C
  8
0
 10
3130.0048712418438299
 20
134.3122345494649892
 30
0.0
 11
3130.0245562811401214
 21
134.3122345494255114
 31
0.0
  0
LINE
  5
2735D
  8
0
 10
3130.0245562811401214
 20
134.3122345494255114
 30
0.0
 11
3130.0327178077118333
 21
134.3227674338926931
 31
0.0
  0
LINE
  5
2735E
  8
0
 10
3129.9950287221467988
 20
134.2865238613655947
 30
0.0
 11
3130.0048712418902142
 21
134.2973273523336957
 31
0.0
  0
LINE
  5
2735F
  8
0
 10
3130.0048712418902142
 20
134.2973273523336957
 30
0.0
 11
3130.0245562811451236
 21
134.2973273522547117
 31
0.0
  0
LINE
  5
27360
  8
0
 10
3130.0245562811451236
 20
134.2973273522547117
 30
0.0
 11
3130.0343988008721681
 21
134.2865238614027135
 31
0.0
  0
LINE
  5
27361
  8
0
 10
3130.0343988008721681
 20
134.2865238614027135
 30
0.0
 11
3130.0245562811451236
 21
134.2758061853147922
 31
0.0
  0
LINE
  5
27362
  8
0
 10
3130.0245562811451236
 20
134.2758061853147922
 30
0.0
 11
3130.0048712418438299
 21
134.2758061852516107
 31
0.0
  0
LINE
  5
27363
  8
0
 10
3130.0048712418438299
 20
134.2758061852516107
 30
0.0
 11
3129.9950287221408871
 21
134.2865238613727001
 31
0.0
  0
LINE
  5
27364
  8
0
 10
3129.9950287220599421
 20
134.2544761361810117
 30
0.0
 11
3130.0048712417119532
 21
134.2633957991924092
 31
0.0
  0
LINE
  5
27365
  8
0
 10
3130.0048712417119532
 20
134.2633957991924092
 30
0.0
 11
3130.0245562811160198
 21
134.263395799191386
 31
0.0
  0
LINE
  5
27366
  8
0
 10
3130.0245562811160198
 20
134.263395799191386
 30
0.0
 11
3130.0343988008798988
 21
134.2544761361351107
 31
0.0
  0
LINE
  5
27367
  8
0
 10
3130.0343988008798988
 20
134.2544761361351107
 30
0.0
 11
3130.0245562811451236
 21
134.2455999203822046
 31
0.0
  0
LINE
  5
27368
  8
0
 10
3130.0245562811451236
 20
134.2455999203822046
 30
0.0
 11
3130.0048712418438299
 21
134.2455999203822046
 31
0.0
  0
LINE
  5
27369
  8
0
 10
3130.0048712418438299
 20
134.2455999203822046
 30
0.0
 11
3129.9950287221099643
 21
134.2544761361351107
 31
0.0
  0
LINE
  5
2736A
  8
0
 10
3129.9950287220572136
 20
134.2282346322405999
 30
0.0
 11
3130.0053309227560021
 21
134.2354281948015
 31
0.0
  0
LINE
  5
2736B
  8
0
 10
3130.0053309227560021
 20
134.2354281948015
 30
0.0
 11
3130.0245562811451236
 21
134.2354356462828093
 31
0.0
  0
LINE
  5
2736C
  8
0
 10
3130.0245562811451236
 20
134.2354356462828093
 30
0.0
 11
3130.0343988008539782
 21
134.2282346322026001
 31
0.0
  0
LINE
  5
2736D
  8
0
 10
3130.0343988008539782
 20
134.2282346322026001
 30
0.0
 11
3130.0245562811451236
 21
134.2210516063138073
 31
0.0
  0
LINE
  5
2736E
  8
0
 10
3130.0245562811451236
 20
134.2210516063138073
 30
0.0
 11
3130.0048712418438299
 21
134.2210516061666965
 31
0.0
  0
LINE
  5
2736F
  8
0
 10
3130.0048712418438299
 20
134.2210516061666965
 30
0.0
 11
3129.995028722069037
 21
134.2282346322317039
 31
0.0
  0
LINE
  5
27370
  8
0
 10
3130.0147150606439936
 20
134.1766194339649871
 30
0.0
 11
3130.0048712418438299
 21
134.1766194339649871
 31
0.0
  0
LINE
  5
27371
  8
0
 10
3130.0048712418438299
 20
134.1766194339649871
 30
0.0
 11
3129.9950287227361514
 21
134.1758659447457944
 31
0.0
  0
LINE
  5
27372
  8
0
 10
3129.9950287227361514
 20
134.1758659447457944
 30
0.0
 11
3130.0048712418470132
 21
134.1750496736914897
 31
0.0
  0
LINE
  5
27373
  8
0
 10
3130.0048712418470132
 20
134.1750496736914897
 30
0.0
 11
3130.0147134676840324
 21
134.174968155165999
 31
0.0
  0
LINE
  5
27374
  8
0
 10
3130.0065599512890913
 20
134.1776147457570119
 30
0.0
 11
3129.9967174314911063
 21
134.1764360814190127
 31
0.0
  0
LINE
  5
27375
  8
0
 10
3129.9967174314911063
 20
134.1764360814190127
 30
0.0
 11
3129.977032392188903
 21
134.1773525737808086
 31
0.0
  0
LINE
  5
27376
  8
0
 10
3129.977032392188903
 20
134.1773525737808086
 30
0.0
 11
3129.9671899921831937
 21
134.1794400232525106
 31
0.0
  0
LINE
  5
27377
  8
0
 10
3129.9671899921831937
 20
134.1794400232525106
 30
0.0
 11
3129.977031295622055
 21
134.1788223473290884
 31
0.0
  0
LINE
  5
27378
  8
0
 10
3129.977031295622055
 20
134.1788223473290884
 30
0.0
 11
3129.9967174315452212
 21
134.1779101793044902
 31
0.0
  0
LINE
  5
27379
  8
0
 10
3129.9967174315452212
 20
134.1779101793044902
 30
0.0
 11
3130.0065599512890913
 21
134.1776147457570971
 31
0.0
  0
LINE
  5
2737A
  8
0
 10
3129.9787211016141555
 20
134.176627740649991
 30
0.0
 11
3129.9688785818439101
 21
134.1768191847891956
 31
0.0
  0
LINE
  5
2737B
  8
0
 10
3129.9787211015350294
 20
134.1766277406613028
 30
0.0
 11
3129.9688785818830183
 21
134.1783734885746071
 31
0.0
  0
LINE
  5
2737C
  8
0
 10
3129.9688785818830183
 20
134.1783734885746071
 30
0.0
 11
3129.9491935424930489
 21
134.1802094828566965
 31
0.0
  0
LINE
  5
2737D
  8
0
 10
3129.9491935424930489
 20
134.1802094828566965
 30
0.0
 11
3129.939351022766914
 21
134.1803206265313975
 31
0.0
  0
LINE
  5
2737E
  8
0
 10
3129.939351022766914
 20
134.1803206265313975
 30
0.0
 11
3129.949038915121946
 21
134.1785790289721092
 31
0.0
  0
LINE
  5
2737F
  8
0
 10
3129.9508822518801026
 20
134.1809566564828913
 30
0.0
 11
3129.9410397322499193
 21
134.180716799694892
 31
0.0
  0
LINE
  5
27380
  8
0
 10
3129.9410397322499193
 20
134.180716799694892
 30
0.0
 11
3129.9213546929031509
 21
134.1834918717071901
 31
0.0
  0
LINE
  5
27381
  8
0
 10
3129.9213546929031509
 20
134.1834918717071901
 30
0.0
 11
3129.9115121732029365
 21
134.1864831698644025
 31
0.0
  0
LINE
  5
27382
  8
0
 10
3129.9115121732029365
 20
134.1864831698644025
 30
0.0
 11
3129.9213546928449432
 21
134.1849316534336936
 31
0.0
  0
LINE
  5
27383
  8
0
 10
3129.9213546928449432
 20
134.1849316534336936
 30
0.0
 11
3129.9410397322449171
 21
134.1821701345390068
 31
0.0
  0
LINE
  5
27384
  8
0
 10
3129.9410397322449171
 20
134.1821701345390068
 30
0.0
 11
3129.9508822519451314
 21
134.180956656465014
 31
0.0
  0
LINE
  5
27385
  8
0
 10
3129.923043402257008
 20
134.182627432138105
 30
0.0
 11
3129.9132008829378719
 21
134.1852759604965968
 31
0.0
  0
LINE
  5
27386
  8
0
 10
3129.9132008829378719
 20
134.1852759604965968
 30
0.0
 11
3129.8935158432450407
 21
134.1889997586129084
 31
0.0
  0
LINE
  5
27387
  8
0
 10
3129.8935158432450407
 20
134.1889997586129084
 30
0.0
 11
3129.8836733237440058
 21
134.1901187260995982
 31
0.0
  0
LINE
  5
27388
  8
0
 10
3129.8836733237440058
 20
134.1901187260995982
 30
0.0
 11
3129.8935158432450407
 21
134.1874921766410864
 31
0.0
  0
LINE
  5
27389
  8
0
 10
3129.8935158432450407
 20
134.1874921766410864
 30
0.0
 11
3129.9132008825799858
 21
134.1837244228053123
 31
0.0
  0
LINE
  5
2738A
  8
0
 10
3129.9132008825799858
 20
134.1837244228053123
 30
0.0
 11
3129.9230434022329064
 21
134.1826274320883101
 31
0.0
  0
LINE
  5
2738B
  8
0
 10
3129.8952045525620633
 20
134.1895589156980861
 30
0.0
 11
3129.8853620328918623
 21
134.190315745929496
 31
0.0
  0
LINE
  5
2738C
  8
0
 10
3129.8853620328918623
 20
134.190315745929496
 30
0.0
 11
3129.8656769935450939
 21
134.1950298847013983
 31
0.0
  0
LINE
  5
2738D
  8
0
 10
3129.8656769935450939
 20
134.1950298847013983
 30
0.0
 11
3129.8558312499148997
 21
134.1989460431800012
 31
0.0
  0
LINE
  5
2738E
  8
0
 10
3129.8558312499148997
 20
134.1989460431800012
 30
0.0
 11
3129.8656769935450939
 21
134.196414225765011
 31
0.0
  0
LINE
  5
2738F
  8
0
 10
3129.8656769935450939
 20
134.196414225765011
 30
0.0
 11
3129.8853620329450678
 21
134.1917238198649898
 31
0.0
  0
LINE
  5
27390
  8
0
 10
3129.8853620329450678
 20
134.1917238198649898
 30
0.0
 11
3129.8952045525620633
 21
134.1895589156980861
 31
0.0
  0
LINE
  5
27391
  8
0
 10
3129.8673657029758033
 20
134.1940379143071027
 30
0.0
 11
3129.8575231832451209
 21
134.1976060348497128
 31
0.0
  0
LINE
  5
27392
  8
0
 10
3129.8575231832451209
 20
134.1976060348497128
 30
0.0
 11
3129.8378381438610631
 21
134.2033289061085952
 31
0.0
  0
LINE
  5
27393
  8
0
 10
3129.8378381438610631
 20
134.2033289061085952
 30
0.0
 11
3129.8279956245910398
 21
134.2055544682781942
 31
0.0
  0
LINE
  5
27394
  8
0
 10
3129.8279956245910398
 20
134.2055544682781942
 30
0.0
 11
3129.8306199403082246
 21
134.2043884962648121
 31
0.0
  0
LINE
  5
27395
  8
0
 10
3129.8625154643091264
 20
134.1949610839733964
 30
0.0
 11
3129.8673657029758033
 21
134.1940379143071027
 31
0.0
  0
LINE
  5
27396
  8
0
 10
3129.8395268532931368
 20
134.2036718803691997
 30
0.0
 11
3129.8296843336452184
 21
134.2068450899134859
 31
0.0
  0
LINE
  5
27397
  8
0
 10
3129.8296843336452184
 20
134.2068450899134859
 30
0.0
 11
3129.8099992942438803
 21
134.2136123687650127
 31
0.0
  0
LINE
  5
27398
  8
0
 10
3129.8099992942438803
 20
134.2136123687650127
 30
0.0
 11
3129.800399032308178
 21
134.2171541034541065
 31
0.0
  0
LINE
  5
27399
  8
0
 10
3129.800399032308178
 20
134.2171541034541065
 30
0.0
 11
3129.8099992942438803
 21
134.2123194456650026
 31
0.0
  0
LINE
  5
2739A
  8
0
 10
3129.8099992942438803
 20
134.2123194456650026
 30
0.0
 11
3129.829684333638852
 21
134.2055184315271106
 31
0.0
  0
LINE
  5
2739B
  8
0
 10
3129.829684333638852
 20
134.2055184315271106
 30
0.0
 11
3129.839526853254938
 21
134.2036718804068016
 31
0.0
  0
LINE
  5
2739C
  8
0
 10
3129.7723179249228451
 20
134.2271373902545974
 30
0.0
 11
3129.7742328072481541
 21
134.2260643564160887
 31
0.0
  0
LINE
  5
2739D
  8
0
 10
3129.7723179249228451
 20
134.2271373902545974
 30
0.0
 11
3129.7821604446389756
 21
134.2236549725776911
 31
0.0
  0
LINE
  5
2739E
  8
0
 10
3129.7821604446389756
 20
134.2236549725776911
 30
0.0
 11
3129.8018454839220794
 21
134.2157441766985073
 31
0.0
  0
LINE
  5
2739F
  8
0
 10
3129.8018454839220794
 20
134.2157441766985073
 30
0.0
 11
3129.8116880033999223
 21
134.211209846792201
 31
0.0
  0
LINE
  5
273A0
  8
0
 10
3129.8116880033999223
 20
134.211209846792201
 30
0.0
 11
3129.8096556611230881
 21
134.2116495578775073
 31
0.0
  0
LINE
  5
273A1
  8
0
 10
3130.0048712418902142
 20
134.2973273523336957
 30
0.0
 11
3130.004871241958881
 21
134.2758061852516107
 31
0.0
  0
LINE
  5
273A2
  8
0
 10
3130.0245562811451236
 20
134.2758061853147922
 30
0.0
 11
3130.0245562811451236
 21
134.2973273522547117
 31
0.0
  0
LINE
  5
273A3
  8
0
 10
3130.0245562811160198
 20
134.263395799191386
 30
0.0
 11
3130.0245562811451236
 21
134.2455999203822046
 31
0.0
  0
LINE
  5
273A4
  8
0
 10
3130.0048712418438299
 20
134.2455999203822046
 30
0.0
 11
3130.0048712418451942
 21
134.2633957991924092
 31
0.0
  0
LINE
  5
273A5
  8
0
 10
3130.0245562811451236
 20
134.2354356462828093
 30
0.0
 11
3130.0245562812519893
 21
134.2210516063138073
 31
0.0
  0
LINE
  5
273A6
  8
0
 10
3130.0048712418438299
 20
134.2210516061666965
 30
0.0
 11
3130.0053309227560021
 21
134.2354281948015
 31
0.0
  0
LINE
  5
273A7
  8
0
 10
3129.977032392062938
 20
134.3179752258373867
 30
0.0
 11
3129.9770323920802184
 21
134.2943829839200873
 31
0.0
  0
LINE
  5
273A8
  8
0
 10
3129.9967174315020202
 20
134.2933995631840105
 30
0.0
 11
3129.9967174314911063
 21
134.3169618526598867
 31
0.0
  0
LINE
  5
273A9
  8
0
 10
3129.9688785818811994
 20
134.2991353180987062
 30
0.0
 11
3129.9688785819012082
 21
134.2775686176775025
 31
0.0
  0
LINE
  5
273AA
  8
0
 10
3129.9491935425439806
 20
134.2795030879649971
 30
0.0
 11
3129.9491935425280644
 21
134.301120125727607
 31
0.0
  0
LINE
  5
273AB
  8
0
 10
3129.9770323921538875
 20
134.280744162716303
 30
0.0
 11
3129.9770323921538875
 21
134.2601627010928951
 31
0.0
  0
LINE
  5
273AC
  8
0
 10
3129.9967174315611373
 20
134.2601627010928951
 30
0.0
 11
3129.9967174315838747
 21
134.2797764697347986
 31
0.0
  0
LINE
  5
273AD
  8
0
 10
3129.94919354251806
 20
134.2670426340370966
 30
0.0
 11
3129.9491935425448901
 21
134.2491820906600992
 31
0.0
  0
LINE
  5
273AE
  8
0
 10
3129.9688785819162149
 20
134.2473078444463113
 30
0.0
 11
3129.9688785818439101
 21
134.265134447047302
 31
0.0
  0
LINE
  5
273AF
  8
0
 10
3129.9770323920770352
 20
134.2498341973119977
 30
0.0
 11
3129.977032392143883
 21
134.2337582432388956
 31
0.0
  0
LINE
  5
273B0
  8
0
 10
3129.9967174315452212
 20
134.2328351594021001
 30
0.0
 11
3129.9967174315929697
 21
134.2488976679834138
 31
0.0
  0
LINE
  5
273B1
  8
0
 10
3129.9770323922139141
 20
134.2246463745794074
 30
0.0
 11
3129.9770323922139141
 21
134.2182602426020992
 31
0.0
  0
LINE
  5
273B2
  8
0
 10
3129.9967174314770091
 20
134.2237298822888079
 30
0.0
 11
3129.9967174314770091
 21
134.2173475884522134
 31
0.0
  0
LINE
  5
273B3
  8
0
 10
3129.9688785817547796
 20
134.2371280061616119
 30
0.0
 11
3129.9688785818680117
 21
134.2227248908982062
 31
0.0
  0
LINE
  5
273B4
  8
0
 10
3129.9491935426249256
 20
134.2245608851424947
 30
0.0
 11
3129.9491935425439806
 21
134.2389850629650141
 31
0.0
  0
LINE
  5
273B5
  8
0
 10
3129.9410397321980781
 20
134.2280106004575089
 30
0.0
 11
3129.9401592807730594
 21
134.2217383923990042
 31
0.0
  0
LINE
  5
273B6
  8
0
 10
3129.9210342813239549
 20
134.2306115115127056
 30
0.0
 11
3129.9201823701528156
 21
134.2245426200738052
 31
0.0
  0
LINE
  5
273B7
  8
0
 10
3129.9410397322449171
 20
134.253272554565001
 30
0.0
 11
3129.9410397322449171
 21
134.237146851864992
 31
0.0
  0
LINE
  5
273B8
  8
0
 10
3129.9213546928449432
 20
134.2399422600649928
 30
0.0
 11
3129.9213546928449432
 21
134.2561094708071892
 31
0.0
  0
LINE
  5
273B9
  8
0
 10
3129.9213546928431242
 20
134.2872311493653115
 30
0.0
 11
3129.9213546928908727
 21
134.2674572021695099
 31
0.0
  0
LINE
  5
273BA
  8
0
 10
3129.9410397322121753
 20
134.2842978919678956
 30
0.0
 11
3129.9410397322449171
 21
134.2645874910523105
 31
0.0
  0
LINE
  5
273BB
  8
0
 10
3129.9410397322449171
 20
134.2979949751650111
 30
0.0
 11
3129.9410397322449171
 21
134.3208331792276056
 31
0.0
  0
LINE
  5
273BC
  8
0
 10
3129.9213546928608594
 20
134.3009769278220062
 30
0.0
 11
3129.9213546928608594
 21
134.3195389751471964
 31
0.0
  0
LINE
  5
273BD
  8
0
 10
3129.9491935425439806
 20
134.3161003279057866
 30
0.0
 11
3129.9491935425439806
 21
134.3212689430245064
 31
0.0
  0
LINE
  5
273BE
  8
0
 10
3129.9688785818439101
 20
134.3140771797359889
 30
0.0
 11
3129.9688785818439101
 21
134.3220967284690914
 31
0.0
  0
LINE
  5
273BF
  8
0
 10
3130.0048712418438299
 20
134.3122345494649892
 30
0.0
 11
3130.0048712418438299
 21
134.3228522430800069
 31
0.0
  0
LINE
  5
273C0
  8
0
 10
3129.8935158432450407
 20
134.3106382944376946
 30
0.0
 11
3129.8935158431640957
 21
134.2887746405590121
 31
0.0
  0
LINE
  5
273C1
  8
0
 10
3129.9132008826509264
 20
134.3066029833155142
 30
0.0
 11
3129.9132008825317826
 21
134.2848449542447895
 31
0.0
  0
LINE
  5
273C2
  8
0
 10
3129.8656769935450939
 20
134.2994456255649993
 30
0.0
 11
3129.8656769935678312
 21
134.2793995512354002
 31
0.0
  0
LINE
  5
273C3
  8
0
 10
3129.8853620329450678
 20
134.2745180577290114
 30
0.0
 11
3129.8853620329450678
 21
134.2944513734163081
 31
0.0
  0
LINE
  5
273C4
  8
0
 10
3129.8935158431709169
 20
134.2761855834380071
 30
0.0
 11
3129.8935158431909258
 21
134.2581591320752068
 31
0.0
  0
LINE
  5
273C5
  8
0
 10
3129.9132008825440607
 20
134.2543554735823932
 30
0.0
 11
3129.9132008825881712
 21
134.272310943804996
 31
0.0
  0
LINE
  5
273C6
  8
0
 10
3129.8853620329450678
 20
134.2630881572015085
 30
0.0
 11
3129.8853620329450678
 21
134.2468170211649863
 31
0.0
  0
LINE
  5
273C7
  8
0
 10
3129.8656769934959812
 20
134.2515670646317005
 30
0.0
 11
3129.8656769934391377
 21
134.267911581246409
 31
0.0
  0
LINE
  5
273C8
  8
0
 10
3129.8575231832451209
 20
134.2851488543649907
 30
0.0
 11
3129.8575231832160171
 21
134.2669542876843991
 31
0.0
  0
LINE
  5
273C9
  8
0
 10
3129.8378381438069482
 20
134.2728062038343921
 30
0.0
 11
3129.8378381438437827
 21
134.2911158227427961
 31
0.0
  0
LINE
  5
273CA
  8
0
 10
3129.8378381438437827
 20
134.2623821985075097
 30
0.0
 11
3129.837838143837871
 21
134.2476803084751111
 31
0.0
  0
LINE
  5
273CB
  8
0
 10
3129.8575231832810459
 20
134.2419574372582076
 30
0.0
 11
3129.8575231832451209
 21
134.2565883517243037
 31
0.0
  0
LINE
  5
273CC
  8
0
 10
3129.8656769936228557
 20
134.2423236855632069
 30
0.0
 11
3129.8656769936228557
 21
134.2358771740694863
 31
0.0
  0
LINE
  5
273CD
  8
0
 10
3129.8853620328850411
 20
134.2376095465585024
 30
0.0
 11
3129.8853620328850411
 21
134.2311826789332088
 31
0.0
  0
LINE
  5
273CE
  8
0
 10
3129.8296843335519952
 20
134.2528122322208048
 30
0.0
 11
3129.8296843335519952
 21
134.2463330165739137
 31
0.0
  0
LINE
  5
273CF
  8
0
 10
3129.8100003776380618
 20
134.2596136315833917
 30
0.0
 11
3129.8100003776380618
 21
134.2531018850785927
 31
0.0
  0
LINE
  5
273D0
  8
0
 10
3129.8018454839698279
 20
134.274956841439888
 30
0.0
 11
3129.8018454839830156
 21
134.2600955788655028
 31
0.0
  0
LINE
  5
273D1
  8
0
 10
3129.7821604446298807
 20
134.2680063748452142
 30
0.0
 11
3129.7821604445448429
 21
134.2829732388634909
 31
0.0
  0
LINE
  5
273D2
  8
0
 10
3129.7543215949699515
 20
134.2832437917001869
 30
0.0
 11
3129.7543215949240221
 21
134.2699359437864075
 31
0.0
  0
LINE
  5
273D3
  8
0
 10
3129.7461677846449675
 20
134.264673314465
 30
0.0
 11
3129.7461677846449675
 21
134.2762204397650123
 31
0.0
  0
LINE
  5
273D4
  8
0
 10
3129.7264827453700491
 20
134.2687212294929111
 30
0.0
 11
3129.7264827452681857
 21
134.2607039443660994
 31
0.0
  0
LINE
  5
273D5
  8
0
 10
3129.7461677846449675
 20
134.2504690405631891
 30
0.0
 11
3129.7461677846449675
 21
134.2584741036224045
 31
0.0
  0
LINE
  5
273D6
  8
0
 10
3129.7264827453209364
 20
134.256763943040113
 30
0.0
 11
3129.7264827452440841
 21
134.2523494968650084
 31
0.0
  0
LINE
  5
273D7
  8
0
 10
3129.7461677846690691
 20
134.242018810854006
 30
0.0
 11
3129.7461677845981285
 21
134.2465062558659099
 31
0.0
  0
LINE
  5
273D8
  8
0
 10
3129.7740066343098988
 20
134.2836176165147037
 30
0.0
 11
3129.7740066343098988
 21
134.2965932470509927
 31
0.0
  0
LINE
  5
273D9
  8
0
 10
3129.8003650435111922
 20
134.2861207919877984
 30
0.0
 11
3129.8003650435111922
 21
134.3030758458868092
 31
0.0
  0
LINE
  5
273DA
  8
0
 10
3129.7821604445362027
 20
134.2936144119823041
 30
0.0
 11
3129.7821604445362027
 21
134.2987869170582087
 31
0.0
  0
LINE
  5
273DB
  8
0
 10
3129.8296843335961057
 20
134.2902715915388967
 30
0.0
 11
3129.8296843335961057
 21
134.3088064423994865
 31
0.0
  0
LINE
  5
273DC
  8
0
 10
3129.8099992942220524
 20
134.2973298575915067
 30
0.0
 11
3129.8099992942220524
 21
134.3051150351246861
 31
0.0
  0
LINE
  5
273DD
  8
0
 10
3129.8378381437978533
 20
134.3039248714781877
 30
0.0
 11
3129.8378381437978533
 21
134.310150675704989
 31
0.0
  0
LINE
  5
273DE
  8
0
 10
3129.8575231832451209
 20
134.2978684431649867
 30
0.0
 11
3129.8575231832451209
 21
134.3129715119746947
 31
0.0
  0
LINE
  5
273DF
  8
0
 10
3129.8853620328968645
 20
134.3083194123719863
 30
0.0
 11
3129.8853620328968645
 21
134.316283417865094
 31
0.0
  0
LINE
  5
273E0
  8
0
 10
3129.8935158432450407
 20
134.2478781492650057
 30
0.0
 11
3129.8935158432450407
 21
134.2333511609027141
 31
0.0
  0
LINE
  5
273E1
  8
0
 10
3129.9132008825440607
 20
134.2296273628649885
 30
0.0
 11
3129.9132008825440607
 21
134.2441103954903099
 31
0.0
  0
ARC
  5
273E2
  8
0
 10
3130.014296607695087
 20
132.9677087275020142
 30
0.0
 40
1.456276216777989
 50
89.983599046645196
 51
94.6118452310065265
  0
ARC
  5
273E3
  8
0
 10
3129.9776020006588624
 20
133.4226033528642859
 30
0.0
 40
0.9999039845277348
 50
94.6118452310065265
 51
102.6905403806811989
  0
ARC
  5
273E4
  8
0
 10
3129.825995633704224
 20
134.0958521190698889
 30
0.0
 40
0.3097964626888201
 50
102.6905403806811989
 51
114.9841311417425942
  0
ARC
  5
273E5
  8
0
 10
3129.7352504339478401
 20
134.2905966297545035
 30
0.0
 40
0.0949474093504723
 50
114.9841311417425942
 51
136.3880402042670141
  0
ARC
  5
273E6
  8
0
 10
3129.6826094168809504
 20
134.3407687424987103
 30
0.0
 40
0.0222265972563359
 50
136.4287141226178051
 51
180.2624731203137003
  0
LINE
  5
273E7
  8
0
 10
3129.6603830528438266
 20
134.3406669223649033
 30
0.0
 11
3129.6603830528438266
 21
134.283811549364998
 31
0.0
  0
ARC
  5
273E8
  8
0
 10
3129.7175833228588999
 20
134.283811549364998
 30
0.0
 40
0.0572002700141861
 50
180.0
 51
196.8785898129196994
  0
ARC
  5
273E9
  8
0
 10
3129.7237288970068221
 20
134.2856762093863949
 30
0.0
 40
0.0636225000478887
 50
196.8785898129196994
 51
221.8100080722599046
  0
ARC
  5
273EA
  8
0
 10
3129.7809955562652249
 20
134.3368965145658933
 30
0.0
 40
0.140453417817401
 50
221.8100080722599046
 51
235.4125522456903923
  0
ARC
  5
273EB
  8
0
 10
3129.7473550721651918
 20
134.2881089933285068
 30
0.0
 40
0.081192094857019
 50
235.4125522456903923
 51
249.149896668290296
  0
ARC
  5
273EC
  8
0
 10
3129.855180436406954
 20
134.5366913001714977
 30
0.0
 40
0.3520880945457473
 50
247.1498614551470041
 51
257.8267799918854166
  0
ARC
  5
273ED
  8
0
 10
3130.033712947758886
 20
135.926742128844495
 30
0.0
 40
1.756706074301825
 50
265.0259994396183743
 51
269.3803206873134855
  0
ARC
  5
273EE
  8
0
 10
3129.966861569179855
 20
135.0436622143184877
 30
0.0
 40
0.8712124611658374
 50
257.6777533369522075
 51
264.370522346405096
  0
ARC
  5
273EF
  8
0
 10
3130.0144639016380097
 20
132.9220564176019934
 30
0.0
 40
1.415303371866051
 50
89.9898968083534072
 51
94.4352406382057694
  0
ARC
  5
273F0
  8
0
 10
3129.9852285591141481
 20
133.2989727448687916
 30
0.0
 40
1.0372549318312341
 50
94.4352406382057694
 51
100.5152170097269959
  0
ARC
  5
273F1
  8
0
 10
3129.8801166718130844
 20
133.8652663349510021
 30
0.0
 40
0.4612888399299951
 50
100.5152170097269959
 51
110.5428986479609961
  0
ARC
  5
273F2
  8
0
 10
3129.7631845481901109
 20
134.1773030871596006
 30
0.0
 40
0.1280621059122769
 50
110.5428986479609961
 51
128.3338745232161955
  0
ARC
  5
273F3
  8
0
 10
3129.7054453988339446
 20
134.2503247290599973
 30
0.0
 40
0.0349709164568272
 50
128.3338745232161955
 51
154.433797281715897
  0
ARC
  5
273F4
  8
0
 10
3129.6919757086147911
 20
134.25676855671
 30
0.0
 40
0.0200392230041289
 50
154.4337972817218088
 51
193.8443845555702865
  0
ARC
  5
273F5
  8
0
 10
3129.6937489238889611
 20
134.257205556938402
 30
0.0
 40
0.0218654928656494
 50
193.8443845555640053
 51
211.4749527883170117
  0
ARC
  5
273F6
  8
0
 10
3127.778658269195148
 20
133.0847877671126867
 30
0.0
 40
2.2236045446978658
 50
31.3639395778955503
 51
31.4749527883170508
  0
ARC
  5
273F7
  8
0
 10
3129.7784281998078768
 20
134.6996249561744889
 30
0.0
 40
0.4368397400084885
 50
242.8350731787205916
 51
254.3566209579780946
  0
ARC
  5
273F8
  8
0
 10
3129.7366193775342254
 20
134.6181511499245005
 30
0.0
 40
0.3452648595837748
 50
231.5166505058242024
 51
242.8350731787205916
  0
ARC
  5
273F9
  8
0
 10
3129.6638492932461304
 20
134.526612025245214
 30
0.0
 40
0.2283251464221232
 50
222.3153064907425005
 51
231.5166505058232076
  0
ARC
  5
273FA
  8
0
 10
3130.9216757138001412
 20
135.6717604020869032
 30
0.0
 40
1.9293519272891
 50
207.9141611314074964
 51
222.3153064907425005
  0
LINE
  5
273FB
  8
0
 10
3129.2168039790890361
 20
134.7685377122068076
 30
0.0
 11
3129.2100727353090406
 21
134.9937302412650126
 31
0.0
  0
ARC
  5
273FC
  8
0
 10
3130.0133877416260475
 20
132.6856170743185999
 30
0.0
 40
1.7806452654745939
 50
89.9573421408687608
 51
97.3190584956956002
  0
ARC
  5
273FD
  8
0
 10
3129.8906236408938639
 20
133.6414181224031097
 30
0.0
 40
0.8169924919364431
 50
97.3190584956956002
 51
108.9261289687771068
  0
ARC
  5
273FE
  8
0
 10
3129.6761344601750352
 20
134.266958735450487
 30
0.0
 40
0.1557008261659444
 50
108.9261289687771068
 51
129.4882784111798912
  0
ARC
  5
273FF
  8
0
 10
3129.6070991521351061
 20
134.3507401766001124
 30
0.0
 40
0.0471411483970503
 50
129.4882784111597971
 51
156.8197473316901096
  0
ARC
  5
27400
  8
0
 10
3129.5866338927489778
 20
134.3595032500238915
 30
0.0
 40
0.0248786620678465
 50
156.8197473316870116
 51
213.9888929759993914
  0
ARC
  5
27401
  8
0
 10
3129.6415417688249363
 20
134.3965235953170918
 30
0.0
 40
0.0911008699799343
 50
213.9888929759993914
 51
221.9678300847778019
  0
ARC
  5
27402
  8
0
 10
3129.7822616110638592
 20
134.7026111947646996
 30
0.0
 40
0.426950826154494
 50
247.0377717010692038
 51
253.4134884655751989
  0
ARC
  5
27403
  8
0
 10
3129.684188964392888
 20
134.4711423764873928
 30
0.0
 40
0.1755625649728374
 50
235.3722459458440994
 51
247.0377717010692038
  0
ARC
  5
27404
  8
0
 10
3129.6262086819670003
 20
134.3871822129626139
 30
0.0
 40
0.073528148184749
 50
224.5463584327274873
 51
235.3722459458440994
  0
ARC
  5
27405
  8
0
 10
3129.3678113591859073
 20
134.1328445740552127
 30
0.0
 40
0.289041584397697
 50
44.5463584327275299
 51
48.9931508706938601
  0
ARC
  5
27406
  8
0
 10
3129.5930588190731214
 20
134.3918995857478933
 30
0.0
 40
0.0542453469997692
 50
212.6287003244345044
 51
228.9931508706937962
  0
ARC
  5
27407
  8
0
 10
3129.5746028554399345
 20
134.3800834744411929
 30
0.0
 40
0.0323308978847463
 50
179.5823150590622106
 51
212.6287003244331117
  0
ARC
  5
27408
  8
0
 10
3129.5666170217778017
 20
134.3801416920198903
 30
0.0
 40
0.024344852018686
 50
144.395154641694802
 51
179.5823150590622106
  0
ARC
  5
27409
  8
0
 10
3129.611829483972997
 20
134.3477669646800052
 30
0.0
 40
0.0799532120744611
 50
114.5967565960197021
 51
144.395154641694802
  0
ARC
  5
2740A
  8
0
 10
3129.9116749059458016
 20
134.6855287001943964
 30
0.0
 40
0.5175600726419285
 50
218.1597360729570028
 51
219.7632381794634
  0
ARC
  5
2740B
  8
0
 10
3129.5237444477129429
 20
134.3826998192461986
 30
0.0
 40
0.0254777312477094
 50
186.6585165029648863
 51
221.7004533298326123
  0
ARC
  5
2740C
  8
0
 10
3130.0183137851749962
 20
132.7461864087430001
 30
0.0
 40
1.733367980410353
 50
90.1201906305704199
 51
97.00746360472003
  0
ARC
  5
2740D
  8
0
 10
3130.0101266175461205
 20
132.8127938066247111
 30
0.0
 40
1.6662592986592819
 50
97.00746360472003
 51
101.7565556061413048
  0
ARC
  5
2740E
  8
0
 10
3129.8803284374262148
 20
133.4364647009911096
 30
0.0
 40
1.0292248003450799
 50
101.7565556061413048
 51
106.8414763512815995
  0
ARC
  5
2740F
  8
0
 10
3129.1231316703219818
 20
135.9378757002947964
 30
0.0
 40
1.5842793476424739
 50
286.7060264364021123
 51
286.841476351281699
  0
ARC
  5
27410
  8
0
 10
3129.8582600619070035
 20
133.4885012027179982
 30
0.0
 40
0.9730335353448346
 50
106.7060264364020981
 51
109.2032383744013941
  0
ARC
  5
27411
  8
0
 10
3129.6048275105281391
 20
134.2161279368752957
 30
0.0
 40
0.2025345266764623
 50
109.2032383744013941
 51
118.6662397557149973
  0
ARC
  5
27412
  8
0
 10
3129.5181938356467981
 20
134.3745891717022971
 30
0.0
 40
0.0219373047538143
 50
118.6662397557149973
 51
145.0204501021308943
  0
ARC
  5
27413
  8
0
 10
3129.5087550528592146
 20
134.3811932591684979
 30
0.0
 40
0.0104175568488933
 50
145.0204501021322017
 51
187.9876738954407926
  0
ARC
  5
27414
  8
0
 10
3130.0147347829761202
 20
132.9972632104268939
 30
0.0
 40
1.325625412314519
 50
87.2975084851279348
 51
90.0009348786513073
  0
ARC
  5
27415
  8
0
 10
3130.0235967556827745
 20
133.1850073835533976
 30
0.0
 40
1.1376722024372541
 50
82.1616293432177685
 51
87.2975084851279348
  0
ARC
  5
27416
  8
0
 10
3130.0909801870739102
 20
133.6744803242557964
 30
0.0
 40
0.6435828517061103
 50
76.3192999852942506
 51
82.1616293432177685
  0
ARC
  5
27417
  8
0
 10
3130.1603660400592162
 20
133.9595297879945974
 30
0.0
 40
0.3502100626264428
 50
68.689299432692934
 51
76.3192999852942506
  0
ARC
  5
27418
  8
0
 10
3130.2400168847830173
 20
134.1637109590535033
 30
0.0
 40
0.1310429855366077
 50
55.2269049905365534
 51
68.689299432692934
  0
ARC
  5
27419
  8
0
 10
3130.2899946409711447
 20
134.2356916277853998
 30
0.0
 40
0.04341312313396
 50
30.6771063170933189
 51
55.2269049905365534
  0
ARC
  5
2741A
  8
0
 10
3130.3121325131619415
 20
134.2488241730962955
 30
0.0
 40
0.0176730933851642
 50
329.2045839324368899
 51
30.6771063170947187
  0
ARC
  5
2741B
  8
0
 10
3130.0147314592950352
 20
135.5088006182922982
 30
0.0
 40
1.3340328967485531
 50
269.9992272728650278
 51
271.5470496584047737
  0
ARC
  5
2741C
  8
0
 10
3130.016877552447113
 20
135.4310370556360965
 30
0.0
 40
1.256239740500112
 50
271.544957872969519
 51
275.0154872880222001
  0
ARC
  5
2741D
  8
0
 10
3130.050729389226035
 20
135.040443200681807
 30
0.0
 40
0.864184434355835
 50
274.9332094905030885
 51
283.210578385860515
  0
ARC
  5
2741E
  8
0
 10
3130.1934139695140402
 20
134.4326091968877108
 30
0.0
 40
0.2398279131114953
 50
283.210578385860515
 51
298.9511070679342879
  0
ARC
  5
2741F
  8
0
 10
3130.2861013547449147
 20
134.2650596958609128
 30
0.0
 40
0.0483500118400317
 50
298.9511070679342879
 51
328.4709789921838023
  0
ARC
  5
27420
  8
0
 10
3130.2747865424980773
 20
134.3108697201359121
 30
0.0
 40
0.066805352764098
 50
308.1838392121752008
 51
315.782092795318988
  0
ARC
  5
27421
  8
0
 10
3130.2596053097317963
 20
134.3301728266577868
 30
0.0
 40
0.0913630348548323
 50
294.9891112644967279
 51
308.1838392121752008
  0
ARC
  5
27422
  8
0
 10
3130.0122630630048661
 20
134.7706846508208116
 30
0.0
 40
0.5963445040201196
 50
291.3926033567535114
 51
298.6517667281369768
  0
ARC
  5
27423
  8
0
 10
3130.0122064409410996
 20
134.7770400372002939
 30
0.0
 40
0.602286936711522
 50
283.5887590570943075
 51
291.1770899341686913
  0
ARC
  5
27424
  8
0
 10
3130.0719225928560263
 20
134.4829175854235075
 30
0.0
 40
0.3025696338377783
 50
277.9082708459362721
 51
285.6835838891460071
  0
ARC
  5
27425
  8
0
 10
3130.0239589897901169
 20
134.7020222139526879
 30
0.0
 40
0.5264760235573755
 50
273.0961151184449136
 51
279.7980331476330775
  0
ARC
  5
27426
  8
0
 10
3130.2807994896447781
 20
129.5951531192893924
 30
0.0
 40
4.58685185778904
 50
92.8542569438228753
 51
93.2121910810459866
  0
ARC
  5
27427
  8
0
 10
3130.0146521476549424
 20
134.7873400201380889
 30
0.0
 40
0.6057888395217609
 50
270.0057996757645924
 51
277.3165064870055971
  0
ARC
  5
27428
  8
0
 10
3130.0149318561270775
 20
134.78500668435899
 30
0.0
 40
0.6034388815881144
 50
277.3183788885876879
 51
285.0520626096230217
  0
ARC
  5
27429
  8
0
 10
3130.0159149048909057
 20
134.7813511861446898
 30
0.0
 40
0.5996535081499658
 50
285.0520626096230217
 51
292.7026176108582831
  0
ARC
  5
2742A
  8
0
 10
3130.0173276431110025
 20
134.7779743600644053
 30
0.0
 40
0.5959930732501777
 50
292.7026176108582831
 51
295.1910167961847264
  0
LINE
  5
2742B
  8
0
 10
3130.2710045981480107
 20
134.2386639245590061
 30
0.0
 11
3130.2715100137352238
 21
134.2398271791421962
 31
0.0
  0
LINE
  5
2742C
  8
0
 10
3130.2710045981480107
 20
134.2386639245590061
 30
0.0
 11
3130.2545128990232115
 21
134.2485302764650044
 31
0.0
  0
LINE
  5
2742D
  8
0
 10
3130.2545128990232115
 20
134.2485302764650044
 30
0.0
 11
3130.2545128990232115
 21
134.2367932550650096
 31
0.0
  0
LINE
  5
2742E
  8
0
 10
3130.2545128990232115
 20
134.2367932550650096
 30
0.0
 11
3130.2203350432228035
 21
134.2367932550650096
 31
0.0
  0
LINE
  5
2742F
  8
0
 10
3130.2203350432228035
 20
134.2367932550650096
 30
0.0
 11
3130.2203350432228035
 21
134.241686364237097
 31
0.0
  0
LINE
  5
27430
  8
0
 10
3130.2715100136829278
 20
134.2398271791199136
 30
0.0
 11
3130.2751053404531376
 21
134.2415353663830899
 31
0.0
  0
LINE
  5
27431
  8
0
 10
3130.2751053404531376
 20
134.2415353663830899
 30
0.0
 11
3130.2849478601160627
 21
134.2492221466399087
 31
0.0
  0
LINE
  5
27432
  8
0
 10
3130.2849478601160627
 20
134.2492221466399087
 30
0.0
 11
3130.275107119122822
 21
134.2478096443649918
 31
0.0
  0
LINE
  5
27433
  8
0
 10
3130.275107119122822
 20
134.2478096443649918
 30
0.0
 11
3130.2730876224782151
 21
134.2468497793591098
 31
0.0
  0
LINE
  5
27434
  8
0
 10
3130.2730876224782151
 20
134.2468497793591098
 30
0.0
 11
3130.2572127783228098
 21
134.2564590468649897
 31
0.0
  0
LINE
  5
27435
  8
0
 10
3130.2730876199229897
 20
134.2468497467650081
 30
0.0
 11
3130.273277382023025
 21
134.2492708464650093
 31
0.0
  0
LINE
  5
27436
  8
0
 10
3130.273277382023025
 20
134.2492708464650093
 30
0.0
 11
3130.2730875913161981
 21
134.251924651336509
 31
0.0
  0
LINE
  5
27437
  8
0
 10
3130.2730875913161981
 20
134.251924651336509
 30
0.0
 11
3130.2621396667600493
 21
134.258652053376494
 31
0.0
  0
LINE
  5
27438
  8
0
 10
3130.273087619522812
 20
134.2519246336649985
 30
0.0
 11
3130.2751064486219548
 21
134.2528846792590969
 31
0.0
  0
LINE
  5
27439
  8
0
 10
3130.2751064486219548
 20
134.2528846792590969
 30
0.0
 11
3130.2849478602120143
 21
134.2623143185560934
 31
0.0
  0
LINE
  5
2743A
  8
0
 10
3130.2849478602120143
 20
134.2623143185560934
 30
0.0
 11
3130.2751063498230906
 21
134.2626448234649956
 31
0.0
  0
LINE
  5
2743B
  8
0
 10
3130.2751063498230906
 20
134.2626448234649956
 30
0.0
 11
3130.2716498734730521
 21
134.2610025611149922
 31
0.0
  0
LINE
  5
2743C
  8
0
 10
3130.2716498734730521
 20
134.2610025611149922
 30
0.0
 11
3130.271003764553825
 21
134.2627331176720133
 31
0.0
  0
ARC
  5
2743D
  8
0
 10
3130.0169830234540314
 20
134.8028008239718076
 30
0.0
 40
0.5968246512143286
 50
294.2531069183626187
 51
295.1899384250435219
  0
ARC
  5
2743E
  8
0
 10
3130.0170445489779922
 20
134.802661632934786
 30
0.0
 40
0.596672472476718
 50
292.0714121526563076
 51
294.2532106257103806
  0
ARC
  5
2743F
  8
0
 10
3130.0156641748858419
 20
134.8061512706441931
 30
0.0
 40
0.6004250692697949
 50
283.7901052213156277
 51
292.0683530162302759
  0
ARC
  5
27440
  8
0
 10
3130.014666267757093
 20
134.8110182985583947
 30
0.0
 40
0.6053949974258276
 50
270.004494896549204
 51
278.3348245252063862
  0
ARC
  5
27441
  8
0
 10
3130.0148405637278302
 20
134.8098356070123884
 30
0.0
 40
0.6041995320994265
 50
278.3347282836018053
 51
283.7826754806001759
  0
LINE
  5
27442
  8
0
 10
3130.2733962228771816
 20
134.249417957517295
 30
0.0
 11
3130.2832540755280206
 21
134.2584838650373058
 31
0.0
  0
LINE
  5
27443
  8
0
 10
3130.2832540755280206
 20
134.2584838650373058
 30
0.0
 11
3130.3029441899980156
 21
134.2687212294929111
 31
0.0
  0
LINE
  5
27444
  8
0
 10
3130.3029441899980156
 20
134.2687212294929111
 30
0.0
 11
3130.3127867096791306
 21
134.2699093089109112
 31
0.0
  0
LINE
  5
27445
  8
0
 10
3130.3127867096791306
 20
134.2699093089109112
 30
0.0
 11
3130.3029441900989696
 21
134.2607039443660994
 31
0.0
  0
LINE
  5
27446
  8
0
 10
3130.3029441900989696
 20
134.2607039443660994
 30
0.0
 11
3130.2832591507230973
 21
134.2504690405631891
 31
0.0
  0
LINE
  5
27447
  8
0
 10
3130.2832591507230973
 20
134.2504690405631891
 30
0.0
 11
3130.2733962228771816
 21
134.249417957517295
 31
0.0
  0
LINE
  5
27448
  8
0
 10
3130.2734166311661284
 20
134.2391899055521947
 30
0.0
 11
3130.2832591507699362
 21
134.2465062558659099
 31
0.0
  0
LINE
  5
27449
  8
0
 10
3130.2832591507699362
 20
134.2465062558659099
 30
0.0
 11
3130.3029441900462189
 21
134.256763943040113
 31
0.0
  0
LINE
  5
2744A
  8
0
 10
3130.3029441900462189
 20
134.256763943040113
 30
0.0
 11
3130.3127867096500268
 21
134.259781127030891
 31
0.0
  0
LINE
  5
2744B
  8
0
 10
3130.3127867096500268
 20
134.259781127030891
 30
0.0
 11
3130.3029441901230712
 21
134.2523494968650084
 31
0.0
  0
LINE
  5
2744C
  8
0
 10
3130.3029441901230712
 20
134.2523494968650084
 30
0.0
 11
3130.2832591506980862
 21
134.242018810854006
 31
0.0
  0
LINE
  5
2744D
  8
0
 10
3130.2832591506980862
 20
134.242018810854006
 30
0.0
 11
3130.2734166310629007
 21
134.2391899055265867
 31
0.0
  0
LINE
  5
2744E
  8
0
 10
3130.2849478601551709
 20
134.241909000986908
 30
0.0
 11
3130.2751053404658705
 21
134.2386767132977923
 31
0.0
  0
LINE
  5
2744F
  8
0
 10
3130.2751053404658705
 20
134.2386767132977923
 30
0.0
 11
3130.2633987796630208
 21
134.2331984724484926
 31
0.0
  0
LINE
  5
27450
  8
0
 10
3130.2633987796630208
 20
134.2331984724484926
 30
0.0
 11
3130.2584899546927772
 21
134.2293872043564988
 31
0.0
  0
LINE
  5
27451
  8
0
 10
3130.2584899546927772
 20
134.2293872043564988
 30
0.0
 11
3130.2458200905730337
 21
134.2238792092649931
 31
0.0
  0
LINE
  5
27452
  8
0
 10
3130.2458200905730337
 20
134.2238792092649931
 30
0.0
 11
3130.2554203010217861
 21
134.2268209256172042
 31
0.0
  0
LINE
  5
27453
  8
0
 10
3130.2554203010217861
 20
134.2268209256172042
 30
0.0
 11
3130.2751053404222148
 21
134.235949990857705
 31
0.0
  0
LINE
  5
27454
  8
0
 10
3130.2751053404222148
 20
134.235949990857705
 30
0.0
 11
3130.2849478601551709
 21
134.241909000986908
 31
0.0
  0
LINE
  5
27455
  8
0
 10
3130.3052035280320524
 20
134.2773901814308886
 30
0.0
 11
3130.3029441901230712
 21
134.2749310016326945
 31
0.0
  0
LINE
  5
27456
  8
0
 10
3130.3029441901230712
 20
134.2749310016326945
 30
0.0
 11
3130.2832591507230973
 21
134.264673314465
 31
0.0
  0
LINE
  5
27457
  8
0
 10
3130.2832591507230973
 20
134.264673314465
 30
0.0
 11
3130.273416630977863
 21
134.2653742492859976
 31
0.0
  0
LINE
  5
27458
  8
0
 10
3130.273416630977863
 20
134.2653742492859976
 30
0.0
 11
3130.2832591507230973
 21
134.2762204397650123
 31
0.0
  0
LINE
  5
27459
  8
0
 10
3130.2832591507230973
 20
134.2762204397650123
 30
0.0
 11
3130.295429260148012
 21
134.2824616757447984
 31
0.0
  0
LINE
  5
2745A
  8
0
 10
3130.2849478601651754
 20
134.2811855166881116
 30
0.0
 11
3130.2751053403972037
 21
134.2832437917001869
 31
0.0
  0
LINE
  5
2745B
  8
0
 10
3130.2751053403972037
 20
134.2832437917001869
 30
0.0
 11
3130.2554203010217861
 21
134.2741147263940888
 31
0.0
  0
LINE
  5
2745C
  8
0
 10
3130.2554203010217861
 20
134.2741147263940888
 30
0.0
 11
3130.2455777813570421
 21
134.263018807481501
 31
0.0
  0
LINE
  5
2745D
  8
0
 10
3130.2455777813570421
 20
134.263018807481501
 30
0.0
 11
3130.2584899545468033
 21
134.2682689709650106
 31
0.0
  0
LINE
  5
2745E
  8
0
 10
3130.2584899545468033
 20
134.2682689709650106
 30
0.0
 11
3130.2633987796230031
 21
134.2644577028650019
 31
0.0
  0
LINE
  5
2745F
  8
0
 10
3130.2633987796230031
 20
134.2644577028650019
 30
0.0
 11
3130.2751053404431332
 21
134.2699359437864075
 31
0.0
  0
LINE
  5
27460
  8
0
 10
3130.2751053404431332
 20
134.2699359437864075
 30
0.0
 11
3130.2849478601551709
 21
134.2811855166766861
 31
0.0
  0
LINE
  5
27461
  8
0
 10
3130.2721902785428938
 20
134.2914069153362107
 30
0.0
 11
3130.2554203010568017
 21
134.2836176165147037
 31
0.0
  0
LINE
  5
27462
  8
0
 10
3130.2554203010568017
 20
134.2836176165147037
 30
0.0
 11
3130.2455777813738678
 21
134.2874540251773965
 31
0.0
  0
LINE
  5
27463
  8
0
 10
3130.2455777813738678
 20
134.2874540251773965
 30
0.0
 11
3130.2530577779712075
 21
134.2972505745740079
 31
0.0
  0
LINE
  5
27464
  8
0
 10
3130.2505021267261327
 20
134.297941628575586
 30
0.0
 11
3130.247266490831862
 21
134.2936144119823041
 31
0.0
  0
LINE
  5
27465
  8
0
 10
3130.247266490831862
 20
134.2936144119823041
 30
0.0
 11
3130.2275814514041485
 21
134.2855113933306939
 31
0.0
  0
LINE
  5
27466
  8
0
 10
3130.2275814514041485
 20
134.2855113933306939
 30
0.0
 11
3130.2177389317212146
 21
134.2907234691492988
 31
0.0
  0
LINE
  5
27467
  8
0
 10
3130.2177389317212146
 20
134.2907234691492988
 30
0.0
 11
3130.2271425888229714
 21
134.3034943840033009
 31
0.0
  0
LINE
  5
27468
  8
0
 10
3130.2243455677848942
 20
134.3040933500406027
 30
0.0
 11
3130.2194276411451028
 21
134.2973298575915067
 31
0.0
  0
LINE
  5
27469
  8
0
 10
3130.2194276411451028
 20
134.2973298575915067
 30
0.0
 11
3130.1997426017710495
 21
134.2902715915388967
 31
0.0
  0
LINE
  5
2746A
  8
0
 10
3130.1997426017710495
 20
134.2902715915388967
 30
0.0
 11
3130.1899000820408219
 21
134.2968525016057129
 31
0.0
  0
LINE
  5
2746B
  8
0
 10
3130.1899000820408219
 20
134.2968525016057129
 30
0.0
 11
3130.1986463537778036
 21
134.3089934317304994
 31
0.0
  0
LINE
  5
2746C
  8
0
 10
3130.195520557861073
 20
134.3095394545858881
 30
0.0
 11
3130.1915887915702115
 21
134.3039248714781877
 31
0.0
  0
LINE
  5
2746D
  8
0
 10
3130.1915887915702115
 20
134.3039248714781877
 30
0.0
 11
3130.1719037521229438
 21
134.2978684431649867
 31
0.0
  0
LINE
  5
2746E
  8
0
 10
3130.1719037521229438
 20
134.2978684431649867
 30
0.0
 11
3130.162061232474116
 21
134.3058341339219908
 31
0.0
  0
LINE
  5
2746F
  8
0
 10
3130.162061232474116
 20
134.3058341339219908
 30
0.0
 11
3130.167502405119194
 21
134.3135414788550861
 31
0.0
  0
LINE
  5
27470
  8
0
 10
3130.1641418564959167
 20
134.3139649181115942
 30
0.0
 11
3130.1637499418229709
 21
134.3134002872650115
 31
0.0
  0
LINE
  5
27471
  8
0
 10
3130.1637499418229709
 20
134.3134002872650115
 30
0.0
 11
3130.1440649024698359
 21
134.3083194123719863
 31
0.0
  0
LINE
  5
27472
  8
0
 10
3130.1440649024698359
 20
134.3083194123719863
 30
0.0
 11
3130.1346936450609064
 21
134.3172421301358099
 31
0.0
  0
LINE
  5
27473
  8
0
 10
3130.135911092123024
 20
134.3106382944376946
 30
0.0
 11
3130.1457536118527969
 21
134.3016624536371069
 31
0.0
  0
LINE
  5
27474
  8
0
 10
3130.1457536118527969
 20
134.3016624536371069
 30
0.0
 11
3130.135911092203969
 21
134.2887746405590121
 31
0.0
  0
LINE
  5
27475
  8
0
 10
3130.135911092203969
 20
134.2887746405590121
 30
0.0
 11
3130.1162260528358274
 21
134.2848449542447895
 31
0.0
  0
LINE
  5
27476
  8
0
 10
3130.1162260528358274
 20
134.2848449542447895
 30
0.0
 11
3130.106383533060125
 21
134.2936993819726013
 31
0.0
  0
LINE
  5
27477
  8
0
 10
3130.106383533060125
 20
134.2936993819726013
 30
0.0
 11
3130.1162260527171384
 21
134.3066029833155142
 31
0.0
  0
LINE
  5
27478
  8
0
 10
3130.1162260527171384
 20
134.3066029833155142
 30
0.0
 11
3130.135911092123024
 21
134.3106382944376946
 31
0.0
  0
LINE
  5
27479
  8
0
 10
3130.113290900355878
 20
134.3191383286429073
 30
0.0
 11
3130.1179147622001437
 21
134.3143345558382009
 31
0.0
  0
LINE
  5
2747A
  8
0
 10
3130.1179147622001437
 20
134.3143345558382009
 30
0.0
 11
3130.1080722425058411
 21
134.3009769278220062
 31
0.0
  0
LINE
  5
2747B
  8
0
 10
3130.1080722425058411
 20
134.3009769278220062
 30
0.0
 11
3130.0883872031231476
 21
134.2979949751650111
 31
0.0
  0
LINE
  5
2747C
  8
0
 10
3130.0883872031231476
 20
134.2979949751650111
 30
0.0
 11
3130.078544683425207
 21
134.3082798299346052
 31
0.0
  0
LINE
  5
2747D
  8
0
 10
3130.078544683425207
 20
134.3082798299346052
 30
0.0
 11
3130.0877883315561121
 21
134.3208671820256086
 31
0.0
  0
LINE
  5
2747E
  8
0
 10
3130.0838385676861435
 20
134.3210835096492133
 30
0.0
 11
3130.0802333928231747
 21
134.3161003279057866
 31
0.0
  0
LINE
  5
2747F
  8
0
 10
3130.0802333928231747
 20
134.3161003279057866
 30
0.0
 11
3130.0605483535227904
 21
134.3140771797359889
 31
0.0
  0
LINE
  5
27480
  8
0
 10
3130.0605483535227904
 20
134.3140771797359889
 30
0.0
 11
3130.0536020103190822
 21
134.3223187082884067
 31
0.0
  0
LINE
  5
27481
  8
0
 10
3130.1179147622551682
 20
134.2787682238185027
 30
0.0
 11
3130.1080722425231215
 21
134.2872311493653115
 31
0.0
  0
LINE
  5
27482
  8
0
 10
3130.1080722425231215
 20
134.2872311493653115
 30
0.0
 11
3130.0883872031549799
 21
134.2842978919678956
 31
0.0
  0
LINE
  5
27483
  8
0
 10
3130.0883872031549799
 20
134.2842978919678956
 30
0.0
 11
3130.0785446834761387
 21
134.2729662353586946
 31
0.0
  0
LINE
  5
27484
  8
0
 10
3130.0785446834761387
 20
134.2729662353586946
 30
0.0
 11
3130.0883872031231476
 21
134.2645874910523105
 31
0.0
  0
LINE
  5
27485
  8
0
 10
3130.0883872031231476
 20
134.2645874910523105
 30
0.0
 11
3130.1080722424758278
 21
134.2674572021695099
 31
0.0
  0
LINE
  5
27486
  8
0
 10
3130.1080722424758278
 20
134.2674572021695099
 30
0.0
 11
3130.1179147622560777
 21
134.278768223817309
 31
0.0
  0
LINE
  5
27487
  8
0
 10
3130.1735924614158648
 20
134.2918739806513884
 30
0.0
 11
3130.1637499418229709
 21
134.2994456255649993
 31
0.0
  0
LINE
  5
27488
  8
0
 10
3130.1637499418229709
 20
134.2994456255649993
 30
0.0
 11
3130.144064902422997
 21
134.2944513734163081
 31
0.0
  0
LINE
  5
27489
  8
0
 10
3130.144064902422997
 20
134.2944513734163081
 30
0.0
 11
3130.1342223827728048
 21
134.281999837780603
 31
0.0
  0
LINE
  5
2748A
  8
0
 10
3130.1342223827728048
 20
134.281999837780603
 30
0.0
 11
3130.144064902422997
 21
134.2745180577290114
 31
0.0
  0
LINE
  5
2748B
  8
0
 10
3130.144064902422997
 20
134.2745180577290114
 30
0.0
 11
3130.1637499417988693
 21
134.2793995512354002
 31
0.0
  0
LINE
  5
2748C
  8
0
 10
3130.1637499417988693
 20
134.2793995512354002
 30
0.0
 11
3130.1735924614567921
 21
134.2918739806218866
 31
0.0
  0
LINE
  5
2748D
  8
0
 10
3130.2014313111799311
 20
134.2849151704627104
 30
0.0
 11
3130.1915887915229177
 21
134.2911158227427961
 31
0.0
  0
LINE
  5
2748E
  8
0
 10
3130.1915887915229177
 20
134.2911158227427961
 30
0.0
 11
3130.1719037521229438
 21
134.2851488543649907
 31
0.0
  0
LINE
  5
2748F
  8
0
 10
3130.1719037521229438
 20
134.2851488543649907
 30
0.0
 11
3130.1620612324518333
 21
134.2730974060081905
 31
0.0
  0
LINE
  5
27490
  8
0
 10
3130.1620612324518333
 20
134.2730974060081905
 30
0.0
 11
3130.1719037521511382
 21
134.2669542876843991
 31
0.0
  0
LINE
  5
27491
  8
0
 10
3130.1719037521511382
 20
134.2669542876843991
 30
0.0
 11
3130.191588791560207
 21
134.2728062038343921
 31
0.0
  0
LINE
  5
27492
  8
0
 10
3130.191588791560207
 20
134.2728062038343921
 30
0.0
 11
3130.2014313111799311
 21
134.2849151704627104
 31
0.0
  0
LINE
  5
27493
  8
0
 10
3130.2194276411228202
 20
134.2856192270448048
 30
0.0
 11
3130.1997426017219368
 21
134.2786504203650111
 31
0.0
  0
LINE
  5
27494
  8
0
 10
3130.1997426017219368
 20
134.2786504203650111
 30
0.0
 11
3130.1899000820671972
 21
134.2669548622571085
 31
0.0
  0
LINE
  5
27495
  8
0
 10
3130.1899000820671972
 20
134.2669548622571085
 30
0.0
 11
3130.1997426017219368
 21
134.2621377872023913
 31
0.0
  0
LINE
  5
27496
  8
0
 10
3130.1997426017219368
 20
134.2621377872023913
 30
0.0
 11
3130.2194276411228202
 21
134.2689938473650102
 31
0.0
  0
LINE
  5
27497
  8
0
 10
3130.2194276411228202
 20
134.2689938473650102
 30
0.0
 11
3130.2194276411228202
 21
134.2803799747653954
 31
0.0
  0
LINE
  5
27498
  8
0
 10
3130.2194276411228202
 20
134.2803799747653954
 30
0.0
 11
3130.2194276364339203
 21
134.2856192253850907
 31
0.0
  0
LINE
  5
27499
  8
0
 10
3130.2194276364339203
 20
134.2856192253850907
 30
0.0
 11
3130.229270160744818
 21
134.2807792508691023
 31
0.0
  0
LINE
  5
2749A
  8
0
 10
3130.229270160744818
 20
134.2807792508691023
 30
0.0
 11
3130.219427641196944
 21
134.2689938473909024
 31
0.0
  0
LINE
  5
2749B
  8
0
 10
3130.1997426017219368
 20
134.2621377872023913
 30
0.0
 11
3130.1997426059770078
 21
134.2786504218711912
 31
0.0
  0
LINE
  5
2749C
  8
0
 10
3130.2571090104961513
 20
134.2795060776888079
 30
0.0
 11
3130.2472664908218576
 21
134.2829732388634909
 31
0.0
  0
LINE
  5
2749D
  8
0
 10
3130.2472664908218576
 20
134.2829732388634909
 30
0.0
 11
3130.2275814513968726
 21
134.274956841439888
 31
0.0
  0
LINE
  5
2749E
  8
0
 10
3130.2275814513968726
 20
134.274956841439888
 30
0.0
 11
3130.2177389317630514
 21
134.263578534162491
 31
0.0
  0
LINE
  5
2749F
  8
0
 10
3130.2177389317630514
 20
134.263578534162491
 30
0.0
 11
3130.2275814513850491
 21
134.2600955788655028
 31
0.0
  0
LINE
  5
274A0
  8
0
 10
3130.2275814513850491
 20
134.2600955788655028
 30
0.0
 11
3130.2472664907368198
 21
134.2680063748452142
 31
0.0
  0
LINE
  5
274A1
  8
0
 10
3130.2472664907368198
 20
134.2680063748452142
 30
0.0
 11
3130.2571090104961513
 21
134.2795060776888079
 31
0.0
  0
LINE
  5
274A2
  8
0
 10
3130.2292707685151072
 20
134.2564870871503047
 30
0.0
 11
3130.219426557730003
 21
134.2596136315833917
 31
0.0
  0
LINE
  5
274A3
  8
0
 10
3130.219426557730003
 20
134.2596136315833917
 30
0.0
 11
3130.19974260181516
 21
134.2528122322208048
 31
0.0
  0
LINE
  5
274A4
  8
0
 10
3130.19974260181516
 20
134.2528122322208048
 30
0.0
 11
3130.1899000820390029
 21
134.2429483960023049
 31
0.0
  0
LINE
  5
274A5
  8
0
 10
3130.1899000820390029
 20
134.2429483960023049
 30
0.0
 11
3130.2292707685151072
 21
134.2564870871503047
 31
0.0
  0
LINE
  5
274A6
  8
0
 10
3130.2014313111690171
 20
134.2579231558297863
 30
0.0
 11
3130.1915887915229177
 21
134.2623821985075097
 31
0.0
  0
LINE
  5
274A7
  8
0
 10
3130.1915887915229177
 20
134.2623821985075097
 30
0.0
 11
3130.1719037521229438
 21
134.2565883517243037
 31
0.0
  0
LINE
  5
274A8
  8
0
 10
3130.1719037521229438
 20
134.2565883517243037
 30
0.0
 11
3130.1620612323740716
 21
134.2464066018241908
 31
0.0
  0
LINE
  5
274A9
  8
0
 10
3130.1620612323740716
 20
134.2464066018241908
 30
0.0
 11
3130.1719037520870188
 21
134.2419574372582076
 31
0.0
  0
LINE
  5
274AA
  8
0
 10
3130.1719037520870188
 20
134.2419574372582076
 30
0.0
 11
3130.1915887915288295
 21
134.2476803084751111
 31
0.0
  0
LINE
  5
274AB
  8
0
 10
3130.1915887915288295
 20
134.2476803084751111
 30
0.0
 11
3130.2014313111690171
 21
134.2579231558297863
 31
0.0
  0
LINE
  5
274AC
  8
0
 10
3130.1735956936217917
 20
134.238225192464995
 30
0.0
 11
3130.1637499417438448
 21
134.2423236855632069
 31
0.0
  0
LINE
  5
274AD
  8
0
 10
3130.1637499417438448
 20
134.2423236855632069
 30
0.0
 11
3130.1440649024821141
 21
134.2376095465585024
 31
0.0
  0
LINE
  5
274AE
  8
0
 10
3130.1440649024821141
 20
134.2376095465585024
 30
0.0
 11
3130.134222382749158
 21
134.2288354313407126
 31
0.0
  0
LINE
  5
274AF
  8
0
 10
3130.134222382749158
 20
134.2288354313407126
 30
0.0
 11
3130.1735956936217917
 21
134.238225192464995
 31
0.0
  0
LINE
  5
274B0
  8
0
 10
3130.1735924615782096
 20
134.2621324069897071
 30
0.0
 11
3130.163749941928927
 21
134.267911581246409
 31
0.0
  0
LINE
  5
274B1
  8
0
 10
3130.163749941928927
 20
134.267911581246409
 30
0.0
 11
3130.144064902422997
 21
134.2630881572015085
 31
0.0
  0
LINE
  5
274B2
  8
0
 10
3130.144064902422997
 20
134.2630881572015085
 30
0.0
 11
3130.1342223827759881
 21
134.2525595020098876
 31
0.0
  0
LINE
  5
274B3
  8
0
 10
3130.1342223827750786
 20
134.2525595020098876
 30
0.0
 11
3130.144064902422997
 21
134.2468170211649863
 31
0.0
  0
LINE
  5
274B4
  8
0
 10
3130.144064902422997
 20
134.2468170211649863
 30
0.0
 11
3130.1637499418720836
 21
134.2515670646317005
 31
0.0
  0
LINE
  5
274B5
  8
0
 10
3130.1637499418720836
 20
134.2515670646317005
 30
0.0
 11
3130.1735924615040858
 21
134.2621324069162085
 31
0.0
  0
LINE
  5
274B6
  8
0
 10
3130.1457536118377902
 20
134.2690787057846933
 30
0.0
 11
3130.1359110921957836
 21
134.2761855834380071
 31
0.0
  0
LINE
  5
274B7
  8
0
 10
3130.1359110921957836
 20
134.2761855834380071
 30
0.0
 11
3130.116226052778984
 21
134.272310943804996
 31
0.0
  0
LINE
  5
274B8
  8
0
 10
3130.116226052778984
 20
134.272310943804996
 30
0.0
 11
3130.1073110171810185
 21
134.2623972998956958
 31
0.0
  0
LINE
  5
274B9
  8
0
 10
3130.1073110171810185
 20
134.2623972998956958
 30
0.0
 11
3130.1162260528230945
 21
134.2543554735823932
 31
0.0
  0
LINE
  5
274BA
  8
0
 10
3130.1162260528230945
 20
134.2543554735823932
 30
0.0
 11
3130.1359110921757747
 21
134.2581591320752068
 31
0.0
  0
LINE
  5
274BB
  8
0
 10
3130.1359110921757747
 20
134.2581591320752068
 30
0.0
 11
3130.1457536118350617
 21
134.2690787057811121
 31
0.0
  0
LINE
  5
274BC
  8
0
 10
3130.1457536118127791
 20
134.2424874135764128
 30
0.0
 11
3130.135911092123024
 21
134.2478781492650057
 31
0.0
  0
LINE
  5
274BD
  8
0
 10
3130.135911092123024
 20
134.2478781492650057
 30
0.0
 11
3130.1162260528230945
 21
134.2441103954903099
 31
0.0
  0
LINE
  5
274BE
  8
0
 10
3130.1162260528230945
 20
134.2441103954903099
 30
0.0
 11
3130.1063835331028713
 21
134.2349961195747028
 31
0.0
  0
LINE
  5
274BF
  8
0
 10
3130.1063835331028713
 20
134.2349961195747028
 30
0.0
 11
3130.1162260528230945
 21
134.2296273628649885
 31
0.0
  0
LINE
  5
274C0
  8
0
 10
3130.1162260528230945
 20
134.2296273628649885
 30
0.0
 11
3130.135911092123024
 21
134.2333511609027141
 31
0.0
  0
LINE
  5
274C1
  8
0
 10
3130.135911092123024
 20
134.2333511609027141
 30
0.0
 11
3130.1457536118100506
 21
134.2424874135780044
 31
0.0
  0
LINE
  5
274C2
  8
0
 10
3130.1179147621719494
 20
134.2494241586663009
 30
0.0
 11
3130.108072242522212
 21
134.2561094708071892
 31
0.0
  0
LINE
  5
274C3
  8
0
 10
3130.108072242522212
 20
134.2561094708071892
 30
0.0
 11
3130.0883872031231476
 21
134.253272554565001
 31
0.0
  0
LINE
  5
274C4
  8
0
 10
3130.0883872031231476
 20
134.253272554565001
 30
0.0
 11
3130.0785446834797767
 21
134.2437922380867121
 31
0.0
  0
LINE
  5
274C5
  8
0
 10
3130.0785446834797767
 20
134.2437922380867121
 30
0.0
 11
3130.0883872031231476
 21
134.237146851864992
 31
0.0
  0
LINE
  5
274C6
  8
0
 10
3130.0883872031231476
 20
134.237146851864992
 30
0.0
 11
3130.108072242522212
 21
134.2399422600649928
 31
0.0
  0
LINE
  5
274C7
  8
0
 10
3130.108072242522212
 20
134.2399422600649928
 30
0.0
 11
3130.1179147621719494
 21
134.2494241586663009
 31
0.0
  0
LINE
  5
274C8
  8
0
 10
3130.1179147622378878
 20
134.225759685459991
 30
0.0
 11
3130.1083926540432003
 21
134.2306115115127056
 31
0.0
  0
LINE
  5
274C9
  8
0
 10
3130.1083926540432003
 20
134.2306115115127056
 30
0.0
 11
3130.0883872031690771
 21
134.2280106004575089
 31
0.0
  0
LINE
  5
274CA
  8
0
 10
3130.0883872031690771
 20
134.2280106004575089
 30
0.0
 11
3130.0785446834838694
 21
134.2202331720517918
 31
0.0
  0
LINE
  5
274CB
  8
0
 10
3130.0785446834838694
 20
134.2202331720517918
 30
0.0
 11
3130.1179147622378878
 21
134.225759685459991
 31
0.0
  0
LINE
  5
274CC
  8
0
 10
3130.0900759125588593
 20
134.232689314006393
 30
0.0
 11
3130.0802333928231747
 21
134.2389850629650141
 31
0.0
  0
LINE
  5
274CD
  8
0
 10
3130.0802333928231747
 20
134.2389850629650141
 30
0.0
 11
3130.0605483536119209
 21
134.2371280061616119
 31
0.0
  0
LINE
  5
274CE
  8
0
 10
3130.0605483536119209
 20
134.2371280061616119
 30
0.0
 11
3130.0507058338398565
 21
134.2289964281449102
 31
0.0
  0
LINE
  5
274CF
  8
0
 10
3130.0507058338398565
 20
134.2289964281449102
 30
0.0
 11
3130.0605483534977793
 21
134.2227248908982062
 31
0.0
  0
LINE
  5
274D0
  8
0
 10
3130.0605483534977793
 20
134.2227248908982062
 30
0.0
 11
3130.0802333927417749
 21
134.2245608851424947
 31
0.0
  0
LINE
  5
274D1
  8
0
 10
3130.0802333927417749
 20
134.2245608851424947
 30
0.0
 11
3130.0900759125588593
 21
134.232689314006393
 31
0.0
  0
LINE
  5
274D2
  8
0
 10
3130.0622370629489524
 20
134.2187165696846023
 30
0.0
 11
3130.0523945431550601
 21
134.2246463745794074
 31
0.0
  0
LINE
  5
274D3
  8
0
 10
3130.0523945431550601
 20
134.2246463745794074
 30
0.0
 11
3130.0327095038901462
 21
134.2237298822888079
 31
0.0
  0
LINE
  5
274D4
  8
0
 10
3130.0327095038901462
 20
134.2237298822888079
 30
0.0
 11
3130.022866984113989
 21
134.2168912613705913
 31
0.0
  0
LINE
  5
274D5
  8
0
 10
3130.022866984113989
 20
134.2168912613705913
 30
0.0
 11
3130.0622370629489524
 21
134.2187165696846023
 31
0.0
  0
LINE
  5
274D6
  8
0
 10
3130.0622370628161661
 20
134.2422470795019933
 30
0.0
 11
3130.0523945432901201
 21
134.2498341973119977
 31
0.0
  0
LINE
  5
274D7
  8
0
 10
3130.0523945432901201
 20
134.2498341973119977
 30
0.0
 11
3130.0327095037728213
 21
134.2488976679834138
 31
0.0
  0
LINE
  5
274D8
  8
0
 10
3130.0327095037728213
 20
134.2488976679834138
 30
0.0
 11
3130.0228669841771989
 21
134.2403876101419087
 31
0.0
  0
LINE
  5
274D9
  8
0
 10
3130.0228669841771989
 20
134.2403876101419087
 30
0.0
 11
3130.0327095038228435
 21
134.2328351594021001
 31
0.0
  0
LINE
  5
274DA
  8
0
 10
3130.0327095038228435
 20
134.2328351594021001
 30
0.0
 11
3130.0523945432228174
 21
134.2337582432388956
 31
0.0
  0
LINE
  5
274DB
  8
0
 10
3130.0523945432228174
 20
134.2337582432388956
 30
0.0
 11
3130.0622370629671423
 21
134.2422470794938931
 31
0.0
  0
LINE
  5
274DC
  8
0
 10
3130.0900759125302102
 20
134.2590381564461097
 30
0.0
 11
3130.0802333928490953
 21
134.2670426340370966
 31
0.0
  0
LINE
  5
274DD
  8
0
 10
3130.0802333928490953
 20
134.2670426340370966
 30
0.0
 11
3130.0605483535227904
 21
134.265134447047302
 31
0.0
  0
LINE
  5
274DE
  8
0
 10
3130.0605483535227904
 20
134.265134447047302
 30
0.0
 11
3130.0507058337529998
 21
134.2552561631260062
 31
0.0
  0
LINE
  5
274DF
  8
0
 10
3130.0507058337529998
 20
134.2552561631260062
 30
0.0
 11
3130.0605483534509403
 21
134.2473078444463113
 31
0.0
  0
LINE
  5
274E0
  8
0
 10
3130.0605483534509403
 20
134.2473078444463113
 30
0.0
 11
3130.0802333928218104
 21
134.2491820906600992
 31
0.0
  0
LINE
  5
274E1
  8
0
 10
3130.0802333928218104
 20
134.2491820906600992
 30
0.0
 11
3130.0900759125302102
 21
134.2590381564461097
 31
0.0
  0
LINE
  5
274E2
  8
0
 10
3130.0622370628962017
 20
134.2713750470329899
 30
0.0
 11
3130.052394543212813
 21
134.280744162716303
 31
0.0
  0
LINE
  5
274E3
  8
0
 10
3130.052394543212813
 20
134.280744162716303
 30
0.0
 11
3130.03270950378419
 21
134.2797764697347986
 31
0.0
  0
LINE
  5
274E4
  8
0
 10
3130.03270950378419
 20
134.2797764697347986
 30
0.0
 11
3130.022866984168104
 21
134.2694605379257951
 31
0.0
  0
LINE
  5
274E5
  8
0
 10
3130.022866984168104
 20
134.2694605379257951
 30
0.0
 11
3130.0327095038069274
 21
134.2601627010928951
 31
0.0
  0
LINE
  5
274E6
  8
0
 10
3130.0327095038069274
 20
134.2601627010928951
 30
0.0
 11
3130.0523945432228174
 21
134.2601627010928951
 31
0.0
  0
LINE
  5
274E7
  8
0
 10
3130.0523945432228174
 20
134.2601627010928951
 30
0.0
 11
3130.0622370628962017
 21
134.2713750470329899
 31
0.0
  0
LINE
  5
274E8
  8
0
 10
3130.090075912525208
 20
134.2912500897087966
 30
0.0
 11
3130.0802333928390908
 21
134.301120125727607
 31
0.0
  0
LINE
  5
274E9
  8
0
 10
3130.0802333928390908
 20
134.301120125727607
 30
0.0
 11
3130.0605483534868654
 21
134.2991353180987062
 31
0.0
  0
LINE
  5
274EA
  8
0
 10
3130.0605483534868654
 20
134.2991353180987062
 30
0.0
 11
3130.0507058338039315
 21
134.2873317613866959
 31
0.0
  0
LINE
  5
274EB
  8
0
 10
3130.0507058338039315
 20
134.2873317613866959
 30
0.0
 11
3130.060548353465947
 21
134.2775686176775025
 31
0.0
  0
LINE
  5
274EC
  8
0
 10
3130.060548353465947
 20
134.2775686176775025
 30
0.0
 11
3130.0802333928231747
 21
134.2795030879649971
 31
0.0
  0
LINE
  5
274ED
  8
0
 10
3130.0802333928231747
 20
134.2795030879649971
 30
0.0
 11
3130.090075912525208
 21
134.2912500897087966
 31
0.0
  0
LINE
  5
274EE
  8
0
 10
3130.0622370629348552
 20
134.3066203400441907
 30
0.0
 11
3130.0523945433051267
 21
134.3179752258373867
 31
0.0
  0
LINE
  5
274EF
  8
0
 10
3130.0523945433051267
 20
134.3179752258373867
 30
0.0
 11
3130.032709503876049
 21
134.3169618526598867
 31
0.0
  0
LINE
  5
274F0
  8
0
 10
3130.032709503876049
 20
134.3169618526598867
 30
0.0
 11
3130.0228669841558258
 21
134.3046242173402902
 31
0.0
  0
LINE
  5
274F1
  8
0
 10
3130.0228669841558258
 20
134.3046242173402902
 30
0.0
 11
3130.032709503865135
 21
134.2933995631840105
 31
0.0
  0
LINE
  5
274F2
  8
0
 10
3130.032709503865135
 20
134.2933995631840105
 30
0.0
 11
3130.0523945432869368
 21
134.2943829839200873
 31
0.0
  0
LINE
  5
274F3
  8
0
 10
3130.0523945432869368
 20
134.2943829839200873
 30
0.0
 11
3130.0622370629171201
 21
134.3066203400414054
 31
0.0
  0
LINE
  5
274F4
  8
0
 10
3130.0147118747217974
 20
134.1766194339649871
 30
0.0
 11
3130.0245556935219611
 21
134.1766194339649871
 31
0.0
  0
LINE
  5
274F5
  8
0
 10
3130.0245556935219611
 20
134.1766194339649871
 30
0.0
 11
3130.0343982126310038
 21
134.1758659447457944
 31
0.0
  0
LINE
  5
274F6
  8
0
 10
3130.0343982126310038
 20
134.1758659447457944
 30
0.0
 11
3130.0245556935201421
 21
134.1750496736914897
 31
0.0
  0
LINE
  5
274F7
  8
0
 10
3130.0245556935201421
 20
134.1750496736914897
 30
0.0
 11
3130.0147134676840324
 21
134.174968155165999
 31
0.0
  0
LINE
  5
274F8
  8
0
 10
3130.0228669840789735
 20
134.1776147457570119
 30
0.0
 11
3130.032709503876049
 21
134.1764360814190127
 31
0.0
  0
LINE
  5
274F9
  8
0
 10
3130.032709503876049
 20
134.1764360814190127
 30
0.0
 11
3130.0523945431777975
 21
134.1773525737808086
 31
0.0
  0
LINE
  5
274FA
  8
0
 10
3130.0523945431777975
 20
134.1773525737808086
 30
0.0
 11
3130.0622369431839616
 21
134.1794400232525106
 31
0.0
  0
LINE
  5
274FB
  8
0
 10
3130.0622369431839616
 20
134.1794400232525106
 30
0.0
 11
3130.0523956397460097
 21
134.1788223473290884
 31
0.0
  0
LINE
  5
274FC
  8
0
 10
3130.0523956397460097
 20
134.1788223473290884
 30
0.0
 11
3130.0327095038228435
 21
134.1779101793044902
 31
0.0
  0
LINE
  5
274FD
  8
0
 10
3130.0327095038228435
 20
134.1779101793044902
 30
0.0
 11
3130.0228669840789735
 21
134.1776147457570971
 31
0.0
  0
LINE
  5
274FE
  8
0
 10
3130.0507058337529998
 20
134.176627740649991
 30
0.0
 11
3130.0605483535227904
 21
134.1768191847891956
 31
0.0
  0
LINE
  5
274FF
  8
0
 10
3130.0507058338321258
 20
134.1766277406613028
 30
0.0
 11
3130.0605483534850464
 21
134.1783734885746071
 31
0.0
  0
LINE
  5
27500
  8
0
 10
3130.0605483534850464
 20
134.1783734885746071
 30
0.0
 11
3130.0802333928750159
 21
134.1802094828566965
 31
0.0
  0
LINE
  5
27501
  8
0
 10
3130.0802333928750159
 20
134.1802094828566965
 30
0.0
 11
3130.0900759125997865
 21
134.1803206265313975
 31
0.0
  0
LINE
  5
27502
  8
0
 10
3130.0900759125997865
 20
134.1803206265313975
 30
0.0
 11
3130.0803880202452092
 21
134.1785790289721092
 31
0.0
  0
LINE
  5
27503
  8
0
 10
3130.0785446834879622
 20
134.1809566564828913
 30
0.0
 11
3130.0883872031167812
 21
134.180716799694892
 31
0.0
  0
LINE
  5
27504
  8
0
 10
3130.0883872031167812
 20
134.180716799694892
 30
0.0
 11
3130.1080722424640044
 21
134.1834918717071901
 31
0.0
  0
LINE
  5
27505
  8
0
 10
3130.1080722424640044
 20
134.1834918717071901
 30
0.0
 11
3130.1179147621642187
 21
134.1864831698644025
 31
0.0
  0
LINE
  5
27506
  8
0
 10
3130.1179147621642187
 20
134.1864831698644025
 30
0.0
 11
3130.108072242522212
 21
134.1849316534336936
 31
0.0
  0
LINE
  5
27507
  8
0
 10
3130.108072242522212
 20
134.1849316534336936
 30
0.0
 11
3130.0883872031231476
 21
134.1821701345390068
 31
0.0
  0
LINE
  5
27508
  8
0
 10
3130.0883872031231476
 20
134.1821701345390068
 30
0.0
 11
3130.0785446834229333
 21
134.180956656465014
 31
0.0
  0
LINE
  5
27509
  8
0
 10
3130.1063835331110567
 20
134.182627432138105
 30
0.0
 11
3130.1162260524288286
 21
134.1852759604965968
 31
0.0
  0
LINE
  5
2750A
  8
0
 10
3130.1162260524288286
 20
134.1852759604965968
 30
0.0
 11
3130.135911092123024
 21
134.1889997586129084
 31
0.0
  0
LINE
  5
2750B
  8
0
 10
3130.135911092123024
 20
134.1889997586129084
 30
0.0
 11
3130.1457536116231495
 21
134.1901187260995982
 31
0.0
  0
LINE
  5
2750C
  8
0
 10
3130.1457536116231495
 20
134.1901187260995982
 30
0.0
 11
3130.135911092123024
 21
134.1874921766410864
 31
0.0
  0
LINE
  5
2750D
  8
0
 10
3130.135911092123024
 20
134.1874921766410864
 30
0.0
 11
3130.1162260527871695
 21
134.1837244228053123
 31
0.0
  0
LINE
  5
2750E
  8
0
 10
3130.1162260527871695
 20
134.1837244228053123
 30
0.0
 11
3130.1063835331337941
 21
134.1826274320883101
 31
0.0
  0
LINE
  5
2750F
  8
0
 10
3130.1342223828050919
 20
134.1895589156980861
 30
0.0
 11
3130.1440649024762024
 21
134.190315745929496
 31
0.0
  0
LINE
  5
27510
  8
0
 10
3130.1440649024762024
 20
134.190315745929496
 30
0.0
 11
3130.1637499418229709
 21
134.1950298847013983
 31
0.0
  0
LINE
  5
27511
  8
0
 10
3130.1637499418229709
 20
134.1950298847013983
 30
0.0
 11
3130.1735956854518008
 21
134.1989460431800012
 31
0.0
  0
LINE
  5
27512
  8
0
 10
3130.1735956854518008
 20
134.1989460431800012
 30
0.0
 11
3130.1637499418229709
 21
134.196414225765011
 31
0.0
  0
LINE
  5
27513
  8
0
 10
3130.1637499418229709
 20
134.196414225765011
 30
0.0
 11
3130.144064902422997
 21
134.1917238198649898
 31
0.0
  0
LINE
  5
27514
  8
0
 10
3130.144064902422997
 20
134.1917238198649898
 30
0.0
 11
3130.1342223828050919
 21
134.1895589156980861
 31
0.0
  0
LINE
  5
27515
  8
0
 10
3130.1620612323918067
 20
134.1940379143071027
 30
0.0
 11
3130.1719037521229438
 21
134.1976060348497128
 31
0.0
  0
LINE
  5
27516
  8
0
 10
3130.1719037521229438
 20
134.1976060348497128
 30
0.0
 11
3130.1915887915060921
 21
134.2033289061085952
 31
0.0
  0
LINE
  5
27517
  8
0
 10
3130.1915887915060921
 20
134.2033289061085952
 30
0.0
 11
3130.2014313107761154
 21
134.2055544682781942
 31
0.0
  0
LINE
  5
27518
  8
0
 10
3130.2014313107761154
 20
134.2055544682781942
 30
0.0
 11
3130.1988069950598401
 21
134.2043884962648121
 31
0.0
  0
LINE
  5
27519
  8
0
 10
3130.1669114710580288
 20
134.1949610839733964
 30
0.0
 11
3130.1620612323918067
 21
134.1940379143071027
 31
0.0
  0
LINE
  5
2751A
  8
0
 10
3130.1899000820740184
 20
134.2036718803691997
 30
0.0
 11
3130.1997426017219368
 21
134.2068450899134859
 31
0.0
  0
LINE
  5
2751B
  8
0
 10
3130.1997426017219368
 20
134.2068450899134859
 30
0.0
 11
3130.2194276411228202
 21
134.2136123687650127
 31
0.0
  0
LINE
  5
2751C
  8
0
 10
3130.2194276411228202
 20
134.2136123687650127
 30
0.0
 11
3130.2290279030589772
 21
134.2171541034541065
 31
0.0
  0
LINE
  5
2751D
  8
0
 10
3130.2290279030589772
 20
134.2171541034541065
 30
0.0
 11
3130.2194276411228202
 21
134.2123194456650026
 31
0.0
  0
LINE
  5
2751E
  8
0
 10
3130.2194276411228202
 20
134.2123194456650026
 30
0.0
 11
3130.1997426017292128
 21
134.2055184315271106
 31
0.0
  0
LINE
  5
2751F
  8
0
 10
3130.1997426017292128
 20
134.2055184315271106
 30
0.0
 11
3130.1899000821122172
 21
134.2036718804068016
 31
0.0
  0
LINE
  5
27520
  8
0
 10
3130.2571090104438554
 20
134.2271373902545974
 30
0.0
 11
3130.2551941281190011
 21
134.2260643564160887
 31
0.0
  0
LINE
  5
27521
  8
0
 10
3130.2571090104438554
 20
134.2271373902545974
 30
0.0
 11
3130.2472664907281796
 21
134.2236549725776911
 31
0.0
  0
LINE
  5
27522
  8
0
 10
3130.2472664907281796
 20
134.2236549725776911
 30
0.0
 11
3130.2275814514459853
 21
134.2157441766985073
 31
0.0
  0
LINE
  5
27523
  8
0
 10
3130.2275814514459853
 20
134.2157441766985073
 30
0.0
 11
3130.2177389319681424
 21
134.211209846792201
 31
0.0
  0
LINE
  5
27524
  8
0
 10
3130.2177389319681424
 20
134.211209846792201
 30
0.0
 11
3130.2197712742440672
 21
134.2116495578775073
 31
0.0
  0
LINE
  5
27525
  8
0
 10
3130.0523945433051267
 20
134.3179752258373867
 30
0.0
 11
3130.0523945432869368
 21
134.2943829839200873
 31
0.0
  0
LINE
  5
27526
  8
0
 10
3130.032709503865135
 20
134.2933995631840105
 30
0.0
 11
3130.032709503876049
 21
134.3169618526598867
 31
0.0
  0
LINE
  5
27527
  8
0
 10
3130.0605483534868654
 20
134.2991353180987062
 30
0.0
 11
3130.060548353465947
 21
134.2775686176775025
 31
0.0
  0
LINE
  5
27528
  8
0
 10
3130.0802333928231747
 20
134.2795030879649971
 30
0.0
 11
3130.0802333928390908
 21
134.301120125727607
 31
0.0
  0
LINE
  5
27529
  8
0
 10
3130.052394543212813
 20
134.280744162716303
 30
0.0
 11
3130.052394543212813
 21
134.2601627010928951
 31
0.0
  0
LINE
  5
2752A
  8
0
 10
3130.0327095038069274
 20
134.2601627010928951
 30
0.0
 11
3130.03270950378419
 21
134.2797764697347986
 31
0.0
  0
LINE
  5
2752B
  8
0
 10
3130.0802333928490953
 20
134.2670426340370966
 30
0.0
 11
3130.0802333928218104
 21
134.2491820906600992
 31
0.0
  0
LINE
  5
2752C
  8
0
 10
3130.0605483534509403
 20
134.2473078444463113
 30
0.0
 11
3130.0605483535227904
 21
134.265134447047302
 31
0.0
  0
LINE
  5
2752D
  8
0
 10
3130.0523945432901201
 20
134.2498341973119977
 30
0.0
 11
3130.0523945432228174
 21
134.2337582432388956
 31
0.0
  0
LINE
  5
2752E
  8
0
 10
3130.0327095038228435
 20
134.2328351594021001
 30
0.0
 11
3130.0327095037728213
 21
134.2488976679834138
 31
0.0
  0
LINE
  5
2752F
  8
0
 10
3130.0523945431550601
 20
134.2246463745794074
 30
0.0
 11
3130.0523945431550601
 21
134.2182602426020992
 31
0.0
  0
LINE
  5
27530
  8
0
 10
3130.0327095038901462
 20
134.2237298822888079
 30
0.0
 11
3130.0327095038901462
 21
134.2173475884522134
 31
0.0
  0
LINE
  5
27531
  8
0
 10
3130.0605483536119209
 20
134.2371280061616119
 30
0.0
 11
3130.0605483534977793
 21
134.2227248908982062
 31
0.0
  0
LINE
  5
27532
  8
0
 10
3130.0802333927417749
 20
134.2245608851424947
 30
0.0
 11
3130.0802333928231747
 21
134.2389850629650141
 31
0.0
  0
LINE
  5
27533
  8
0
 10
3130.0883872031690771
 20
134.2280106004575089
 30
0.0
 11
3130.0892676545940958
 21
134.2217383923990042
 31
0.0
  0
LINE
  5
27534
  8
0
 10
3130.1083926540432003
 20
134.2306115115127056
 30
0.0
 11
3130.1092445652147944
 21
134.2245426200738052
 31
0.0
  0
LINE
  5
27535
  8
0
 10
3130.0883872031231476
 20
134.253272554565001
 30
0.0
 11
3130.0883872031231476
 21
134.237146851864992
 31
0.0
  0
LINE
  5
27536
  8
0
 10
3130.108072242522212
 20
134.2399422600649928
 30
0.0
 11
3130.108072242522212
 21
134.2561094708071892
 31
0.0
  0
LINE
  5
27537
  8
0
 10
3130.1080722425231215
 20
134.2872311493653115
 30
0.0
 11
3130.1080722424758278
 21
134.2674572021695099
 31
0.0
  0
LINE
  5
27538
  8
0
 10
3130.0883872031549799
 20
134.2842978919678956
 30
0.0
 11
3130.0883872031231476
 21
134.2645874910523105
 31
0.0
  0
LINE
  5
27539
  8
0
 10
3130.0883872031231476
 20
134.2979949751650111
 30
0.0
 11
3130.0883872031231476
 21
134.3208331792276056
 31
0.0
  0
LINE
  5
2753A
  8
0
 10
3130.1080722425058411
 20
134.3009769278220062
 30
0.0
 11
3130.1080722425058411
 21
134.3195389751471964
 31
0.0
  0
LINE
  5
2753B
  8
0
 10
3130.0802333928231747
 20
134.3161003279057866
 30
0.0
 11
3130.0802333928231747
 21
134.3212689430245064
 31
0.0
  0
LINE
  5
2753C
  8
0
 10
3130.0605483535227904
 20
134.3140771797359889
 30
0.0
 11
3130.0605483535227904
 21
134.3220967284690914
 31
0.0
  0
LINE
  5
2753D
  8
0
 10
3130.135911092123024
 20
134.3106382944376946
 30
0.0
 11
3130.135911092203969
 21
134.2887746405590121
 31
0.0
  0
LINE
  5
2753E
  8
0
 10
3130.1162260527171384
 20
134.3066029833155142
 30
0.0
 11
3130.1162260528358274
 21
134.2848449542447895
 31
0.0
  0
LINE
  5
2753F
  8
0
 10
3130.1637499418229709
 20
134.2994456255649993
 30
0.0
 11
3130.1637499417988693
 21
134.2793995512354002
 31
0.0
  0
LINE
  5
27540
  8
0
 10
3130.144064902422997
 20
134.2745180577290114
 30
0.0
 11
3130.144064902422997
 21
134.2944513734163081
 31
0.0
  0
LINE
  5
27541
  8
0
 10
3130.1359110921957836
 20
134.2761855834380071
 30
0.0
 11
3130.1359110921757747
 21
134.2581591320752068
 31
0.0
  0
LINE
  5
27542
  8
0
 10
3130.1162260528230945
 20
134.2543554735823932
 30
0.0
 11
3130.116226052778984
 21
134.272310943804996
 31
0.0
  0
LINE
  5
27543
  8
0
 10
3130.144064902422997
 20
134.2630881572015085
 30
0.0
 11
3130.144064902422997
 21
134.2468170211649863
 31
0.0
  0
LINE
  5
27544
  8
0
 10
3130.1637499418720836
 20
134.2515670646317005
 30
0.0
 11
3130.163749941928927
 21
134.267911581246409
 31
0.0
  0
LINE
  5
27545
  8
0
 10
3130.1719037521229438
 20
134.2851488543649907
 30
0.0
 11
3130.1719037521511382
 21
134.2669542876843991
 31
0.0
  0
LINE
  5
27546
  8
0
 10
3130.191588791560207
 20
134.2728062038343921
 30
0.0
 11
3130.1915887915229177
 21
134.2911158227427961
 31
0.0
  0
LINE
  5
27547
  8
0
 10
3130.1915887915229177
 20
134.2623821985075097
 30
0.0
 11
3130.1915887915288295
 21
134.2476803084751111
 31
0.0
  0
LINE
  5
27548
  8
0
 10
3130.1719037520870188
 20
134.2419574372582076
 30
0.0
 11
3130.1719037521229438
 21
134.2565883517243037
 31
0.0
  0
LINE
  5
27549
  8
0
 10
3130.1637499417438448
 20
134.2423236855632069
 30
0.0
 11
3130.1637499417438448
 21
134.2358771740694863
 31
0.0
  0
LINE
  5
2754A
  8
0
 10
3130.1440649024821141
 20
134.2376095465585024
 30
0.0
 11
3130.1440649024821141
 21
134.2311826789332088
 31
0.0
  0
LINE
  5
2754B
  8
0
 10
3130.19974260181516
 20
134.2528122322208048
 30
0.0
 11
3130.19974260181516
 21
134.2463330165739137
 31
0.0
  0
LINE
  5
2754C
  8
0
 10
3130.219426557730003
 20
134.2596136315833917
 30
0.0
 11
3130.219426557730003
 21
134.2531018850785927
 31
0.0
  0
LINE
  5
2754D
  8
0
 10
3130.2275814513968726
 20
134.274956841439888
 30
0.0
 11
3130.2275814513850491
 21
134.2600955788655028
 31
0.0
  0
LINE
  5
2754E
  8
0
 10
3130.2472664907368198
 20
134.2680063748452142
 30
0.0
 11
3130.2472664908218576
 21
134.2829732388634909
 31
0.0
  0
LINE
  5
2754F
  8
0
 10
3130.2751053403972037
 20
134.2832437917001869
 30
0.0
 11
3130.2751053404431332
 21
134.2699359437864075
 31
0.0
  0
LINE
  5
27550
  8
0
 10
3130.2832591507230973
 20
134.264673314465
 30
0.0
 11
3130.2832591507230973
 21
134.2762204397650123
 31
0.0
  0
LINE
  5
27551
  8
0
 10
3130.3029441899980156
 20
134.2687212294929111
 30
0.0
 11
3130.3029441900989696
 21
134.2607039443660994
 31
0.0
  0
LINE
  5
27552
  8
0
 10
3130.2832591507230973
 20
134.2504690405631891
 30
0.0
 11
3130.2832591507230973
 21
134.2584741036224045
 31
0.0
  0
LINE
  5
27553
  8
0
 10
3130.3029441900462189
 20
134.256763943040113
 30
0.0
 11
3130.3029441901230712
 21
134.2523494968650084
 31
0.0
  0
LINE
  5
27554
  8
0
 10
3130.2832591506980862
 20
134.242018810854006
 30
0.0
 11
3130.2832591507699362
 21
134.2465062558659099
 31
0.0
  0
LINE
  5
27555
  8
0
 10
3130.2554203010568017
 20
134.2836176165147037
 30
0.0
 11
3130.2554203010568017
 21
134.2965932470509927
 31
0.0
  0
LINE
  5
27556
  8
0
 10
3130.229061891855963
 20
134.2861207919877984
 30
0.0
 11
3130.229061891855963
 21
134.3030758458868092
 31
0.0
  0
LINE
  5
27557
  8
0
 10
3130.247266490831862
 20
134.2936144119823041
 30
0.0
 11
3130.247266490831862
 21
134.2987869170582087
 31
0.0
  0
LINE
  5
27558
  8
0
 10
3130.1997426017710495
 20
134.2902715915388967
 30
0.0
 11
3130.1997426017710495
 21
134.3088064423994865
 31
0.0
  0
LINE
  5
27559
  8
0
 10
3130.2194276411451028
 20
134.2973298575915067
 30
0.0
 11
3130.2194276411451028
 21
134.3051150351246861
 31
0.0
  0
LINE
  5
2755A
  8
0
 10
3130.1915887915702115
 20
134.3039248714781877
 30
0.0
 11
3130.1915887915702115
 21
134.310150675704989
 31
0.0
  0
LINE
  5
2755B
  8
0
 10
3130.1719037521229438
 20
134.2978684431649867
 30
0.0
 11
3130.1719037521229438
 21
134.3129715119746947
 31
0.0
  0
LINE
  5
2755C
  8
0
 10
3130.1440649024698359
 20
134.3083194123719863
 30
0.0
 11
3130.1440649024698359
 21
134.316283417865094
 31
0.0
  0
LINE
  5
2755D
  8
0
 10
3130.135911092123024
 20
134.2478781492650057
 30
0.0
 11
3130.135911092123024
 21
134.2333511609027141
 31
0.0
  0
LINE
  5
2755E
  8
0
 10
3130.1162260528230945
 20
134.2296273628649885
 30
0.0
 11
3130.1162260528230945
 21
134.2441103954903099
 31
0.0
  0
ARC
  5
2755F
  8
0
 10
3130.0151303276720682
 20
132.9677087275020142
 30
0.0
 40
1.456276216777989
 50
85.3881547689934877
 51
90.016400953354804
  0
ARC
  5
27560
  8
0
 10
3130.0518249347092024
 20
133.4226033528642859
 30
0.0
 40
0.9999039845277348
 50
77.3094596193187442
 51
85.3881547689934877
  0
ARC
  5
27561
  8
0
 10
3130.2034313016638407
 20
134.0958521190698889
 30
0.0
 40
0.3097964626888201
 50
65.015868858257349
 51
77.3094596193187442
  0
ARC
  5
27562
  8
0
 10
3130.2941765014188604
 20
134.2905966297545035
 30
0.0
 40
0.0949474093504723
 50
43.611959795732929
 51
65.015868858257349
  0
ARC
  5
27563
  8
0
 10
3130.3468175184871143
 20
134.3407687424987103
 30
0.0
 40
0.0222265972563359
 50
359.737526879686186
 51
43.5712858773821878
  0
LINE
  5
27564
  8
0
 10
3130.3690438825219644
 20
134.3406669223649033
 30
0.0
 11
3130.3690438825219644
 21
134.283811549364998
 31
0.0
  0
ARC
  5
27565
  8
0
 10
3130.3118436125091648
 20
134.283811549364998
 30
0.0
 40
0.0572002700141861
 50
343.1214101870803006
 51
0.0
  0
ARC
  5
27566
  8
0
 10
3130.3056980383598784
 20
134.2856762093863949
 30
0.0
 40
0.0636225000478887
 50
318.1899919277399817
 51
343.1214101870803006
  0
ARC
  5
27567
  8
0
 10
3130.2484313791019304
 20
134.3368965145658933
 30
0.0
 40
0.140453417817401
 50
304.5874477543096077
 51
318.1899919277399817
  0
ARC
  5
27568
  8
0
 10
3130.2820718632028729
 20
134.2881089933285068
 30
0.0
 40
0.081192094857019
 50
290.8501033317098177
 51
304.5874477543096077
  0
ARC
  5
27569
  8
0
 10
3130.1742464989602013
 20
134.5366913001714977
 30
0.0
 40
0.3520880945457473
 50
282.1732200081146971
 51
292.8501385448531096
  0
ARC
  5
2756A
  8
0
 10
3129.9878605308231272
 20
136.0874970195723961
 30
0.0
 40
1.917546256637271
 50
270.8023937198955764
 51
274.7913107658594072
  0
ARC
  5
2756B
  8
0
 10
3130.0625653661868455
 20
135.0436622143184877
 30
0.0
 40
0.8712124611658374
 50
275.6294776535947904
 51
282.3222466630476788
  0
ARC
  5
2756C
  8
0
 10
3130.014963033730055
 20
132.9220564176019934
 30
0.0
 40
1.415303371866051
 50
85.5647593617942164
 51
90.010103191646607
  0
ARC
  5
2756D
  8
0
 10
3130.0441983762530072
 20
133.2989727448687916
 30
0.0
 40
1.0372549318312341
 50
79.4847829902729188
 51
85.5647593617942164
  0
ARC
  5
2756E
  8
0
 10
3130.1493102635531613
 20
133.8652663349510021
 30
0.0
 40
0.4612888399299951
 50
69.4571013520389897
 51
79.4847829902729188
  0
ARC
  5
2756F
  8
0
 10
3130.2662423871770443
 20
134.1773030871596006
 30
0.0
 40
0.1280621059122769
 50
51.6661254767837121
 51
69.4571013520389897
  0
ARC
  5
27570
  8
0
 10
3130.3239815365341201
 20
134.2503247290599973
 30
0.0
 40
0.0349709164568272
 50
25.5662027182840212
 51
51.6661254767837121
  0
ARC
  5
27571
  8
0
 10
3130.3374512267519094
 20
134.25676855671
 30
0.0
 40
0.0200392230041289
 50
346.1556154444297135
 51
25.5662027182781415
  0
ARC
  5
27572
  8
0
 10
3130.3356780114791036
 20
134.257205556938402
 30
0.0
 40
0.0218654928656494
 50
328.5250472116829883
 51
346.1556154444360232
  0
ARC
  5
27573
  8
0
 10
3132.2507686661720072
 20
133.0847877671126867
 30
0.0
 40
2.2236045446978658
 50
148.525047211682903
 51
148.6360604221044071
  0
ARC
  5
27574
  8
0
 10
3130.2509987355588237
 20
134.6996249561744889
 30
0.0
 40
0.4368397400084885
 50
285.643379042021877
 51
297.16492682127938
  0
ARC
  5
27575
  8
0
 10
3130.2928075578329299
 20
134.6181511499245005
 30
0.0
 40
0.3452648595837748
 50
297.16492682127938
 51
308.4833494941757976
  0
ARC
  5
27576
  8
0
 10
3130.3655776421210248
 20
134.526612025245214
 30
0.0
 40
0.2283251464221232
 50
308.4833494941757976
 51
317.6846935092573858
  0
ARC
  5
27577
  8
0
 10
3129.107751221567014
 20
135.6717604020869032
 30
0.0
 40
1.9293519272891
 50
317.6846935092573858
 51
332.0858388685924751
  0
LINE
  5
27578
  8
0
 10
3130.8126229562790286
 20
134.7685377122068076
 30
0.0
 11
3130.8193542000581147
 21
134.9937302412650126
 31
0.0
  0
ARC
  5
27579
  8
0
 10
3130.0160391937411077
 20
132.6856170743185999
 30
0.0
 40
1.7806452654745939
 50
82.680941504304414
 51
90.042657859131225
  0
ARC
  5
2757A
  8
0
 10
3130.1388032944728366
 20
133.6414181224031097
 30
0.0
 40
0.8169924919364431
 50
71.0738710312228505
 51
82.680941504304414
  0
ARC
  5
2757B
  8
0
 10
3130.35329247519212
 20
134.266958735450487
 30
0.0
 40
0.1557008261659444
 50
50.51172158884021
 51
71.0738710312228505
  0
ARC
  5
2757C
  8
0
 10
3130.4223277832329586
 20
134.3507401766001124
 30
0.0
 40
0.0471411483970503
 50
23.1802526683099188
 51
50.51172158884021
  0
ARC
  5
2757D
  8
0
 10
3130.4427930426190869
 20
134.3595032500238915
 30
0.0
 40
0.0248786620678465
 50
326.0111070240005233
 51
23.1802526683129209
  0
ARC
  5
2757E
  8
0
 10
3130.3878851665431284
 20
134.3965235953170918
 30
0.0
 40
0.0911008699799343
 50
318.0321699152221981
 51
326.0111070240005233
  0
ARC
  5
2757F
  8
0
 10
3130.2471653243019318
 20
134.7026111947646996
 30
0.0
 40
0.426950826154494
 50
286.5865115344246874
 51
292.9622282989308246
  0
ARC
  5
27580
  8
0
 10
3130.3452379709751767
 20
134.4711423764873928
 30
0.0
 40
0.1755625649728374
 50
292.9622282989308246
 51
304.6277540541557869
  0
ARC
  5
27581
  8
0
 10
3130.4032182534001549
 20
134.3871822129626139
 30
0.0
 40
0.073528148184749
 50
304.6277540541557869
 51
315.4536415672724843
  0
ARC
  5
27582
  8
0
 10
3130.6616155761807931
 20
134.1328445740552127
 30
0.0
 40
0.289041584397697
 50
131.0068491293060902
 51
135.4536415672725127
  0
ARC
  5
27583
  8
0
 10
3130.4363681162949433
 20
134.3918995857478933
 30
0.0
 40
0.0542453469997692
 50
311.0068491293060902
 51
327.371299675565524
  0
ARC
  5
27584
  8
0
 10
3130.4548240799272207
 20
134.3800834744411929
 30
0.0
 40
0.0323308978847463
 50
327.3712996755667746
 51
0.4176849409378264
  0
ARC
  5
27585
  8
0
 10
3130.4628099135898083
 20
134.3801416920198903
 30
0.0
 40
0.024344852018686
 50
0.4176849409378264
 51
35.604845358305127
  0
ARC
  5
27586
  8
0
 10
3130.4175974513950678
 20
134.3477669646800052
 30
0.0
 40
0.0799532120744611
 50
35.604845358305127
 51
65.4032434039802553
  0
ARC
  5
27587
  8
0
 10
3130.1177520294218084
 20
134.6855287001943964
 30
0.0
 40
0.5175600726419285
 50
320.2367618205366284
 51
321.8402639270429972
  0
ARC
  5
27588
  8
0
 10
3130.5056824876542123
 20
134.3826998192461986
 30
0.0
 40
0.0254777312477094
 50
318.2995466701675014
 51
353.3414834970350853
  0
ARC
  5
27589
  8
0
 10
3130.0111131501921591
 20
132.7461864087430001
 30
0.0
 40
1.733367980410353
 50
82.9925363952799842
 51
89.8798093694295943
  0
ARC
  5
2758A
  8
0
 10
3130.0193003178210347
 20
132.8127938066247111
 30
0.0
 40
1.6662592986592819
 50
78.2434443938586242
 51
82.9925363952799842
  0
ARC
  5
2758B
  8
0
 10
3130.1490984979418499
 20
133.4364647009911096
 30
0.0
 40
1.0292248003450799
 50
73.1585236487183295
 51
78.2434443938586242
  0
ARC
  5
2758C
  8
0
 10
3130.9062952650438092
 20
135.9378757002947964
 30
0.0
 40
1.5842793476424739
 50
253.158523648718301
 51
253.2939735635978025
  0
ARC
  5
2758D
  8
0
 10
3130.1711668734601517
 20
133.4885012027179982
 30
0.0
 40
0.9730335353448346
 50
70.7967616255985774
 51
73.2939735635978735
  0
ARC
  5
2758E
  8
0
 10
3130.4245994248390161
 20
134.2161279368752957
 30
0.0
 40
0.2025345266764623
 50
61.3337602442850027
 51
70.7967616255985774
  0
ARC
  5
2758F
  8
0
 10
3130.5112330997189929
 20
134.3745891717022971
 30
0.0
 40
0.0219373047538143
 50
34.9795498978690986
 51
61.3337602442850027
  0
ARC
  5
27590
  8
0
 10
3130.5206718825079406
 20
134.3811932591684979
 30
0.0
 40
0.0104175568488933
 50
352.0123261045575873
 51
34.9795498978677699
  0
LINE
  5
27591
  8
0
 10
3130.0245562811401214
 20
134.3122345494255114
 30
0.0
 11
3130.0245562811401214
 21
134.3228522387263979
 31
0.0
  0
LINE
  5
27592
  8
0
 10
3129.2996195374721538
 20
136.3697144932650076
 30
0.0
 11
3129.2996195374721538
 21
136.3618404774649946
 31
0.0
  0
LINE
  5
27593
  8
0
 10
3130.7298079846168548
 20
136.3697144932650076
 30
0.0
 11
3130.7298079846168548
 21
136.3618404774649946
 31
0.0
  0
LINE
  5
27596
  8
0
 10
3129.3749499819450648
 20
135.7594782727649942
 30
0.0
 11
3129.3749499819450648
 21
135.7712977923397943
 31
0.0
  0
LINE
  5
27597
  8
0
 10
3130.6544775409438444
 20
135.7594782727649942
 30
0.0
 11
3130.6544775409438444
 21
135.7712977923397943
 31
0.0
  0
ENDSEC
  0
EOF
