  0
SECTION
  2
HEADER
  9
$ACADVER
  1
AC1009
  9
$INSBASE
 10
3166.5295955312308251
 20
134.009606715425889
 30
0.0
  9
$EXTMIN
 10
3142.720863593634931
 20
128.1722052904937925
 30
-0.0015258207003583
  9
$EXTMAX
 10
3166.6380658146081259
 20
185.1558360927220122
 30
0.0000000349246037
  9
$LIMMIN
 10
0.0
 20
0.0
  9
$LIMMAX
 10
11.6929133858000007
 20
8.2677165353999982
  9
$ORTHOMODE
 70
     1
  9
$REGENMODE
 70
     1
  9
$FILLMODE
 70
     1
  9
$QTEXTMODE
 70
     0
  9
$MIRRTEXT
 70
     0
  9
$DRAGMODE
 70
     2
  9
$LTSCALE
 40
0.6431102362
  9
$OSMODE
 70
  4095
  9
$ATTMODE
 70
     1
  9
$TEXTSIZE
 40
0.2
  9
$TRACEWID
 40
0.05
  9
$TEXTSTYLE
  7
STANDARD
  9
$CLAYER
  8
0
  9
$CELTYPE
  6
BYLAYER
  9
$CECOLOR
 62
   256
  9
$DIMSCALE
 40
1.0
  9
$DIMASZ
 40
0.1875
  9
$DIMEXO
 40
0.0625
  9
$DIMDLI
 40
0.4443307087
  9
$DIMRND
 40
0.0
  9
$DIMDLE
 40
0.0
  9
$DIMEXE
 40
0.125
  9
$DIMTP
 40
0.01
  9
$DIMTM
 40
0.01
  9
$DIMTXT
 40
2.0
  9
$DIMCEN
 40
0.1052362205
  9
$DIMTSZ
 40
0.0
  9
$DIMTOL
 70
     1
  9
$DIMLIM
 70
     0
  9
$DIMTIH
 70
     1
  9
$DIMTOH
 70
     1
  9
$DIMSE1
 70
     0
  9
$DIMSE2
 70
     0
  9
$DIMTAD
 70
     0
  9
$DIMZIN
 70
     0
  9
$DIMBLK
  1

  9
$DIMASO
 70
     1
  9
$DIMSHO
 70
     1
  9
$DIMPOST
  1
\X
  9
$DIMAPOST
  1

  9
$DIMALT
 70
     1
  9
$DIMALTD
 70
     2
  9
$DIMALTF
 40
25.3999999999999986
  9
$DIMLFAC
 40
1.0
  9
$DIMTOFL
 70
     0
  9
$DIMTVP
 40
0.0
  9
$DIMTIX
 70
     0
  9
$DIMSOXD
 70
     0
  9
$DIMSAH
 70
     0
  9
$DIMBLK1
  1

  9
$DIMBLK2
  1

  9
$DIMSTYLE
  2
STANDARD
  9
$DIMCLRD
 70
     0
  9
$DIMCLRE
 70
     0
  9
$DIMCLRT
 70
     0
  9
$DIMTFAC
 40
1.0
  9
$DIMGAP
 40
0.09
  9
$LUNITS
 70
     2
  9
$LUPREC
 70
     4
  9
$SKETCHINC
 40
0.1
  9
$FILLETRAD
 40
0.0
  9
$AUNITS
 70
     0
  9
$AUPREC
 70
     0
  9
$MENU
  1
.
  9
$ELEVATION
 40
0.0
  9
$PELEVATION
 40
0.0
  9
$THICKNESS
 40
0.0
  9
$LIMCHECK
 70
     0
  9
$BLIPMODE
 70
     0
  9
$CHAMFERA
 40
0.0
  9
$CHAMFERB
 40
0.0
  9
$SKPOLY
 70
     0
  9
$TDCREATE
 40
2458060.468368056230247
  9
$TDUPDATE
 40
2459568.4198842588812113
  9
$TDINDWG
 40
0.4175880787
  9
$TDUSRTIMER
 40
0.4175880787
  9
$USRTIMER
 70
     1
  9
$ANGBASE
 50
0.0
  9
$ANGDIR
 70
     0
  9
$PDMODE
 70
     0
  9
$PDSIZE
 40
0.3125
  9
$PLINEWID
 40
0.0
  9
$COORDS
 70
     1
  9
$SPLFRAME
 70
     0
  9
$SPLINETYPE
 70
     6
  9
$SPLINESEGS
 70
     8
  9
$ATTDIA
 70
     1
  9
$ATTREQ
 70
     1
  9
$HANDLING
 70
     1
  9
$HANDSEED
  5
26DD6
  9
$SURFTAB1
 70
     6
  9
$SURFTAB2
 70
     6
  9
$SURFTYPE
 70
     6
  9
$SURFU
 70
     6
  9
$SURFV
 70
     6
  9
$UCSNAME
  2

  9
$UCSORG
 10
0.0
 20
0.0
 30
0.0
  9
$UCSXDIR
 10
1.0
 20
0.0
 30
0.0
  9
$UCSYDIR
 10
0.0
 20
1.0
 30
0.0
  9
$PUCSNAME
  2

  9
$PUCSORG
 10
0.0
 20
0.0
 30
0.0
  9
$PUCSXDIR
 10
1.0
 20
0.0
 30
0.0
  9
$PUCSYDIR
 10
0.0
 20
1.0
 30
0.0
  9
$USERI1
 70
     0
  9
$USERI2
 70
     0
  9
$USERI3
 70
     0
  9
$USERI4
 70
     0
  9
$USERI5
 70
     0
  9
$USERR1
 40
0.0
  9
$USERR2
 40
0.0
  9
$USERR3
 40
0.0
  9
$USERR4
 40
0.0
  9
$USERR5
 40
0.0
  9
$WORLDVIEW
 70
     1
  9
$SHADEDGE
 70
     3
  9
$SHADEDIF
 70
    70
  9
$TILEMODE
 70
     1
  9
$MAXACTVP
 70
    64
  9
$PLIMCHECK
 70
     0
  9
$PEXTMIN
 10
1.0000000000000000E+20
 20
1.0000000000000000E+20
 30
1.0000000000000000E+20
  9
$PEXTMAX
 10
-1.0000000000000000E+20
 20
-1.0000000000000000E+20
 30
-1.0000000000000000E+20
  9
$PLIMMIN
 10
0.0
 20
0.0
  9
$PLIMMAX
 10
12.0
 20
9.0
  9
$UNITMODE
 70
     0
  9
$VISRETAIN
 70
     1
  9
$PLINEGEN
 70
     0
  9
$PSLTSCALE
 70
     1
  0
ENDSEC
  0
SECTION
  2
TABLES
  0
TABLE
  2
VPORT
 70
     1
  0
VPORT
  2
*ACTIVE
 70
     0
 10
0.0
 20
0.0
 11
1.0
 21
1.0
 12
-648.8646026786908578
 22
30.668758494857979
 13
0.0
 23
0.0
 14
1.0
 24
1.0
 15
0.0
 25
0.0
 16
0.0
 26
0.0
 36
17.1152628219792007
 17
3803.5440673828129547
 27
125.9952621967499056
 37
0.0
 40
57.402628087538659
 41
2.344785276073619
 42
50.0
 43
0.0
 44
0.0
 50
0.0
 51
0.0
 71
     0
 72
   100
 73
     1
 74
     1
 75
     0
 76
     0
 77
     0
 78
     0
  0
ENDTAB
  0
TABLE
  2
LTYPE
 70
     2
  0
LTYPE
  2
CONTINUOUS
 70
     0
  3
Solid line
 72
    65
 73
     0
 40
0.0
  0
LTYPE
  2
PHANTOM2
 70
     0
  3
___ _ _ ___ _ _ ___ _ _ ___ _ _
 72
    65
 73
     6
 40
1.25
 49
0.625
 49
-0.125
 49
0.125
 49
-0.125
 49
0.125
 49
-0.125
  0
ENDTAB
  0
TABLE
  2
LAYER
 70
     2
  0
LAYER
  2
0
 70
     0
 62
   255
  6
CONTINUOUS
  0
LAYER
  2
DEFPOINTS
 70
     0
 62
     7
  6
CONTINUOUS
  0
ENDTAB
  0
TABLE
  2
STYLE
 70
     1
  0
STYLE
  2
STANDARD
 70
     0
 40
0.0
 41
0.8
 50
0.0
 71
     0
 42
0.2
  3
txt
  4

  0
ENDTAB
  0
TABLE
  2
VIEW
 70
     0
  0
ENDTAB
  0
TABLE
  2
UCS
 70
     0
  0
ENDTAB
  0
TABLE
  2
APPID
 70
     9
  0
APPID
  2
ACAD
 70
     0
  0
APPID
  2
ACAD_MLEADERVER
 70
     0
  0
APPID
  2
ACAD_EXEMPT_FROM_CAD_STANDARDS
 70
     0
  0
APPID
  2
ACAD_NAV_VCDISPLAY
 70
     0
  0
APPID
  2
ACAECLAYERSTANDARD
 70
     0
  0
APPID
  2
ACCMTRANSPARENCY
 70
     0
  0
APPID
  2
ACAD_DSTYLE_DIMJAG
 70
     0
  0
APPID
  2
ACAD_DSTYLE_DIMTALN
 70
     0
  0
APPID
  2
ACDBATTR
 70
     0
  0
ENDTAB
  0
TABLE
  2
DIMSTYLE
 70
     1
  0
DIMSTYLE
  2
STANDARD
 70
     0
  3

  4

  5

  6

  7

 40
1.0
 41
0.1875
 42
0.0625
 43
0.38
 44
0.125
 45
0.0
 46
0.0
 47
0.01
 48
0.01
140
0.15625
141
0.09
142
0.0
143
25.3999999999999986
144
1.0
145
0.0
146
1.0
147
0.09
 71
     1
 72
     0
 73
     1
 74
     1
 75
     0
 76
     0
 77
     0
 78
     4
170
     0
171
     2
172
     0
173
     0
174
     0
175
     0
176
     0
177
     0
178
     0
  0
ENDTAB
  0
ENDSEC
  0
SECTION
  2
BLOCKS
  0
BLOCK
  8
0
  2
$MODEL_SPACE
 70
     0
 10
0.0
 20
0.0
 30
0.0
  3
$MODEL_SPACE
  1

  0
ENDBLK
  5
21
  8
0
  0
BLOCK
 67
     1
  8
0
  2
$PAPER_SPACE
 70
     0
 10
0.0
 20
0.0
 30
0.0
  3
$PAPER_SPACE
  1

  0
ENDBLK
  5
1D
 67
     1
  8
0
  0
ENDSEC
  0
SECTION
  2
ENTITIES
  0
ATTDEF
  5
2432A
  8
DEFPOINTS
 10
3166.5307565998791688
 20
134.0141915156578136
 30
0.0
 40
0.001
  1
K-26245T-4
  3

  2
MODELNUMBER
 70
     0
1001
ACDBATTR
1070
     0
1070
     1
  0
ATTDEF
  5
2432B
  8
DEFPOINTS
 10
3166.5307565998791688
 20
134.0125248489912053
 30
0.0
 40
0.001
  1
ALEO
  3

  2
TRADENAME
 70
     0
1001
ACDBATTR
1070
     0
1070
     1
  0
ATTDEF
  5
2432C
  8
DEFPOINTS
 10
3166.5307565998791688
 20
134.0108581823245117
 30
0.0
 40
0.001
  1
BATH AND SHOWER FAUCET
  3

  2
PRODUCT
 70
     0
1001
ACDBATTR
1070
     0
1070
     1
  0
LINE
  5
26950
  8
0
 10
3162.277638838430903
 20
166.9818889154126111
 30
0.0
 11
3163.5374514368309065
 21
166.9818889154126111
 31
0.0
  0
LINE
  5
26951
  8
0
 10
3162.2579388384301637
 20
168.2023463957125102
 30
0.0
 11
3162.2579388384301637
 21
167.0015889154126114
 31
0.0
  0
LINE
  5
26952
  8
0
 10
3163.5571514368311909
 20
167.2632015859124976
 30
0.0
 11
3163.5571514368311909
 21
167.0015889154126114
 31
0.0
  0
LINE
  5
26953
  8
0
 10
3162.277638838430903
 20
168.7732274980126022
 30
0.0
 11
3163.5374514368309065
 21
168.7732274980126022
 31
0.0
  0
LINE
  5
26954
  8
0
 10
3162.277638838430903
 20
168.3007865530776996
 30
0.0
 11
3163.5374514368309065
 21
168.3007865530776996
 31
0.0
  0
LINE
  5
26955
  8
0
 10
3162.277638838430903
 20
168.2220463957125105
 30
0.0
 11
3163.5374514368309065
 21
168.2220463957125105
 31
0.0
  0
LINE
  5
26956
  8
0
 10
3162.3563640353308983
 20
168.3007865532125891
 30
0.0
 11
3162.3563640353308983
 21
168.2220463957125105
 31
0.0
  0
LINE
  5
26957
  8
0
 10
3163.4587262400309555
 20
168.2220463957125105
 30
0.0
 11
3163.4587262400309555
 21
168.3007865532125891
 31
0.0
  0
ARC
  5
26958
  8
0
 10
3162.277638838430903
 20
168.2023463957125102
 30
0.0
 40
0.0197
 50
90.0000000000260485
 51
180.0000000000098055
  0
ARC
  5
26959
  8
0
 10
3163.5374514368309065
 20
168.2023463957125102
 30
0.0
 40
0.0197
 50
0.0000000000097707
 51
90.0
  0
LINE
  5
2695A
  8
0
 10
3162.2579388384301637
 20
168.3204865530776999
 30
0.0
 11
3162.2579388384301637
 21
168.7535274979777
 31
0.0
  0
LINE
  5
2695B
  8
0
 10
3163.5571514368311909
 20
168.7535274979777
 30
0.0
 11
3163.5571514368311909
 21
168.3204865530776999
 31
0.0
  0
ARC
  5
2695C
  8
0
 10
3162.277638838430903
 20
168.3204865530776999
 30
0.0
 40
0.0197
 50
180.0000000000098055
 51
269.9999999999478746
  0
ARC
  5
2695D
  8
0
 10
3162.2776388384900201
 20
168.7535274979530868
 30
0.0
 40
0.0197000000594514
 50
90.0000001729537473
 51
179.9999999283973011
  0
ARC
  5
2695E
  8
0
 10
3163.5374514367708798
 20
168.7535274979530868
 30
0.0
 40
0.0197000000594514
 50
0.0000000716385083
 51
89.999999827072287
  0
ARC
  5
2695F
  8
0
 10
3163.5374514368309065
 20
168.3204865530776999
 30
0.0
 40
0.0197
 50
269.9999999999739089
 51
359.9999999999902229
  0
ARC
  5
26960
  8
0
 10
3162.277638838430903
 20
167.0015889154126114
 30
0.0
 40
0.0197
 50
180.0000000000194973
 51
269.9999999999478746
  0
ARC
  5
26961
  8
0
 10
3163.5374514368309065
 20
167.0015889154126114
 30
0.0
 40
0.0197
 50
270.0000000000259774
 51
359.9999999999674856
  0
LINE
  5
26962
  8
0
 10
3166.5295955312308251
 20
166.3618101752124971
 30
0.0
 11
3166.5295955312308251
 21
168.8421251358126085
 31
0.0
  0
LINE
  5
26963
  8
0
 10
3166.1358947438297946
 20
166.3913104835114041
 30
0.0
 11
3166.1358947438297946
 21
168.8126248275137016
 31
0.0
  0
LINE
  5
26964
  8
0
 10
3166.155079057949024
 20
166.3716172342093955
 30
0.0
 11
3166.5295955312308251
 21
166.3618101752124971
 31
0.0
  0
LINE
  5
26965
  8
0
 10
3166.155079057949024
 20
168.8323180768157101
 30
0.0
 11
3166.5295955312308251
 21
168.8421251358126085
 31
0.0
  0
LINE
  5
26966
  8
0
 10
3163.9508553738301089
 20
168.094093639762491
 30
0.0
 11
3166.1358947438297946
 21
168.0940936398125132
 31
0.0
  0
LINE
  5
26967
  8
0
 10
3163.9508553738310184
 20
168.094093639762491
 30
0.0
 11
3163.9508553738310184
 21
167.109841671262501
 31
0.0
  0
LINE
  5
26968
  8
0
 10
3163.9508553737800867
 20
167.2870070255625023
 30
0.0
 11
3163.5965514368299409
 21
167.3026015859124982
 31
0.0
  0
LINE
  5
26969
  8
0
 10
3163.9508553737800867
 20
167.916928285362502
 30
0.0
 11
3163.5965514368299409
 21
167.9325228457124979
 31
0.0
  0
ARC
  5
2696A
  8
0
 10
3166.1555947438309886
 20
166.3913104835114041
 30
0.0
 40
0.0197
 50
180.0000000000098055
 51
268.4999999998278213
  0
ARC
  5
2696B
  8
0
 10
3166.1555947438309886
 20
168.8126248275137016
 30
0.0
 40
0.0197
 50
91.5000000001721503
 51
180.0
  0
ARC
  5
2696C
  8
0
 10
3163.5965514368299409
 20
167.2632015859126113
 30
0.0
 40
0.0394
 50
89.9999999999739515
 51
180.0000000000098055
  0
LINE
  5
2696D
  8
0
 10
3163.5571514368311909
 20
167.9719228457124984
 30
0.0
 11
3163.5571514368311909
 21
168.2023463957125102
 31
0.0
  0
ARC
  5
2696E
  8
0
 10
3163.5965514368299409
 20
167.9719228457124984
 30
0.0
 40
0.0394
 50
179.9999999999901945
 51
270.0
  0
ARC
  5
2696F
  8
0
 10
3164.2533960119258154
 20
167.6341792811194011
 30
0.0
 40
0.7889112489321983
 50
181.2069267946189086
 51
208.0498823003987923
  0
ARC
  5
26970
  8
0
 10
3164.2617721539268132
 20
167.5987588941221134
 30
0.0
 40
0.7973341142382361
 50
152.094507548926714
 51
178.6486833560657885
  0
LINE
  5
26971
  8
0
 10
3163.002682311380795
 20
168.7732274980126022
 30
0.0
 11
3163.002683082780095
 21
168.3007865532125891
 31
0.0
  0
LINE
  5
26972
  8
0
 10
3163.3935108596801911
 20
168.3007865533683116
 30
0.0
 11
3163.3935098944798483
 21
168.7732274979777003
 31
0.0
  0
LINE
  5
26973
  8
0
 10
3149.1280175785309439
 20
184.3637786791624933
 30
0.0
 11
3160.9390474997308047
 21
184.3637786791624933
 31
0.0
  0
LINE
  5
26974
  8
0
 10
3160.9390490745308853
 20
185.1511802539124858
 30
0.0
 11
3149.1280160037308633
 21
185.1511802539124858
 31
0.0
  0
LINE
  5
26975
  8
0
 10
3147.5532175785310756
 20
182.0015739547625913
 30
0.0
 11
3147.5532175785310756
 21
182.7889786791625966
 31
0.0
  0
LINE
  5
26976
  8
0
 10
3146.7658128541302176
 20
182.0015739547625913
 30
0.0
 11
3146.7658160037308335
 21
182.7889802539625919
 31
0.0
  0
ARC
  5
26977
  8
0
 10
3149.1280175785300344
 20
182.7889786791625966
 30
0.0
 40
1.5747999999999991
 50
90.0
 51
180.0
  0
ARC
  5
26978
  8
0
 10
3160.9390474997308047
 20
182.7889786791625966
 30
0.0
 40
1.5747999999999991
 50
0.0
 51
90.0
  0
ARC
  5
26979
  8
0
 10
3160.9390490746191062
 20
182.7889802540013022
 30
0.0
 40
2.3621999999112471
 50
359.9999999990620267
 51
90.0000000021365167
  0
ARC
  5
2697A
  8
0
 10
3149.1280160036421876
 20
182.7889802540013022
 30
0.0
 40
2.3621999999112329
 50
89.9999999978374206
 51
180.0000000009380017
  0
LINE
  5
2697B
  8
0
 10
3162.5138474997302183
 20
182.7889786791625966
 30
0.0
 11
3162.5138420501630208
 21
168.7732274980126022
 31
0.0
  0
LINE
  5
2697C
  8
0
 10
3163.3012490745300056
 20
168.7732274980126022
 30
0.0
 11
3163.3012490745300056
 21
182.7889802539625919
 31
0.0
  0
LINE
  5
2697D
  8
0
 10
3142.8290869569568713
 20
179.9698519204314096
 30
0.0
 11
3142.8360455915408238
 21
179.5711920121430012
 31
0.0
  0
LINE
  5
2697E
  8
0
 10
3142.895091715387025
 20
179.5134425454457983
 30
0.0
 11
3151.423941866874884
 21
179.5134425454457983
 31
0.0
  0
ARC
  5
2697F
  8
0
 10
3142.9055845549401056
 20
179.5832316631077106
 30
0.0
 40
0.0705735122119322
 50
189.822549418103705
 51
261.4495864502770246
  0
LINE
  5
26980
  8
0
 10
3151.4742490164908304
 20
179.9861009206153142
 30
0.0
 11
3142.8447845657710786
 21
179.9861009206153142
 31
0.0
  0
ARC
  5
26981
  8
0
 10
3142.8452571985590112
 20
179.9699373618497873
 30
0.0
 40
0.0161704673314999
 50
91.6748879684601121
 51
180.3027405051452092
  0
LINE
  5
26982
  8
0
 10
3146.7658128541302176
 20
182.0015739547125122
 30
0.0
 11
3147.5532175785310756
 21
182.0015739547125122
 31
0.0
  0
LINE
  5
26983
  8
0
 10
3146.6870758462309823
 20
181.9228337972124905
 30
0.0
 11
3147.6319577360300173
 21
181.9228337972126042
 31
0.0
  0
ARC
  5
26984
  8
0
 10
3146.7067608856300467
 20
181.1354322224125895
 30
0.0
 40
0.0196850394000023
 50
180.0000000000098055
 51
249.9999994548913946
  0
ARC
  5
26985
  8
0
 10
3146.7855010430339462
 20
181.0648763860822896
 30
0.0
 40
0.0196850394962499
 50
0.0000000883300593
 51
69.9999997944128012
  0
ARC
  5
26986
  8
0
 10
3147.1617535715881786
 20
182.374113714275893
 30
0.0
 40
1.2667956891919401
 50
262.9357882727514948
 51
269.8988328207942118
  0
ARC
  5
26987
  8
0
 10
3147.0131260966059017
 20
181.1938177075464864
 30
0.0
 40
0.0772165240647753
 50
244.1616904025634938
 51
264.6757251487283042
  0
ARC
  5
26988
  8
0
 10
3146.9852878656820394
 20
181.1379247076542924
 30
0.0
 40
0.0147948053861248
 50
189.6988907319095858
 51
246.8548452166945992
  0
ARC
  5
26989
  8
0
 10
3143.9341072031261319
 20
181.0011031146136133
 30
0.0
 40
2.8717870676497839
 50
358.7275379892876117
 51
1.2724619208715631
  0
LINE
  5
2698A
  8
0
 10
3146.7000282056551441
 20
181.1169343362037125
 30
0.0
 11
3146.7922337230629637
 21
181.083374272437112
 31
0.0
  0
LINE
  5
2698B
  8
0
 10
3146.6870758462309823
 20
181.1354322224125895
 30
0.0
 11
3146.9707045264308363
 21
181.1354322224125895
 31
0.0
  0
LINE
  5
2698C
  8
0
 10
3146.9707045264308363
 20
181.1354322224125895
 30
0.0
 11
3146.9707045264308363
 21
181.6078731673125048
 31
0.0
  0
LINE
  5
2698D
  8
0
 10
3146.6870758462309823
 20
181.9228337972126042
 30
0.0
 11
3146.6870758462309823
 21
181.1354322224125895
 31
0.0
  0
ARC
  5
2698E
  8
0
 10
3147.6122726966309529
 20
181.1354322224125895
 30
0.0
 40
0.0196850394000023
 50
290.0000005451075822
 51
359.9999999999902229
  0
ARC
  5
2698F
  8
0
 10
3147.5335325392270533
 20
181.0648763860822896
 30
0.0
 40
0.0196850394962499
 50
110.0000002055871988
 51
179.999999911669903
  0
ARC
  5
26990
  8
0
 10
3147.1572800106728209
 20
182.374113714275893
 30
0.0
 40
1.2667956891919401
 50
270.1011671792056745
 51
277.0642117272485052
  0
ARC
  5
26991
  8
0
 10
3147.3059074856541883
 20
181.1938177075464864
 30
0.0
 40
0.0772165240647753
 50
275.3242748512716958
 51
295.8383095974364778
  0
ARC
  5
26992
  8
0
 10
3147.3337457165789601
 20
181.1379247076542924
 30
0.0
 40
0.0147948053861248
 50
293.1451547833053155
 51
350.3011092680902721
  0
ARC
  5
26993
  8
0
 10
3147.5335325391301922
 20
180.9373298386126123
 30
0.0
 40
0.0196850393999891
 50
179.9999999999901945
 51
223.5152740528058928
  0
ARC
  5
26994
  8
0
 10
3147.1595167911309545
 20
180.5822126013127047
 30
0.0
 40
0.4960629920997779
 50
25.6378126420968613
 51
43.5152742403062334
  0
ARC
  5
26995
  8
0
 10
3150.3849263791348676
 20
181.0011031146136133
 30
0.0
 40
2.8717870676497839
 50
178.7275380791284078
 51
181.2724620107157136
  0
LINE
  5
26996
  8
0
 10
3147.6190053766058554
 20
181.1169343362037125
 30
0.0
 11
3147.5267998591980358
 21
181.083374272437112
 31
0.0
  0
LINE
  5
26997
  8
0
 10
3147.6319577360300173
 20
181.1354322224125895
 30
0.0
 11
3147.3483290558310728
 21
181.1354322224125895
 31
0.0
  0
LINE
  5
26998
  8
0
 10
3147.3483290558310728
 20
181.1354322224125895
 30
0.0
 11
3147.3483290558310728
 21
181.6078731673125048
 31
0.0
  0
LINE
  5
26999
  8
0
 10
3147.6319577360300173
 20
181.9228337972126042
 30
0.0
 11
3147.6319577360300173
 21
181.1354322224125895
 31
0.0
  0
LINE
  5
2699A
  8
0
 10
3146.6870758462309823
 20
181.9228337972126042
 30
0.0
 11
3147.6319577360300173
 21
181.9228337972126042
 31
0.0
  0
LINE
  5
2699B
  8
0
 10
3146.9707045264308363
 20
181.6078731673125048
 30
0.0
 11
3147.3483290558310728
 21
181.6078731673125048
 31
0.0
  0
LINE
  5
2699C
  8
0
 10
3146.7922337231270831
 20
181.0833742723766022
 30
0.0
 11
3147.5267998591980358
 21
181.083374272437112
 31
0.0
  0
LINE
  5
2699D
  8
0
 10
3146.8051860824298274
 20
180.9373298386126123
 30
0.0
 11
3147.5138474997302183
 21
180.9373298386126123
 31
0.0
  0
ARC
  5
2699E
  8
0
 10
3147.1595167910300006
 20
180.5822126013127047
 30
0.0
 40
0.4960629920997779
 50
136.4847257596937027
 51
154.3621873579031103
  0
ARC
  5
2699F
  8
0
 10
3146.7855013477210377
 20
180.9373297170295984
 30
0.0
 40
0.0196847347100017
 50
316.4843716586418054
 51
0.0003538879029303
  0
LINE
  5
269A0
  8
0
 10
3146.5053719403899777
 20
180.7968495453125115
 30
0.0
 11
3147.8136616418310041
 21
180.7968495453125115
 31
0.0
  0
LINE
  5
269A1
  8
0
 10
3146.3603041926307924
 20
179.9858259232125022
 30
0.0
 11
3146.3721152163298029
 21
179.9976369468126052
 31
0.0
  0
LINE
  5
269A2
  8
0
 10
3146.3721152163298029
 20
179.9976369468126052
 30
0.0
 11
3147.9469183659298324
 21
179.9976369468126052
 31
0.0
  0
LINE
  5
269A3
  8
0
 10
3147.9469183659298324
 20
179.9976369468126052
 30
0.0
 11
3147.9587293895701805
 21
179.9858259232125022
 31
0.0
  0
ARC
  5
269A4
  8
0
 10
3146.5053719398301837
 20
180.7377944272126058
 30
0.0
 40
0.0590551181000055
 50
90.0
 51
175.5520296451443016
  0
ARC
  5
269A5
  8
0
 10
3158.5712832345270726
 20
179.7992081196929917
 30
0.0
 40
12.1614168557172793
 50
175.5520179363419118
 51
179.0651057379182021
  0
ARC
  5
269A6
  8
0
 10
3147.8136616421070357
 20
180.7377944263866993
 30
0.0
 40
0.0590551189257482
 50
4.4481652033240442
 51
89.9999996862183878
  0
ARC
  5
269A7
  8
0
 10
3135.7477503477412029
 20
179.7992081196931906
 30
0.0
 40
12.1614168557108293
 50
0.9348942620818403
 51
4.447982120659824
  0
CIRCLE
  5
269A8
  8
0
 10
3147.1595167910809323
 20
180.9976369468126052
 30
0.0
 40
0.0236220472
  0
LINE
  5
269A9
  8
0
 10
3147.5236900194809095
 20
181.9228337972124905
 30
0.0
 11
3147.5236900194809095
 21
182.0015739547125122
 31
0.0
  0
LINE
  5
269AA
  8
0
 10
3146.7953435627809995
 20
182.0015739547125122
 30
0.0
 11
3146.7953435627809995
 21
181.9228337972124905
 31
0.0
  0
ARC
  5
269AB
  8
0
 10
3162.9061358500098322
 20
159.1088948238023022
 30
0.0
 40
0.7844070245923653
 50
139.8097995881298061
 51
268.7367552648161109
  0
ARC
  5
269AC
  8
0
 10
3114.5174401215758735
 20
140.8898092975557006
 30
0.0
 40
51.3803728554873231
 50
19.9803461902022903
 51
21.3545007995191796
  0
ARC
  5
269AD
  8
0
 10
3162.3330133427120927
 20
159.5846976791235079
 30
0.0
 40
0.0400583628921653
 50
21.4089555666097908
 51
130.6416442085364906
  0
LINE
  5
269AE
  8
0
 10
3163.0042598636300681
 20
158.0076775009125072
 30
0.0
 11
3162.8399841964869665
 21
158.4590211870016958
 31
0.0
  0
LINE
  5
269AF
  8
0
 10
3163.5702904051981932
 20
158.1215175213501141
 30
0.0
 11
3163.3763892201268391
 21
158.6542566490462889
 31
0.0
  0
LINE
  5
269B0
  8
0
 10
3162.7716495178119658
 20
158.4341493980051041
 30
0.0
 11
3163.4498803044211854
 21
158.6810052162036868
 31
0.0
  0
LINE
  5
269B1
  8
0
 10
3166.5295955312308251
 20
135.200551597325898
 30
0.0
 11
3166.5295955312308251
 21
132.8186618335259084
 31
0.0
  0
LINE
  5
269B2
  8
0
 10
3165.8996742714311949
 20
135.131307328444592
 30
0.0
 11
3165.8996742714311949
 21
132.887575813332802
 31
0.0
  0
LINE
  5
269B3
  8
0
 10
3165.9577415120379555
 20
135.1903983041349022
 30
0.0
 11
3166.5295955312308251
 21
135.200551597325898
 31
0.0
  0
LINE
  5
269B4
  8
0
 10
3166.5295955312308251
 20
132.8186618335259084
 30
0.0
 11
3165.9577428342117855
 21
132.8284848145491139
 31
0.0
  0
ARC
  5
269B5
  8
0
 10
3165.9587742714311389
 20
132.887575813332802
 30
0.0
 40
0.0591
 50
179.9999999999967031
 51
269.0000000019526851
  0
LINE
  5
269B6
  8
0
 10
3163.3996742713811727
 20
166.9818889154126111
 30
0.0
 11
3163.3996742713811727
 21
159.796568272987912
 31
0.0
  0
LINE
  5
269B7
  8
0
 10
3145.6721584799411175
 20
179.5131675480076012
 30
0.0
 11
3145.6746673809311687
 21
179.4655122958988045
 31
0.0
  0
LINE
  5
269B8
  8
0
 10
3145.8122066428409198
 20
179.5131675480076012
 30
0.0
 11
3145.8096977419550058
 21
179.4655122959237872
 31
0.0
  0
LINE
  5
269B9
  8
0
 10
3145.6864512094398378
 20
179.4543298601867036
 30
0.0
 11
3145.7979139134431534
 21
179.4543298601867036
 31
0.0
  0
ARC
  5
269BA
  8
0
 10
3145.6864512094398378
 20
179.4661298601866974
 30
0.0
 40
0.0118
 50
183.0000000206352126
 51
270.0
  0
ARC
  5
269BB
  8
0
 10
3145.7979139134431534
 20
179.4661298601866974
 30
0.0
 40
0.0118
 50
269.9999999999739089
 51
357.0000001009544235
  0
LINE
  5
269BC
  8
0
 10
3144.9635084576812005
 20
179.5133849783125015
 30
0.0
 11
3144.9660173586698875
 21
179.4657297262037048
 31
0.0
  0
LINE
  5
269BD
  8
0
 10
3145.1035566205810028
 20
179.5133849783125015
 30
0.0
 11
3145.1010477196941792
 21
179.4657297262288012
 31
0.0
  0
LINE
  5
269BE
  8
0
 10
3144.9778011871799208
 20
179.4545472904916892
 30
0.0
 11
3145.0892638911827817
 21
179.4545472904916892
 31
0.0
  0
ARC
  5
269BF
  8
0
 10
3144.9778011871799208
 20
179.4663472904917114
 30
0.0
 40
0.0118
 50
183.0000000206352126
 51
270.0
  0
ARC
  5
269C0
  8
0
 10
3145.0892638911827817
 20
179.4663472904917114
 30
0.0
 40
0.0118
 50
269.9999999999739089
 51
357.0000001009544235
  0
LINE
  5
269C1
  8
0
 10
3144.2548470403808096
 20
179.5133849783125015
 30
0.0
 11
3144.2573559413699513
 21
179.4657297262037048
 31
0.0
  0
LINE
  5
269C2
  8
0
 10
3144.3948952032801571
 20
179.5133849783125015
 30
0.0
 11
3144.3923863023937884
 21
179.4657297262288012
 31
0.0
  0
LINE
  5
269C3
  8
0
 10
3144.2691397698799847
 20
179.4545472904916892
 30
0.0
 11
3144.3806024738828455
 21
179.4545472904916892
 31
0.0
  0
ARC
  5
269C4
  8
0
 10
3144.2691397698799847
 20
179.4663472904917114
 30
0.0
 40
0.0118
 50
183.0000000206352126
 51
270.0
  0
ARC
  5
269C5
  8
0
 10
3144.3806024738828455
 20
179.4663472904917114
 30
0.0
 40
0.0118
 50
269.9999999999739089
 51
357.0000001009544235
  0
LINE
  5
269C6
  8
0
 10
3143.5461742280422186
 20
179.5131675480334081
 30
0.0
 11
3143.548683129031815
 21
179.4655122959246114
 31
0.0
  0
LINE
  5
269C7
  8
0
 10
3143.6862223909420209
 20
179.5131675480334081
 30
0.0
 11
3143.6837134900561068
 21
179.4655122959495941
 31
0.0
  0
LINE
  5
269C8
  8
0
 10
3143.5604669575418484
 20
179.4543298602125105
 30
0.0
 11
3143.671929661545164
 21
179.4543298602125105
 31
0.0
  0
ARC
  5
269C9
  8
0
 10
3143.5604669575418484
 20
179.4661298602125044
 30
0.0
 40
0.0118
 50
183.0000000206352126
 51
270.0
  0
ARC
  5
269CA
  8
0
 10
3143.671929661545164
 20
179.4661298602125044
 30
0.0
 40
0.0118
 50
269.9999999999739089
 51
357.0000001009544235
  0
LINE
  5
269CB
  8
0
 10
3147.0894927096801439
 20
179.5133849783125015
 30
0.0
 11
3147.0920016106701951
 21
179.4657297262037048
 31
0.0
  0
LINE
  5
269CC
  8
0
 10
3147.2295408725808556
 20
179.5133849783125015
 30
0.0
 11
3147.2270319716940321
 21
179.4657297262288012
 31
0.0
  0
LINE
  5
269CD
  8
0
 10
3147.1037854391797737
 20
179.4545472904916892
 30
0.0
 11
3147.2152481431830893
 21
179.4545472904916892
 31
0.0
  0
ARC
  5
269CE
  8
0
 10
3147.1037854391797737
 20
179.4663472904917114
 30
0.0
 40
0.0118
 50
183.0000000206352126
 51
270.0
  0
ARC
  5
269CF
  8
0
 10
3147.2152481431830893
 20
179.4663472904917114
 30
0.0
 40
0.0118
 50
269.9999999999739089
 51
357.0000001009544235
  0
LINE
  5
269D0
  8
0
 10
3146.3808312922801633
 20
179.5133849783125015
 30
0.0
 11
3146.3833401932702145
 21
179.4657297262037048
 31
0.0
  0
LINE
  5
269D1
  8
0
 10
3146.5208794551808751
 20
179.5133849783125015
 30
0.0
 11
3146.5183705542940515
 21
179.4657297262288012
 31
0.0
  0
LINE
  5
269D2
  8
0
 10
3146.3951240217797931
 20
179.4545472904916892
 30
0.0
 11
3146.5065867257831087
 21
179.4545472904916892
 31
0.0
  0
ARC
  5
269D3
  8
0
 10
3146.3951240217797931
 20
179.4663472904917114
 30
0.0
 40
0.0118
 50
183.0000000206352126
 51
270.0
  0
ARC
  5
269D4
  8
0
 10
3146.5065867257831087
 20
179.4663472904917114
 30
0.0
 40
0.0118
 50
269.9999999999739089
 51
357.0000001009544235
  0
LINE
  5
269D5
  8
0
 10
3151.4899466253050377
 20
179.9698519204314096
 30
0.0
 11
3151.4829879907201757
 21
179.5711920121430012
 31
0.0
  0
ARC
  5
269D6
  8
0
 10
3151.4192528630801462
 20
179.5772975129835061
 30
0.0
 40
0.0640268977526761
 50
274.1998108857329157
 51
354.5280532458920106
  0
ARC
  5
269D7
  8
0
 10
3151.4737822277629675
 20
179.9699430075991131
 30
0.0
 40
0.0161646541799133
 50
359.6771389083218082
 51
88.3452326180897245
  0
LINE
  5
269D8
  8
0
 10
3148.646875102319882
 20
179.5131675480076012
 30
0.0
 11
3148.644366201331195
 21
179.4655122958988045
 31
0.0
  0
LINE
  5
269D9
  8
0
 10
3148.5068269394200797
 20
179.5131675480076012
 30
0.0
 11
3148.5093358403069033
 21
179.4655122959237872
 31
0.0
  0
LINE
  5
269DA
  8
0
 10
3148.6325823728211617
 20
179.4543298601867036
 30
0.0
 11
3148.5211196688178461
 21
179.4543298601867036
 31
0.0
  0
ARC
  5
269DB
  8
0
 10
3148.6325823728211617
 20
179.4661298601866974
 30
0.0
 40
0.0118
 50
270.0
 51
356.9999999793648158
  0
ARC
  5
269DC
  8
0
 10
3148.5211196688178461
 20
179.4661298601866974
 30
0.0
 40
0.0118
 50
182.9999998990438996
 51
270.0000000000259774
  0
LINE
  5
269DD
  8
0
 10
3149.355525124579799
 20
179.5133849783125015
 30
0.0
 11
3149.3530162235911121
 21
179.4657297262037048
 31
0.0
  0
LINE
  5
269DE
  8
0
 10
3149.2154769616809062
 20
179.5133849783125015
 30
0.0
 11
3149.2179858625668203
 21
179.4657297262288012
 31
0.0
  0
LINE
  5
269DF
  8
0
 10
3149.3412323950810787
 20
179.4545472904916892
 30
0.0
 11
3149.2297696910782179
 21
179.4545472904916892
 31
0.0
  0
ARC
  5
269E0
  8
0
 10
3149.3412323950810787
 20
179.4663472904917114
 30
0.0
 40
0.0118
 50
270.0
 51
356.9999999793648158
  0
ARC
  5
269E1
  8
0
 10
3149.2297696910782179
 20
179.4663472904917114
 30
0.0
 40
0.0118
 50
182.9999998990438996
 51
270.0000000000259774
  0
LINE
  5
269E2
  8
0
 10
3150.0641865418810994
 20
179.5133849783125015
 30
0.0
 11
3150.0616776408910482
 21
179.4657297262037048
 31
0.0
  0
LINE
  5
269E3
  8
0
 10
3149.9241383789808424
 20
179.5133849783125015
 30
0.0
 11
3149.9266472798672112
 21
179.4657297262288012
 31
0.0
  0
LINE
  5
269E4
  8
0
 10
3150.0498938123810149
 20
179.4545472904916892
 30
0.0
 11
3149.938431108378154
 21
179.4545472904916892
 31
0.0
  0
ARC
  5
269E5
  8
0
 10
3150.0498938123810149
 20
179.4663472904917114
 30
0.0
 40
0.0118
 50
270.0
 51
356.9999999793648158
  0
ARC
  5
269E6
  8
0
 10
3149.938431108378154
 20
179.4663472904917114
 30
0.0
 40
0.0118
 50
182.9999998990438996
 51
270.0000000000259774
  0
LINE
  5
269E7
  8
0
 10
3150.7728593542178714
 20
179.5131675480334081
 30
0.0
 11
3150.7703504532291845
 21
179.4655122959246114
 31
0.0
  0
LINE
  5
269E8
  8
0
 10
3150.6328111913180692
 20
179.5131675480334081
 30
0.0
 11
3150.6353200922048927
 21
179.4655122959495941
 31
0.0
  0
LINE
  5
269E9
  8
0
 10
3150.7585666247191512
 20
179.4543298602125105
 30
0.0
 11
3150.6471039207171998
 21
179.4543298602125105
 31
0.0
  0
ARC
  5
269EA
  8
0
 10
3150.7585666247191512
 20
179.4661298602125044
 30
0.0
 40
0.0118
 50
270.0
 51
356.9999999793648158
  0
ARC
  5
269EB
  8
0
 10
3150.6471039207158356
 20
179.4661298602125044
 30
0.0
 40
0.0118
 50
182.9999998990438996
 51
270.0000000000259774
  0
LINE
  5
269EC
  8
0
 10
3147.9382022899808362
 20
179.5133849783125015
 30
0.0
 11
3147.935693388990785
 21
179.4657297262037048
 31
0.0
  0
LINE
  5
269ED
  8
0
 10
3147.7981541270801245
 20
179.5133849783125015
 30
0.0
 11
3147.800663027966948
 21
179.4657297262288012
 31
0.0
  0
LINE
  5
269EE
  8
0
 10
3147.9239095604812064
 20
179.4545472904916892
 30
0.0
 11
3147.8124468564778908
 21
179.4545472904916892
 31
0.0
  0
ARC
  5
269EF
  8
0
 10
3147.9239095604812064
 20
179.4663472904917114
 30
0.0
 40
0.0118
 50
270.0
 51
356.9999999793648158
  0
ARC
  5
269F0
  8
0
 10
3147.8124468564778908
 20
179.4663472904917114
 30
0.0
 40
0.0118
 50
182.9999998990438996
 51
270.0000000000259774
  0
ARC
  5
269F1
  8
0
 10
3162.9120287995951912
 20
159.1101370750521085
 30
0.0
 40
0.7844070245923653
 50
311.4086270336406983
 51
80.3355827103265483
  0
ARC
  5
269F2
  8
0
 10
3211.6472568689569016
 20
176.3808781343929866
 30
0.0
 40
51.3803728554873231
 50
198.7908814989480106
 51
200.1650361082448057
  0
ARC
  5
269F3
  8
0
 10
3163.0433658896067755
 20
159.8433548696334014
 30
0.0
 40
0.0400583628921653
 50
89.5037380898971264
 51
198.736426731839714
  0
LINE
  5
269F4
  8
0
 10
3163.0455495893611442
 20
160.1343025587239879
 30
0.0
 11
3162.1421099593408144
 21
159.8054774407696073
 31
0.0
  0
ARC
  5
269F5
  8
0
 10
3146.1540980396921441
 20
154.7289757456572943
 30
0.0
 40
16.7623273394861805
 50
17.6544465153358487
 51
28.7069368248681087
  0
ARC
  5
269F6
  8
0
 10
3162.13812458320308
 20
159.8166723660943092
 30
0.0
 40
0.0118831635513501
 50
200.1458141488510023
 51
289.5956510177808809
  0
ARC
  5
269F7
  8
0
 10
3144.8664808506528061
 20
154.7236726390640911
 30
0.0
 40
18.9782767800247214
 50
16.6100720136835207
 51
27.24301627604763
  0
ARC
  5
269F8
  8
0
 10
3163.0414325308129264
 20
160.1454403842523959
 30
0.0
 40
0.0118743980838618
 50
290.2866515415266804
 51
16.1466091448139899
  0
LINE
  5
269F9
  8
0
 10
3157.6820506325298084
 20
167.7761801549308132
 30
0.0
 11
3158.1208166564301791
 21
168.0693207660308133
 31
0.0
  0
ARC
  5
269FA
  8
0
 10
3158.1438756690090486
 20
168.017378982601798
 30
0.0
 40
0.0568301586035224
 50
60.6546283371952697
 51
113.9383283783596994
  0
ARC
  5
269FB
  8
0
 10
3148.4180404996009202
 20
156.8973184807639996
 30
0.0
 40
14.8288340219184001
 50
26.0577159077057594
 51
48.8713948695644476
  0
ARC
  5
269FC
  8
0
 10
3406.2672259103951546
 20
339.8558938560105958
 30
0.0
 40
302.3843122916961761
 50
214.75230994437959
 51
214.9468923503214057
  0
ARC
  5
269FD
  8
0
 10
3068.1262394759592098
 20
102.727870472405499
 30
0.0
 40
110.6172362968347045
 50
33.4763426323066113
 51
35.2975636034809099
  0
ARC
  5
269FE
  8
0
 10
3151.145231737280028
 20
157.5435970784236872
 30
0.0
 40
11.1342321553867993
 50
30.6654061726868399
 51
33.83716894264019
  0
ARC
  5
269FF
  8
0
 10
3159.7407039651498053
 20
162.6841633851331039
 30
0.0
 40
1.1195759983635289
 50
4.9321097039982371
 51
28.7296955311650883
  0
ARC
  5
26A00
  8
0
 10
3157.7045676587040361
 20
167.743954849574294
 30
0.0
 40
0.0393126795453947
 50
124.9434400635101952
 51
202.2297986630420041
  0
ARC
  5
26A01
  8
0
 10
3115.0160431989211247
 20
138.0042316967470981
 30
0.0
 40
51.9764143409557633
 50
34.5586087467092895
 51
34.8137916910488272
  0
ARC
  5
26A02
  8
0
 10
3300.4006575786079338
 20
226.8747879272148964
 30
0.0
 40
154.5017008375220939
 50
202.5082147340924905
 51
202.5286616775499056
  0
ARC
  5
26A03
  8
0
 10
3177.1058060632490196
 20
175.8382374918116113
 30
0.0
 40
21.0615292176239208
 50
202.7953296504273055
 51
203.8051454788206058
  0
ARC
  5
26A04
  8
0
 10
3162.1996877505239354
 20
168.6857818288507076
 30
0.0
 40
4.521975762304101
 50
206.8982859944678125
 51
209.656155779897091
  0
ARC
  5
26A05
  8
0
 10
3113.8607565643119415
 20
141.586148570464502
 30
0.0
 40
50.8892134836439709
 50
28.88932145872921
 51
29.0994030778307611
  0
ARC
  5
26A06
  8
0
 10
3167.4800892104740342
 20
171.1978426934649917
 30
0.0
 40
10.3825388766886704
 50
209.7326659398036952
 51
210.5182686191722894
  0
LINE
  5
26A07
  8
0
 10
3158.598158045971104
 20
165.8242604747736948
 30
0.0
 11
3158.6602505747300711
 21
165.6766446893126101
 31
0.0
  0
ARC
  5
26A08
  8
0
 10
3164.1014544510157975
 20
168.9485554837116013
 30
0.0
 40
6.3243109204923744
 50
211.1235586742755004
 51
214.8551713389207976
  0
ARC
  5
26A09
  8
0
 10
3221.2530761522871217
 20
207.1859378810223973
 30
0.0
 40
75.0865755997285476
 50
213.9187644350382129
 51
213.9779650953576038
  0
ARC
  5
26A0A
  8
0
 10
9439.0690997469246213
 20
4641.9316842865246144
 30
0.0
 40
7712.3532710348108594
 50
215.4836197233638018
 51
215.4847851483874877
  0
ARC
  5
26A0B
  8
0
 10
3170.4884613160029403
 20
173.2547736262596061
 30
0.0
 40
14.0112557126564692
 50
216.4951063364765105
 51
217.6092955577236978
  0
ARC
  5
26A0C
  8
0
 10
3173.9383261366588158
 20
175.9320509290369898
 30
0.0
 40
18.3782548814968116
 50
218.135513086631903
 51
218.4535789988777879
  0
ARC
  5
26A0D
  8
0
 10
3148.169258360279855
 20
155.118065274758294
 30
0.0
 40
14.74680744920901
 50
38.8315558178024389
 51
39.0200638415261665
  0
ARC
  5
26A0E
  8
0
 10
3100.004941800908
 20
114.8391047069333979
 30
0.0
 40
77.5299979448264764
 50
38.9263947648716311
 51
39.5982888204801782
  0
ARC
  5
26A0F
  8
0
 10
3159.4096022542771607
 20
162.5323748648411879
 30
0.0
 40
1.3673631974450109
 50
24.7269953847928186
 51
48.2728928219923077
  0
ARC
  5
26A10
  8
0
 10
3150.9839133776968083
 20
156.7570321613034139
 30
0.0
 40
11.5651332920293708
 50
31.5813495084792706
 51
33.2868535504166019
  0
ARC
  5
26A11
  8
0
 10
3160.846354173940199
 20
162.8199014997595953
 30
0.0
 40
0.0118323435254232
 50
211.0854174344216005
 51
305.1155654164392104
  0
ARC
  5
26A12
  8
0
 10
3159.3722840675090993
 20
164.7753790939694909
 30
0.0
 40
0.0212403456230125
 50
126.0802627873309945
 51
208.4612487505592924
  0
ARC
  5
26A13
  8
0
 10
3159.5272921674459212
 20
164.8457251157728933
 30
0.0
 40
0.1914167430581637
 50
204.858792345732212
 51
231.5992489823426865
  0
ARC
  5
26A14
  8
0
 10
3159.4260305225147931
 20
164.715134494056997
 30
0.0
 40
0.0262344180682851
 50
227.7521994990229928
 51
305.6220191917158218
  0
ARC
  5
26A15
  8
0
 10
3162.9792050037031004
 20
159.5762716753872041
 30
0.0
 40
6.2214056360445751
 50
124.2849250900862046
 51
124.6571732209739025
  0
ARC
  5
26A16
  8
0
 10
3159.3315034567949624
 20
164.6896992268121096
 30
0.0
 40
0.0704995538360558
 50
18.8887231575393209
 51
58.1484954492912891
  0
ARC
  5
26A17
  8
0
 10
3159.4293682445531886
 20
164.7675963047377081
 30
0.0
 40
0.0632788743411514
 50
196.5389770096921893
 51
240.4982415971427088
  0
LINE
  5
26A18
  8
0
 10
3157.7879625325172128
 20
167.2936704150936009
 30
0.0
 11
3157.8277168815311597
 21
167.3217265641125095
 31
0.0
  0
LINE
  5
26A19
  8
0
 10
3157.8428167551960541
 20
167.2123935862869075
 30
0.0
 11
3157.8841556137308544
 21
167.2414170433125093
 31
0.0
  0
LINE
  5
26A1A
  8
0
 10
3157.902487376793033
 20
167.098017367912604
 30
0.0
 11
3157.9307721022310034
 21
167.1177659450125077
 31
0.0
  0
LINE
  5
26A1B
  8
0
 10
3157.9501619924640181
 20
167.053631505468104
 30
0.0
 11
3157.989321024830133
 21
167.0809919867124904
 31
0.0
  0
LINE
  5
26A1C
  8
0
 10
3158.0109511103310069
 20
166.9400380695126103
 30
0.0
 11
3158.0397332067309435
 21
166.9601348317125087
 31
0.0
  0
LINE
  5
26A1D
  8
0
 10
3157.9777849501201672
 20
166.8871985240901097
 30
0.0
 11
3158.0164924872301526
 21
166.9143101238126121
 31
0.0
  0
LINE
  5
26A1E
  8
0
 10
3158.0392150833490632
 20
166.774119826767901
 30
0.0
 11
3158.0680641555309194
 21
166.7942623970126022
 31
0.0
  0
LINE
  5
26A1F
  8
0
 10
3158.0794541743139234
 20
166.7349564119230081
 30
0.0
 11
3158.1089812922300553
 21
166.7555919273125937
 31
0.0
  0
LINE
  5
26A20
  8
0
 10
3158.142040688589077
 20
166.6226182617700999
 30
0.0
 11
3158.1713851812310168
 21
166.6431076495125012
 31
0.0
  0
LINE
  5
26A21
  8
0
 10
3158.1682406081072259
 20
166.5027542197867945
 30
0.0
 11
3158.2066604641809136
 21
166.5296247031126029
 31
0.0
  0
LINE
  5
26A22
  8
0
 10
3158.2321092882330049
 20
166.3912947267473044
 30
0.0
 11
3158.2618190984308058
 21
166.4120392081125033
 31
0.0
  0
LINE
  5
26A23
  8
0
 10
3158.3966355342631687
 20
166.1574554548716947
 30
0.0
 11
3158.4330987397302124
 21
166.1829172968124908
 31
0.0
  0
LINE
  5
26A24
  8
0
 10
3158.4631973412310799
 20
166.0478764680125892
 30
0.0
 11
3158.4940487303310874
 21
166.0694180254124888
 31
0.0
  0
LINE
  5
26A25
  8
0
 10
3158.5431426357008604
 20
165.9354676842135916
 30
0.0
 11
3158.5723181824969288
 21
165.9559269422605041
 31
0.0
  0
ARC
  5
26A26
  8
0
 10
3158.1789166372941509
 20
166.4875188433184121
 30
0.0
 40
0.0186036097391725
 50
125.0204444186721986
 51
202.0926452158128086
  0
ARC
  5
26A27
  8
0
 10
3158.2214725648650528
 20
166.4066719353535859
 30
0.0
 40
0.0186975514049215
 50
207.1722362206996024
 51
304.6723863937565966
  0
LINE
  5
26A28
  8
0
 10
3158.1616789619301926
 20
166.480521926612596
 30
0.0
 11
3158.2048385170310212
 21
166.3981333827125013
 31
0.0
  0
ARC
  5
26A29
  8
0
 10
3158.1931737639160929
 20
166.5462533422480078
 30
0.0
 40
0.0214103415086008
 50
309.0438688720582832
 51
7.3979793214834091
  0
ARC
  5
26A2A
  8
0
 10
3158.0912444770237926
 20
166.7186436480085092
 30
0.0
 40
0.020127531009628
 50
125.8581041111994949
 51
203.8695870952844018
  0
ARC
  5
26A2B
  8
0
 10
3158.5096321363507741
 20
166.8798398981832918
 30
0.0
 40
0.4684709909249627
 50
201.1908648540596971
 51
212.197202805954106
  0
ARC
  5
26A2C
  8
0
 10
3158.1313519633217766
 20
166.6405666244102974
 30
0.0
 40
0.0208900112325522
 50
209.6820437440443925
 51
300.7749185798775216
  0
ARC
  5
26A2D
  8
0
 10
3157.9516153665999809
 20
166.5955536698807009
 30
0.0
 40
0.1626806958014118
 50
18.3885599563316795
 51
35.2869339249522298
  0
ARC
  5
26A2E
  8
0
 10
3158.2460108535888139
 20
166.7445070512343079
 30
0.0
 40
0.1706998444106704
 50
198.7881851168648097
 51
214.8873087644143993
  0
LINE
  5
26A2F
  8
0
 10
3157.7811402108309267
 20
167.2716313312126033
 30
0.0
 11
3157.8191823056808971
 21
167.1868861025124886
 31
0.0
  0
LINE
  5
26A30
  8
0
 10
3157.8354510085300717
 20
167.1910715863124892
 30
0.0
 11
3157.8668794984091619
 21
167.1186626496028111
 31
0.0
  0
ARC
  5
26A31
  8
0
 10
3157.8917363306791231
 20
167.1137004672791022
 30
0.0
 40
0.0190150086396406
 50
217.0980620338046094
 51
304.4343369516629991
  0
ARC
  5
26A32
  8
0
 10
3157.9420217232700452
 20
167.1519036291605005
 30
0.0
 40
0.0821663962878635
 50
203.8633609033763889
 51
217.1955559875268023
  0
ARC
  5
26A33
  8
0
 10
3157.8542295385332181
 20
167.196517747967988
 30
0.0
 40
0.0195523365820001
 50
125.7115088325661958
 51
196.1732508846008045
  0
ARC
  5
26A34
  8
0
 10
3157.7979631416360462
 20
167.2784991847451863
 30
0.0
 40
0.0181708121184292
 50
123.392170802418903
 51
202.2074230648223079
  0
ARC
  5
26A35
  8
0
 10
3157.8363763058891891
 20
167.1946482999804005
 30
0.0
 40
0.0188649238713971
 50
204.2967023701376945
 51
286.5429500593101011
  0
ARC
  5
26A36
  8
0
 10
3157.8164444868139071
 20
167.3378651409990994
 30
0.0
 40
0.0196855415614102
 50
304.9333418323578258
 51
23.8795309032609104
  0
ARC
  5
26A37
  8
0
 10
3159.5851110582311776
 20
163.3307961093875065
 30
0.0
 40
0.7902264244969289
 50
19.4162178075534513
 51
61.7188584929398516
  0
ARC
  5
26A38
  8
0
 10
3161.6075637605431439
 20
165.0622610617695898
 30
0.0
 40
1.946393239914457
 50
212.143607142486303
 51
228.9914691580233921
  0
ARC
  5
26A39
  8
0
 10
3155.6828314326990039
 20
166.279307604786311
 30
0.0
 40
2.4014411194897098
 50
23.6035894617699995
 51
26.3670106155110098
  0
ARC
  5
26A3A
  8
0
 10
3157.2178486215861994
 20
166.862839643250112
 30
0.0
 40
0.7824507146687624
 50
18.4511121320594107
 51
30.8730091788816807
  0
ARC
  5
26A3B
  8
0
 10
3157.6310554520719052
 20
166.8402589470535986
 30
0.0
 40
0.4515263919986819
 50
14.3868552282907398
 51
35.9853053208219009
  0
ARC
  5
26A3C
  8
0
 10
3158.2653529999079183
 20
167.1345193356588084
 30
0.0
 40
0.3392949167593449
 50
198.6496864308230101
 51
214.1658573078755978
  0
ARC
  5
26A3D
  8
0
 10
3157.9642092494550525
 20
167.0359104754404029
 30
0.0
 40
0.0226132778299696
 50
128.4034583575893862
 51
205.9386410261907088
  0
ARC
  5
26A3E
  8
0
 10
3157.9999896745239312
 20
166.9567684869921038
 30
0.0
 40
0.020001498543368
 50
219.7656035440984965
 51
303.2320172966020095
  0
ARC
  5
26A3F
  8
0
 10
3157.8568299118269351
 20
166.9345631247419988
 30
0.0
 40
0.1221363669134746
 50
14.2611422563690393
 51
36.8031459656560713
  0
ARC
  5
26A40
  8
0
 10
3158.0779020378781752
 20
167.0401614032253974
 30
0.0
 40
0.1274720521479775
 50
194.7387103964005064
 51
216.3255778256175859
  0
ARC
  5
26A41
  8
0
 10
3268.0056211690261989
 20
218.7749562092830899
 30
0.0
 40
121.5892564988205038
 50
205.1401488847155861
 51
205.1703842888844065
  0
ARC
  5
26A42
  8
0
 10
3157.9418764656529675
 20
167.1018630827113043
 30
0.0
 40
0.0193960799230119
 50
97.0596989765906812
 51
124.9251309003849997
  0
ARC
  5
26A43
  8
0
 10
3157.942014224876857
 20
167.1007507069691087
 30
0.0
 40
0.0205169534198152
 50
28.3130894190488895
 51
97.0596989765906812
  0
ARC
  5
26A44
  8
0
 10
3157.8703202685328506
 20
167.2566711836205968
 30
0.0
 40
0.0205938236679339
 50
312.2076988448097268
 51
21.8748470352716886
  0
ARC
  5
26A45
  8
0
 10
3157.975804164002966
 20
167.0982057571438872
 30
0.0
 40
0.0218865122641999
 50
308.1402555100801237
 51
19.6505382884126796
  0
ARC
  5
26A46
  8
0
 10
3158.0507025059141597
 20
166.9436939855272897
 30
0.0
 40
0.0197642846530342
 50
26.2925186946034906
 51
123.7111371590820994
  0
LINE
  5
26A47
  8
0
 10
3158.1009256446750442
 20
166.8233698426826948
 30
0.0
 11
3158.1384063399441402
 21
166.8529877972358975
 31
0.0
  0
LINE
  5
26A48
  8
0
 10
3158.1682955051728641
 20
166.7135514132656056
 30
0.0
 11
3158.1958447999031705
 21
166.7353074534385087
 31
0.0
  0
ARC
  5
26A49
  8
0
 10
3157.7949315204050436
 20
166.5915845353025873
 30
0.0
 40
0.4515263919986819
 50
17.7612488665531885
 51
39.3596989590777397
  0
ARC
  5
26A4A
  8
0
 10
3158.4108091073840114
 20
166.9226696502624918
 30
0.0
 40
0.3392949167593449
 50
202.0240800690856133
 51
217.5402509461393095
  0
ARC
  5
26A4B
  8
0
 10
3158.1159916110600534
 20
166.8065063616928967
 30
0.0
 40
0.0226132778299696
 50
131.7778519958469872
 51
209.3130346644641122
  0
ARC
  5
26A4C
  8
0
 10
3158.156368317569104
 20
166.7296076313708113
 30
0.0
 40
0.020001498543368
 50
223.1399971823595934
 51
306.6064109348615148
  0
ARC
  5
26A4D
  8
0
 10
3158.0147637734507953
 20
166.6990143501946875
 30
0.0
 40
0.1221363669134746
 50
17.6355358946311114
 51
40.1775396039176229
  0
ARC
  5
26A4E
  8
0
 10
3158.2292370720711006
 20
166.8174419040587964
 30
0.0
 40
0.1274720521479775
 50
198.1131040346672876
 51
219.6999714638780006
  0
ARC
  5
26A4F
  8
0
 10
3158.1238997075611223
 20
166.8693761173439896
 30
0.0
 40
0.0218865122641999
 50
311.5146491483420732
 51
23.0249319266820009
  0
ARC
  5
26A50
  8
0
 10
3158.2077627930138988
 20
166.7195407674186924
 30
0.0
 40
0.0197642846530342
 50
29.6669123328615392
 51
127.0855307973387056
  0
LINE
  5
26A51
  8
0
 10
3158.2956139722250555
 20
166.5368023008327043
 30
0.0
 11
3158.3330946674941515
 21
166.566420255385907
 31
0.0
  0
LINE
  5
26A52
  8
0
 10
3158.3639465637579633
 20
166.4298630939942996
 30
0.0
 11
3158.3905331274518176
 21
166.4487399115884898
 31
0.0
  0
ARC
  5
26A53
  8
0
 10
3158.1446568453188775
 20
166.3884302793809979
 30
0.0
 40
0.2842427424677305
 50
11.4635963646031893
 51
45.707132027729628
  0
ARC
  5
26A54
  8
0
 10
3158.5114421303242125
 20
166.5837477701379896
 30
0.0
 40
0.2316817598125628
 50
198.7671504721095062
 51
220.6789058507727077
  0
ARC
  5
26A55
  8
0
 10
3158.3159406331769787
 20
166.5201748763734031
 30
0.0
 40
0.026261081272843
 50
140.716469394933597
 51
204.6778893412127047
  0
ARC
  5
26A56
  8
0
 10
3158.3514144789128295
 20
166.4467362973178979
 30
0.0
 40
0.0210180432237131
 50
221.777873957836789
 51
306.6020531681436978
  0
ARC
  5
26A57
  8
0
 10
3158.2537009399839008
 20
166.4402370446655084
 30
0.0
 40
0.0742347657270434
 50
9.8904680727826761
 51
47.2850525532536921
  0
ARC
  5
26A58
  8
0
 10
3158.379472173627164
 20
166.5087748970414054
 30
0.0
 40
0.0767015114954066
 50
190.5129419016271868
 51
226.6625787243976049
  0
ARC
  5
26A59
  8
0
 10
3158.2979518209231173
 20
166.5950165810930059
 30
0.0
 40
0.0453074994792091
 50
320.8641705385974774
 51
356.037224359885272
  0
ARC
  5
26A5A
  8
0
 10
3158.4043049894271462
 20
166.4247675814295064
 30
0.0
 40
0.0276466416672484
 50
46.8032354574286416
 51
119.8769331997959
  0
LINE
  5
26A5B
  8
0
 10
3158.5188322496019282
 20
166.2094420733182858
 30
0.0
 11
3158.5563129448701147
 21
166.2390600278714032
 31
0.0
  0
LINE
  5
26A5C
  8
0
 10
3158.5871648411339265
 20
166.1025028664799095
 30
0.0
 11
3158.6137514048277808
 21
166.1213796840740997
 31
0.0
  0
ARC
  5
26A5D
  8
0
 10
3158.3678751226939312
 20
166.0610700518666079
 30
0.0
 40
0.2842427424677305
 50
11.4635963646031893
 51
45.707132027729628
  0
ARC
  5
26A5E
  8
0
 10
3158.7346604077001757
 20
166.2563875426235995
 30
0.0
 40
0.2316817598125628
 50
198.7671504721095062
 51
220.6789058507727077
  0
ARC
  5
26A5F
  8
0
 10
3158.539158910552942
 20
166.192814648859013
 30
0.0
 40
0.026261081272843
 50
140.716469394933597
 51
204.6778893412127047
  0
ARC
  5
26A60
  8
0
 10
3158.574632756290157
 20
166.1193760698035078
 30
0.0
 40
0.0210180432237131
 50
221.777873957836789
 51
306.6020531681436978
  0
ARC
  5
26A61
  8
0
 10
3158.4769192173589545
 20
166.1128768171510899
 30
0.0
 40
0.0742347657270434
 50
9.8904680727826761
 51
47.2850525532536921
  0
ARC
  5
26A62
  8
0
 10
3158.6026904510031272
 20
166.1814146695269869
 30
0.0
 40
0.0767015114954066
 50
190.5129419016271868
 51
226.6625787243976049
  0
ARC
  5
26A63
  8
0
 10
3158.5211700982990806
 20
166.2676563535785021
 30
0.0
 40
0.0453074994792091
 50
320.8641705385974774
 51
356.037224359885272
  0
ARC
  5
26A64
  8
0
 10
3158.6275232668021999
 20
166.0974073539150879
 30
0.0
 40
0.0276466416672484
 50
46.8032354574286416
 51
119.8769331997959
  0
LINE
  5
26A65
  8
0
 10
3158.7626390978011841
 20
165.8515239889183022
 30
0.0
 11
3158.8001197930711896
 21
165.8811419434713912
 31
0.0
  0
LINE
  5
26A66
  8
0
 10
3158.8309716893340919
 20
165.7445847820798974
 30
0.0
 11
3158.8575582530288557
 21
165.7634615996740877
 31
0.0
  0
ARC
  5
26A67
  8
0
 10
3158.6116819708940966
 20
165.7031519674665958
 30
0.0
 40
0.2842427424677305
 50
11.4635963646031893
 51
45.707132027729628
  0
ARC
  5
26A68
  8
0
 10
3158.9784672558989769
 20
165.8984694582235875
 30
0.0
 40
0.2316817598125628
 50
198.7671504721095062
 51
220.6789058507727077
  0
ARC
  5
26A69
  8
0
 10
3158.7829657587531074
 20
165.834896564459001
 30
0.0
 40
0.026261081272843
 50
140.716469394933597
 51
204.6778893412127047
  0
ARC
  5
26A6A
  8
0
 10
3158.8184396044898676
 20
165.7614579854034957
 30
0.0
 40
0.0210180432237131
 50
221.777873957836789
 51
306.6020531681436978
  0
ARC
  5
26A6B
  8
0
 10
3158.7207260655591199
 20
165.7549587327511063
 30
0.0
 40
0.0742347657270434
 50
9.8904680727826761
 51
47.2850525532536921
  0
ARC
  5
26A6C
  8
0
 10
3158.8464972992028379
 20
165.8234965851270033
 30
0.0
 40
0.0767015114954066
 50
190.5129419016271868
 51
226.6625787243976049
  0
ARC
  5
26A6D
  8
0
 10
3158.7649769464987912
 20
165.9097382691784901
 30
0.0
 40
0.0453074994792091
 50
320.8641705385974774
 51
356.037224359885272
  0
ARC
  5
26A6E
  8
0
 10
3158.8713301150028201
 20
165.7394892695151043
 30
0.0
 40
0.0276466416672484
 50
46.8032354574286416
 51
119.8769331997959
  0
LINE
  5
26A6F
  8
0
 10
3159.0047453487468374
 20
165.481180806436214
 30
0.0
 11
3159.0380282203200295
 21
165.5154485202436945
 31
0.0
  0
LINE
  5
26A70
  8
0
 10
3159.0864835995748763
 20
165.3841025113524097
 30
0.0
 11
3159.1103715049921448
 21
165.4062959244820945
 31
0.0
  0
ARC
  5
26A71
  8
0
 10
3158.8745009051949637
 20
165.3143314856775987
 30
0.0
 40
0.2842427424677305
 50
18.982413302713919
 51
53.2259489658206206
  0
ARC
  5
26A72
  8
0
 10
3159.2125749047340832
 20
165.5559641372942963
 30
0.0
 40
0.2316817598125627
 50
206.2859674102099916
 51
228.1977227888745006
  0
ARC
  5
26A73
  8
0
 10
3159.0270729681687953
 20
165.467356125588708
 30
0.0
 40
0.026261081272843
 50
148.2352863330482933
 51
212.1967062793175955
  0
ARC
  5
26A74
  8
0
 10
3159.0718513774281746
 20
165.399190792102786
 30
0.0
 40
0.0210180432237131
 50
229.2966908959301975
 51
314.1208701062354862
  0
ARC
  5
26A75
  8
0
 10
3158.9758284241511319
 20
165.3799614286357951
 30
0.0
 40
0.0742347657270434
 50
17.4092850108862685
 51
54.8038694913606221
  0
ARC
  5
26A76
  8
0
 10
3159.0915499684101633
 20
165.4643673799361068
 30
0.0
 40
0.0767015114954066
 50
198.0317588397323902
 51
234.1813956624874891
  0
ARC
  5
26A77
  8
0
 10
3158.9994456535309837
 20
165.5392004685635925
 30
0.0
 40
0.0453074994792091
 50
328.3829874766968828
 51
3.5560412979908791
  0
ARC
  5
26A78
  8
0
 10
3159.1271617780657834
 20
165.3843317826693067
 30
0.0
 40
0.0276466416672484
 50
54.3220523955384422
 51
127.3957501378936996
  0
LINE
  5
26A79
  8
0
 10
3158.8144927991238546
 20
165.6202313419059067
 30
0.0
 11
3158.8483707144428081
 21
165.6539108995551999
 31
0.0
  0
LINE
  5
26A7A
  8
0
 10
3158.8945183303358135
 20
165.5217364111782103
 30
0.0
 11
3158.9187912568718275
 21
165.5435080590009136
 31
0.0
  0
ARC
  5
26A7B
  8
0
 10
3158.6813462119021096
 20
165.4556886507141087
 30
0.0
 40
0.2842427424677305
 50
17.9789109414255499
 51
52.2224466045465121
  0
ARC
  5
26A7C
  8
0
 10
3159.0236001992798265
 20
165.6913633748906989
 30
0.0
 40
0.2316817598125628
 50
205.2824650489260137
 51
227.1942204275966048
  0
ARC
  5
26A7D
  8
0
 10
3158.8365748751889441
 20
165.6060177460813918
 30
0.0
 40
0.026261081272843
 50
147.2317839717632921
 51
211.1932039180412914
  0
ARC
  5
26A7E
  8
0
 10
3158.8801526013639887
 20
165.5370786395714902
 30
0.0
 40
0.0210180432237131
 50
228.2931885346482943
 51
313.1173677449575052
  0
ARC
  5
26A7F
  8
0
 10
3158.7838076015332263
 20
165.5195339257564058
 30
0.0
 40
0.0742347657270434
 50
16.4057826496052002
 51
53.8003671300617086
  0
ARC
  5
26A80
  8
0
 10
3158.9009896428929096
 20
165.6019002392787058
 30
0.0
 40
0.0767015114954066
 50
197.028256478443609
 51
233.1778933012020047
  0
ARC
  5
26A81
  8
0
 10
3158.8102100455339496
 20
165.6783349216962051
 30
0.0
 40
0.0453074994792091
 50
327.3794851154040089
 51
2.552538936705989
  0
ARC
  5
26A82
  8
0
 10
3158.93519428521995
 20
165.5212532290418892
 30
0.0
 40
0.0276466416672484
 50
53.3185500342458525
 51
126.3922477766219998
  0
LINE
  5
26A83
  8
0
 10
3159.2462205743740924
 20
165.1270976962059081
 30
0.0
 11
3159.2800984896921364
 21
165.1607772538552013
 31
0.0
  0
LINE
  5
26A84
  8
0
 10
3159.3262461055860513
 20
165.0286027654782117
 30
0.0
 11
3159.3505190321229747
 21
165.0503744133008865
 31
0.0
  0
ARC
  5
26A85
  8
0
 10
3159.1130739871518927
 20
164.9625550050141101
 30
0.0
 40
0.2842427424677305
 50
17.9789109414255499
 51
52.2224466045465121
  0
ARC
  5
26A86
  8
0
 10
3159.4553279745291547
 20
165.1982297291907003
 30
0.0
 40
0.2316817598125628
 50
205.2824650489260137
 51
227.1942204275966048
  0
ARC
  5
26A87
  8
0
 10
3159.2683026504391819
 20
165.1128841003813932
 30
0.0
 40
0.026261081272843
 50
147.2317839717632921
 51
211.1932039180412914
  0
ARC
  5
26A88
  8
0
 10
3159.3118803766151359
 20
165.0439449938714915
 30
0.0
 40
0.0210180432237131
 50
228.2931885346482943
 51
313.1173677449575052
  0
ARC
  5
26A89
  8
0
 10
3159.2155353767830093
 20
165.0264002800564072
 30
0.0
 40
0.0742347657270434
 50
16.4057826496052002
 51
53.8003671300617086
  0
ARC
  5
26A8A
  8
0
 10
3159.3327174181440569
 20
165.1087665935787072
 30
0.0
 40
0.0767015114954066
 50
197.028256478443609
 51
233.1778933012020047
  0
ARC
  5
26A8B
  8
0
 10
3159.2419378207841874
 20
165.1852012759962065
 30
0.0
 40
0.0453074994792091
 50
327.3794851154040089
 51
2.552538936705989
  0
ARC
  5
26A8C
  8
0
 10
3159.3669220604701877
 20
165.0281195833418906
 30
0.0
 40
0.0276466416672484
 50
53.3185500342458525
 51
126.3922477766219998
  0
LINE
  5
26A8D
  8
0
 10
3159.1090991750738795
 20
165.1783144428559069
 30
0.0
 11
3159.1429770903928329
 21
165.2119940005052001
 31
0.0
  0
LINE
  5
26A8E
  8
0
 10
3159.1891247062858383
 20
165.0798195121282106
 30
0.0
 11
3159.2133976328218523
 21
165.1015911599509138
 31
0.0
  0
ARC
  5
26A8F
  8
0
 10
3158.9759525878521345
 20
165.0137717516641089
 30
0.0
 40
0.2842427424677305
 50
17.9789109414255499
 51
52.2224466045465121
  0
ARC
  5
26A90
  8
0
 10
3159.3182065752289418
 20
165.2494464758406991
 30
0.0
 40
0.2316817598125628
 50
205.2824650489260137
 51
227.1942204275966048
  0
ARC
  5
26A91
  8
0
 10
3159.1311812511389689
 20
165.164100847031392
 30
0.0
 40
0.026261081272843
 50
147.2317839717632921
 51
211.1932039180412914
  0
ARC
  5
26A92
  8
0
 10
3159.174758977314923
 20
165.0951617405214904
 30
0.0
 40
0.0210180432237131
 50
228.2931885346482943
 51
313.1173677449575052
  0
ARC
  5
26A93
  8
0
 10
3159.0784139774827963
 20
165.077617026706406
 30
0.0
 40
0.0742347657270434
 50
16.4057826496052002
 51
53.8003671300617086
  0
ARC
  5
26A94
  8
0
 10
3159.1955960188438439
 20
165.1599833402287061
 30
0.0
 40
0.0767015114954066
 50
197.028256478443609
 51
233.1778933012020047
  0
ARC
  5
26A95
  8
0
 10
3159.1048164214839744
 20
165.2364180226462054
 30
0.0
 40
0.0453074994792091
 50
327.3794851154040089
 51
2.552538936705989
  0
ARC
  5
26A96
  8
0
 10
3159.2298006611699748
 20
165.0793363299918894
 30
0.0
 40
0.0276466416672484
 50
53.3185500342458525
 51
126.3922477766219998
  0
LINE
  5
26A97
  8
0
 10
3159.4664563019241541
 20
164.7957526917058999
 30
0.0
 11
3159.5003342172421981
 21
164.8294322493551931
 31
0.0
  0
LINE
  5
26A98
  8
0
 10
3159.546481833136113
 20
164.6972577609782036
 30
0.0
 11
3159.5707547596730365
 21
164.7190294088009068
 31
0.0
  0
ARC
  5
26A99
  8
0
 10
3159.3333097147019544
 20
164.6312100005141019
 30
0.0
 40
0.2842427424677305
 50
17.9789109414255499
 51
52.2224466045465121
  0
ARC
  5
26A9A
  8
0
 10
3159.6755637020792165
 20
164.8668847246906921
 30
0.0
 40
0.2316817598125628
 50
205.2824650489260137
 51
227.1942204275966048
  0
ARC
  5
26A9B
  8
0
 10
3159.4885383779887889
 20
164.7815390958814135
 30
0.0
 40
0.026261081272843
 50
147.2317839717632921
 51
211.1932039180412914
  0
ARC
  5
26A9C
  8
0
 10
3159.5321161041638334
 20
164.7125999893715118
 30
0.0
 40
0.0210180432237131
 50
228.2931885346482943
 51
313.1173677449575052
  0
ARC
  5
26A9D
  8
0
 10
3159.435771104333071
 20
164.695055275556399
 30
0.0
 40
0.0742347657270434
 50
16.4057826496052002
 51
53.8003671300617086
  0
ARC
  5
26A9E
  8
0
 10
3159.5529531456941186
 20
164.7774215890786991
 30
0.0
 40
0.0767015114954066
 50
197.028256478443609
 51
233.1778933012020047
  0
ARC
  5
26A9F
  8
0
 10
3159.4621735483337943
 20
164.8538562714961984
 30
0.0
 40
0.0453074994792091
 50
327.3794851154040089
 51
2.552538936705989
  0
ARC
  5
26AA0
  8
0
 10
3159.5871577880197947
 20
164.6967745788419109
 30
0.0
 40
0.0276466416672484
 50
53.3185500342458525
 51
126.3922477766219998
  0
LINE
  5
26AA1
  8
0
 10
3159.6526200334619716
 20
164.505340178256688
 30
0.0
 11
3159.6864979487809251
 21
164.5390197359060949
 31
0.0
  0
LINE
  5
26AA2
  8
0
 10
3159.73264556467484
 20
164.4068452475291053
 30
0.0
 11
3159.756918491210854
 21
164.4286168953516949
 31
0.0
  0
ARC
  5
26AA3
  8
0
 10
3159.5194734462402266
 20
164.3407974870650037
 30
0.0
 40
0.2842427424677305
 50
17.9789109414255499
 51
52.2224466045465121
  0
ARC
  5
26AA4
  8
0
 10
3159.8617274336179435
 20
164.5764722112415086
 30
0.0
 40
0.2316817598125628
 50
205.2824650489260137
 51
227.1942204275966048
  0
ARC
  5
26AA5
  8
0
 10
3159.6747021095270611
 20
164.4911265824322015
 30
0.0
 40
0.026261081272843
 50
147.2317839717632921
 51
211.1932039180412914
  0
ARC
  5
26AA6
  8
0
 10
3159.7182798357030151
 20
164.4221874759222999
 30
0.0
 40
0.0210180432237131
 50
228.2931885346482943
 51
313.1173677449575052
  0
ARC
  5
26AA7
  8
0
 10
3159.621934835871798
 20
164.4046427621073008
 30
0.0
 40
0.0742347657270434
 50
16.4057826496052002
 51
53.8003671300617086
  0
ARC
  5
26AA8
  8
0
 10
3159.7391168772310266
 20
164.4870090756294871
 30
0.0
 40
0.0767015114954066
 50
197.028256478443609
 51
233.1778933012020047
  0
ARC
  5
26AA9
  8
0
 10
3159.6483372798729761
 20
164.5634437580469864
 30
0.0
 40
0.0453074994792091
 50
327.3794851154040089
 51
2.552538936705989
  0
ARC
  5
26AAA
  8
0
 10
3159.7733215195580669
 20
164.4063620653926989
 30
0.0
 40
0.0276466416672484
 50
53.3185500342458525
 51
126.3922477766219998
  0
LINE
  5
26AAB
  8
0
 10
3159.7860314728450248
 20
164.2598879032148886
 30
0.0
 11
3159.8184791668359139
 21
164.2949474654539017
 31
0.0
  0
LINE
  5
26AAC
  8
0
 10
3159.8700846445181014
 20
164.1648068779967957
 30
0.0
 11
3159.8934309720521014
 21
164.1875693164033123
 31
0.0
  0
ARC
  5
26AAD
  8
0
 10
3159.6598442730328316
 20
164.0899493804571136
 30
0.0
 40
0.2842427424677305
 50
20.3628176289412508
 51
54.6063532920592394
  0
ARC
  5
26AAE
  8
0
 10
3159.9919991634469625
 20
164.3396562010792081
 30
0.0
 40
0.2316817598125628
 50
207.6663717364473882
 51
229.5781271151111014
  0
ARC
  5
26AAF
  8
0
 10
3159.8086856528011594
 20
164.2466051128405979
 30
0.0
 40
0.026261081272843
 50
149.6156906592711948
 51
213.5771106055539121
  0
ARC
  5
26AB0
  8
0
 10
3159.8550931880740791
 20
164.1795382857577863
 30
0.0
 40
0.0210180432237131
 50
230.6770952221625919
 51
315.5012744324802725
  0
ARC
  5
26AB1
  8
0
 10
3159.7595613424268777
 20
164.1580012840443032
 30
0.0
 40
0.0742347657270434
 50
18.7896893371226206
 51
56.1842738175744003
  0
ARC
  5
26AB2
  8
0
 10
3159.8732159406890787
 20
164.2451705028915114
 30
0.0
 40
0.0767015114954066
 50
199.4121631659654099
 51
235.5617999887230951
  0
ARC
  5
26AB3
  8
0
 10
3159.7793356063530155
 20
164.3177630562142042
 30
0.0
 40
0.0453074994792091
 50
329.7633918029229108
 51
4.9364456242225421
  0
ARC
  5
26AB4
  8
0
 10
3159.9107454944792153
 20
164.1660160310709102
 30
0.0
 40
0.0276466416672484
 50
55.7024567217703321
 51
128.7761544641276998
  0
LINE
  5
26AB5
  8
0
 10
3159.3599149386468525
 20
164.7926218293673912
 30
0.0
 11
3159.3914167321308923
 21
164.8146386202124916
 31
0.0
  0
ARC
  5
26AB6
  8
0
 10
3159.3812682428201697
 20
164.8310362753834113
 30
0.0
 40
0.0192840589704692
 50
301.7533157972836761
 51
39.2964228041230896
  0
ARC
  5
26AB7
  8
0
 10
3159.2634494824910689
 20
164.6356875815747003
 30
0.0
 40
0.2463787086819123
 50
36.7130403912921182
 51
57.3998197917370589
  0
ARC
  5
26AB8
  8
0
 10
3159.4861374815791351
 20
164.6967482842028971
 30
0.0
 40
0.0230672823635985
 50
47.8270935304779812
 51
118.5323503879776013
  0
ARC
  5
26AB9
  8
0
 10
3158.667502711572979
 20
165.6797117133181132
 30
0.0
 40
0.0078740158138735
 50
202.9241411223256932
 51
292.9241399486256228
  0
LINE
  5
26ABA
  8
0
 10
3158.6705697355391749
 20
165.6724595764582091
 30
0.0
 11
3158.6899927289018706
 21
165.680665360034709
 31
0.0
  0
LINE
  5
26ABB
  8
0
 10
3158.6073959157301942
 20
165.8249664619125099
 30
0.0
 11
3158.6430792126311644
 21
165.8492049789126099
 31
0.0
  0
ARC
  5
26ABC
  8
0
 10
3158.556115016802778
 20
165.9184018000399021
 30
0.0
 40
0.0214365826120321
 50
127.2397477747532974
 51
206.5357844839450934
  0
ARC
  5
26ABD
  8
0
 10
3158.8469054775059703
 20
166.0437070187579138
 30
0.0
 40
0.3380441738924739
 50
203.5161460768894983
 51
218.3178556637824954
  0
ARC
  5
26ABE
  8
0
 10
3158.6010099945938236
 20
165.8477345537122005
 30
0.0
 40
0.0236466909514583
 50
215.1767961145681909
 51
285.6675749565043816
  0
ARC
  5
26ABF
  8
0
 10
3158.6537702203290792
 20
165.8337724261895971
 30
0.0
 40
0.0187739534771209
 50
79.1624282365788048
 51
124.7125493531403038
  0
ARC
  5
26AC0
  8
0
 10
3157.8220656115290694
 20
165.4626036834006868
 30
0.0
 40
0.9329612733319674
 50
22.8855737536531585
 51
32.5056237914051067
  0
ARC
  5
26AC1
  8
0
 10
3158.714193491340211
 20
165.8793921519115031
 30
0.0
 40
0.0630526185602676
 50
205.5360170690809127
 51
238.8602893725824003
  0
ARC
  5
26AC2
  8
0
 10
3158.4616607946868498
 20
165.8111771394308107
 30
0.0
 40
0.1190478487557399
 50
19.1469294272133084
 51
42.1679335187281481
  0
ARC
  5
26AC3
  8
0
 10
3158.6555528381582008
 20
165.9258793987800971
 30
0.0
 40
0.1112348479341701
 50
198.222888999868303
 51
222.8686548232213909
  0
ARC
  5
26AC4
  8
0
 10
3158.6968948751150492
 20
165.6561481120349129
 30
0.0
 40
0.0254702782047849
 50
46.9325665885847982
 51
105.7230821620516963
  0
LINE
  5
26AC5
  8
0
 10
3158.7143642854020982
 20
165.6748009357519038
 30
0.0
 11
3158.7696399670298888
 21
165.5684518804125105
 31
0.0
  0
LINE
  5
26AC6
  8
0
 10
3158.7696399670298888
 20
165.5684518804125105
 30
0.0
 11
3158.689992728919151
 21
165.6806653600397112
 31
0.0
  0
LINE
  5
26AC7
  8
0
 10
3158.615867143666037
 20
165.8307206948493899
 30
0.0
 11
3158.6351288660589489
 21
165.8017947694260954
 31
0.0
  0
LINE
  5
26AC8
  8
0
 10
3158.6351288660589489
 20
165.8017947694260954
 30
0.0
 11
3158.6474389409258947
 21
165.7828777923130019
 31
0.0
  0
LINE
  5
26AC9
  8
0
 10
3158.6474389409258947
 20
165.7828777923130019
 30
0.0
 11
3158.6985276459308807
 21
165.7012171448126026
 31
0.0
  0
LINE
  5
26ACA
  8
0
 10
3158.6985276459308807
 20
165.7012171448126026
 30
0.0
 11
3158.7078767025450361
 21
165.6791292899447967
 31
0.0
  0
ARC
  5
26ACB
  8
0
 10
3158.5895428466951671
 20
165.4843863333780121
 30
0.0
 40
0.290351303079249
 50
32.4502202624012384
 51
54.4090147656878074
  0
ARC
  5
26ACC
  8
0
 10
3159.0910286475509565
 20
165.8029495699292113
 30
0.0
 40
0.3425732011868796
 50
193.9268955648263102
 51
214.0941332020898926
  0
ARC
  5
26ACD
  8
0
 10
3159.0556828564899661
 20
165.5996289936607013
 30
0.0
 40
0.2029204599364825
 50
206.2426550485581913
 51
239.9455823709068909
  0
ARC
  5
26ACE
  8
0
 10
3158.6770719392111459
 20
165.3663928876615046
 30
0.0
 40
0.2829091753542661
 50
11.7471362013768594
 51
35.2188373538502333
  0
ARC
  5
26ACF
  8
0
 10
16462.0949356014498335
 20
5791.4452091078537705
 30
0.0
 40
14443.9540519403708458
 50
202.9238037076119099
 51
202.9244071804498049
  0
ARC
  5
26AD0
  8
0
 10
3158.9379710705738944
 20
165.2923522867862971
 30
0.0
 40
0.0078739991726873
 50
202.924019738381304
 51
292.9242612010000926
  0
ARC
  5
26AD1
  8
0
 10
5059.6918865948318853
 20
-4329.1122458232102872
 30
0.0
 40
4879.8013578144118583
 50
112.9240201311671967
 51
112.9242612010001068
  0
ARC
  5
26AD2
  8
0
 10
3158.9676157616709133
 20
165.2749668434800867
 30
0.0
 40
0.0196853298605462
 50
96.7141421077015053
 51
112.9240201311406935
  0
ARC
  5
26AD3
  8
0
 10
3156.8554743474219322
 20
163.9093985448031106
 30
0.0
 40
2.523880477018035
 50
31.90558929041174
 51
33.9570434277768314
  0
ARC
  5
26AD4
  8
0
 10
3156.1358061504661237
 20
163.4247608583532099
 30
0.0
 40
3.3915186509352129
 50
33.9570434277768314
 51
36.2333290264259418
  0
ARC
  5
26AD5
  8
0
 10
3158.4112959695321479
 20
165.0922012022942909
 30
0.0
 40
0.5704884814275585
 50
36.2333290264259418
 51
44.0869918590745371
  0
ARC
  5
26AD6
  8
0
 10
3159.7401149973629799
 20
165.9426073634514012
 30
0.0
 40
1.0248404761709751
 50
206.2633154572835963
 51
215.5780933544585878
  0
ARC
  5
26AD7
  8
0
 10
3157.9885949192789667
 20
166.8718119096436112
 30
0.0
 40
0.0188738425506471
 50
125.2200367344392049
 51
204.8198030649488999
  0
ARC
  5
26AD8
  8
0
 10
3160.0104749570441527
 20
167.8068998020870879
 30
0.0
 40
2.2465157019412598
 50
204.8198030649488999
 51
207.1869350004639898
  0
ARC
  5
26AD9
  8
0
 10
3158.02838381424408
 20
166.7888146017938027
 30
0.0
 40
0.0182466936246022
 50
207.1869350004741932
 51
306.4413664886786819
  0
ARC
  5
26ADA
  8
0
 10
3158.0051062526899841
 20
166.9305029105462097
 30
0.0
 40
0.0197952691117274
 50
305.1136244723006143
 51
25.2951985720179309
  0
ARC
  5
26ADB
  8
0
 10
3156.5363504903939429
 20
166.1220913005959972
 30
0.0
 40
1.6962940349780891
 50
23.0715551191136505
 51
29.0517664944894989
  0
ARC
  5
26ADC
  8
0
 10
3158.0793184684039261
 20
166.7781033119642018
 30
0.0
 40
0.0196920183791777
 50
26.3241355378646205
 51
124.8560418064188013
  0
ARC
  5
26ADD
  8
0
 10
3159.4065270047640297
 20
167.4216110173053096
 30
0.0
 40
1.4584945154474549
 50
205.4485970794181924
 51
207.1710406992031892
  0
ARC
  5
26ADE
  8
0
 10
3158.1826900990240574
 20
166.6262365386980946
 30
0.0
 40
0.0203117521108773
 50
29.6217370945229597
 51
122.5681341772792052
  0
ARC
  5
26ADF
  8
0
 10
3156.9759849503479927
 20
166.2039286579442035
 30
0.0
 40
1.298455750671438
 50
19.4491696664882916
 51
23.2025230025828684
  0
ARC
  5
26AE0
  8
0
 10
3158.2701850924549944
 20
166.4004276768908142
 30
0.0
 40
0.0143114469334307
 50
101.7778978777189991
 51
125.7723789246091002
  0
ARC
  5
26AE1
  8
0
 10
3158.2845477464079522
 20
166.4313519342034908
 30
0.0
 40
0.022433480929571
 50
118.7209865190096991
 51
206.7147358508381103
  0
ARC
  5
26AE2
  8
0
 10
3158.5303534657668934
 20
166.5190086258724875
 30
0.0
 40
0.2832432793756758
 50
200.1866888466782939
 51
219.0839792864832987
  0
ARC
  5
26AE3
  8
0
 10
3158.3241033597769274
 20
166.3538729776331024
 30
0.0
 40
0.0191257382024304
 50
224.6352314587151966
 51
308.243505812478702
  0
ARC
  5
26AE4
  8
0
 10
3157.9022117129120488
 20
167.0076605062587021
 30
0.0
 40
0.7971368781673024
 50
302.963901637139827
 51
305.5762678744666232
  0
ARC
  5
26AE5
  8
0
 10
3158.3741575794329037
 20
166.334453371559988
 30
0.0
 40
0.0261743101619635
 50
43.5440337476924313
 51
108.2173645226966983
  0
ARC
  5
26AE6
  8
0
 10
3158.1575345143569393
 20
166.3078218607705878
 30
0.0
 40
0.239791569377638
 50
10.7345352359347004
 51
30.5937246271068517
  0
ARC
  5
26AE7
  8
0
 10
3157.9668612403897896
 20
166.2853577932212943
 30
0.0
 40
0.3638354079710427
 50
28.631563759383269
 51
40.252560049479662
  0
ARC
  5
26AE8
  8
0
 10
3158.6089094674762237
 20
166.6329694910174055
 30
0.0
 40
0.3813447395954611
 50
197.1606524935743039
 51
208.4969362256271097
  0
ARC
  5
26AE9
  8
0
 10
3278.7706441465179523
 20
-6.3488325280216884
 30
0.0
 40
210.6639224031000026
 50
124.8777800318877951
 51
124.8888526871241993
  0
ARC
  5
26AEA
  8
0
 10
3158.4196151258261125
 20
166.2004653525335129
 30
0.0
 40
0.022129981840933
 50
307.5382929624179837
 51
21.3276106860188683
  0
ARC
  5
26AEB
  8
0
 10
3158.0387762790937813
 20
165.8865214822417897
 30
0.0
 40
0.5146299035226845
 50
20.0649979633754398
 51
38.7319595533654919
  0
ARC
  5
26AEC
  8
0
 10
3158.5031783787471795
 20
166.0499644798142072
 30
0.0
 40
0.0230825802778962
 50
34.6361531431480216
 51
80.2672557389300465
  0
ARC
  5
26AED
  8
0
 10
3158.5042792849408215
 20
166.0563829577120885
 30
0.0
 40
0.0165703722827538
 50
80.2672557389303165
 51
128.1265460253167134
  0
ARC
  5
26AEE
  8
0
 10
3158.4520778353680726
 20
166.0649408817156996
 30
0.0
 40
0.0203675630760644
 50
213.1564581551081119
 51
303.0890525626841168
  0
ARC
  5
26AEF
  8
0
 10
3158.7564614680418345
 20
166.2893758860597018
 30
0.0
 40
0.3985170144396718
 50
203.263495299299592
 51
216.2370976019961972
  0
ARC
  5
26AF0
  8
0
 10
3158.4087228450312068
 20
166.1409552515073926
 30
0.0
 40
0.02045384542512
 50
126.2248368942686056
 51
206.0354461952011889
  0
ARC
  5
26AF1
  8
0
 10
3158.3077866496000752
 20
166.0312290941839137
 30
0.0
 40
0.1251933978462207
 50
18.6831359639480397
 51
40.708352494286558
  0
ARC
  5
26AF2
  8
0
 10
3158.5326756090839808
 20
166.1594813541827875
 30
0.0
 40
0.1380880065283694
 50
199.7225651530528978
 51
219.6689233051758094
  0
ARC
  5
26AF3
  8
0
 10
3158.5430280461027905
 20
166.0449328249162875
 30
0.0
 40
0.0231019836070217
 50
125.8612344404989045
 51
202.8061604170171961
  0
ARC
  5
26AF4
  8
0
 10
3158.8145187124000586
 20
166.159091342648594
 30
0.0
 40
0.3176174315155706
 50
202.8061604170171961
 51
218.1748304037184027
  0
ARC
  5
26AF5
  8
0
 10
3158.589411925217064
 20
165.9821098368340131
 30
0.0
 40
0.0312688344584878
 50
218.1748304037184027
 51
254.2866496232985014
  0
ARC
  5
26AF6
  8
0
 10
3158.5858132997109351
 20
165.9693187605689957
 30
0.0
 40
0.0179811808830811
 50
254.2866496232977056
 51
307.2610537436867162
  0
ARC
  5
26AF7
  8
0
 10
3158.8825831652698071
 20
165.5792028053018043
 30
0.0
 40
0.4721849253074892
 50
122.4710097175922954
 51
127.261053743686702
  0
ARC
  5
26AF8
  8
0
 10
3158.6396169843769712
 20
165.9610094899068997
 30
0.0
 40
0.0196267417914854
 50
31.2799588325545095
 51
122.4710097176168944
  0
ARC
  5
26AF9
  8
0
 10
3158.310084534219186
 20
165.8719696815076929
 30
0.0
 40
0.3602425555356659
 50
15.9890972906784903
 51
39.4184753628723996
  0
ARC
  5
26AFA
  8
0
 10
3159.5903882529669318
 20
164.6118213809475037
 30
0.0
 40
1.7981430281611219
 50
124.7571144532651033
 51
126.1565946275231056
  0
ARC
  5
26AFB
  8
0
 10
3158.5563897934298438
 20
166.1019288926565025
 30
0.0
 40
0.0155750344871162
 50
304.7571144532417975
 51
344.5545773734071986
  0
ARC
  5
26AFC
  8
0
 10
3152.9293240318202152
 20
162.0844299135910092
 30
0.0
 40
6.82424973201441
 50
34.4512593040937602
 51
35.6090752543741189
  0
ARC
  5
26AFD
  8
0
 10
3157.458499725656111
 20
165.8726519628334017
 30
0.0
 40
1.0117207383576401
 50
19.5904445774993796
 51
28.0836941091701604
  0
ARC
  5
26AFE
  8
0
 10
3158.9962942454071708
 20
166.6573987317171941
 30
0.0
 40
0.735046143014273
 50
205.7770218839442009
 51
217.3091115948284937
  0
LINE
  5
26AFF
  8
0
 10
3159.0093180634889904
 20
165.2514316380207049
 30
0.0
 11
3158.6271314858968253
 21
165.8383722005781067
 31
0.0
  0
ARC
  5
26B00
  8
0
 10
3159.0067881968570873
 20
165.2255844562423022
 30
0.0
 40
0.019775001032682
 50
116.2326801648060979
 51
190.4408772696139067
  0
ARC
  5
26B01
  8
0
 10
3159.2249462595741534
 20
165.3235073488015132
 30
0.0
 40
0.2583795960505028
 50
203.1324602073175924
 51
225.078062464889598
  0
ARC
  5
26B02
  8
0
 10
3159.0578311509630112
 20
165.1549946816807051
 30
0.0
 40
0.0210642895999638
 50
223.2692596987517106
 51
303.7205796567421885
  0
ARC
  5
26B03
  8
0
 10
3153.0557560168072087
 20
173.8060741581755053
 30
0.0
 40
10.5503572476401004
 50
304.7506567000115183
 51
304.9731573713223156
  0
ARC
  5
26B04
  8
0
 10
3159.2604708053349896
 20
164.9042130194820004
 30
0.0
 40
0.4287907552610965
 50
122.7303273744182945
 51
127.7348590495299021
  0
ARC
  5
26B05
  8
0
 10
3159.0177872235522045
 20
165.2817917823610969
 30
0.0
 40
0.0200533636092251
 50
302.7303273744208809
 51
32.1522372751107426
  0
ARC
  5
26B06
  8
0
 10
3158.7961740132468549
 20
165.0180013150396121
 30
0.0
 40
0.363669177902741
 50
27.9866852718924406
 51
48.9994396588785506
  0
ARC
  5
26B07
  8
0
 10
3158.9346205674551129
 20
165.1205643985022107
 30
0.0
 40
0.1038202952626925
 50
21.9092126346772105
 51
48.4888035022741022
  0
ARC
  5
26B08
  8
0
 10
3159.0955803832939637
 20
165.2341048850225036
 30
0.0
 40
0.0988599029569444
 50
201.2291932296587902
 51
229.1688229073002958
  0
ARC
  5
26B09
  8
0
 10
3156.9380047103750258
 20
163.8020713222977065
 30
0.0
 40
2.5254936832850401
 50
28.9369305239071615
 51
32.0764336644120789
  0
ARC
  5
26B0A
  8
0
 10
3158.2150814195338171
 20
166.364704895341589
 30
0.0
 40
1.6334425265773269
 50
304.3849931209720125
 51
305.849343407831725
  0
ARC
  5
26B0B
  8
0
 10
3159.1599314062450503
 20
165.0570132912679071
 30
0.0
 40
0.0201233304003709
 50
305.849343407831725
 51
27.7998859060424905
  0
ARC
  5
26B0C
  8
0
 10
3158.8818192838079995
 20
164.7495111721559056
 30
0.0
 40
0.4335689130369355
 50
25.0722287647195117
 51
46.9603130463981699
  0
ARC
  5
26B0D
  8
0
 10
3159.2584513867691385
 20
164.9195802576624885
 30
0.0
 40
0.0211016770234998
 50
40.3423330205127897
 51
114.4922163707950062
  0
ARC
  5
26B0E
  8
0
 10
3161.240481613789143
 20
162.0290754040312038
 30
0.0
 40
3.5255634444335802
 50
124.379347765492497
 51
125.1034773035891021
  0
ARC
  5
26B0F
  8
0
 10
3159.2017019620079736
 20
164.9307940211930088
 30
0.0
 40
0.0207972994547964
 50
224.3951230978956062
 51
303.1975784493013748
  0
ARC
  5
26B10
  8
0
 10
3159.408490425454147
 20
165.1389262870696939
 30
0.0
 40
0.3141902514525722
 50
208.1873229163369956
 51
225.1332428094133036
  0
ARC
  5
26B11
  8
0
 10
3159.1496459913819308
 20
165.0001396484331053
 30
0.0
 40
0.020486123017754
 50
126.1212337715175948
 51
208.0167382737984951
  0
ARC
  5
26B12
  8
0
 10
3159.0719186951328084
 20
164.8888848353186063
 30
0.0
 40
0.1122975831583
 50
24.3541932080443502
 51
48.8094258758136093
  0
ARC
  5
26B13
  8
0
 10
3159.2481283891452222
 20
165.0196829003349137
 30
0.0
 40
0.112244640409243
 50
204.356714868060493
 51
228.8241010188239954
  0
ARC
  5
26B14
  8
0
 10
3159.3701625576131846
 20
164.6982513883442039
 30
0.0
 40
0.0195976559046072
 50
304.8785409765303029
 51
17.2803608740677284
  0
ARC
  5
26B15
  8
0
 10
3159.3606030388318686
 20
164.644506893265401
 30
0.0
 40
0.0189966905019616
 50
125.5486824456133945
 51
221.0915032274920975
  0
ARC
  5
26B16
  8
0
 10
3159.4159067994378347
 20
164.5732358035172922
 30
0.0
 40
0.0187970609482054
 50
217.541333057996809
 51
304.8794358209287907
  0
ARC
  5
26B17
  8
0
 10
3159.4727201552000224
 20
164.5671384573487046
 30
0.0
 40
0.0186680949965879
 50
56.5649138555603201
 51
126.1215212924008
  0
ARC
  5
26B18
  8
0
 10
3158.1712108606520815
 20
163.6613983793349973
 30
0.0
 40
1.604676035296434
 50
34.1742258815020392
 51
41.507267687708449
  0
ARC
  5
26B19
  8
0
 10
3155.3571285659909336
 20
170.441955301220986
 30
0.0
 40
7.154310179253967
 50
304.6681048129045166
 51
305.0101978207435991
  0
ARC
  5
26B1A
  8
0
 10
3143.6298819075441315
 20
187.2075833085488057
 30
0.0
 40
27.4864223219133805
 50
304.8833120469079745
 51
304.9641862884117245
  0
ARC
  5
26B1B
  8
0
 10
3160.5910115657347887
 20
165.5452349044527978
 30
0.0
 40
1.5437944533125649
 50
216.2662604047496018
 51
219.5711615367717116
  0
ARC
  5
26B1C
  8
0
 10
3517.9781293669170736
 20
-348.8041116317554042
 30
0.0
 40
626.0652459899057476
 50
124.9237552673117051
 51
124.9272158727719955
  0
ARC
  5
26B1D
  8
0
 10
3159.5527584373758145
 20
164.5329129730203022
 30
0.0
 40
0.0207284226047054
 50
304.9237552673134815
 51
34.5435546088865308
  0
ARC
  5
26B1E
  8
0
 10
3159.3374359605800237
 20
164.2450841477156871
 30
0.0
 40
0.3791540072833147
 50
26.7685039037792905
 51
52.1980453771432025
  0
ARC
  5
26B1F
  8
0
 10
3159.6593754510540748
 20
164.3913571233869106
 30
0.0
 40
0.0295781149342557
 50
55.9016266837135873
 51
108.8329982231351067
  0
ARC
  5
26B20
  8
0
 10
3159.6017281537860981
 20
164.4118464753466924
 30
0.0
 40
0.0213980555548573
 50
228.469468129001001
 51
302.7545548909092759
  0
ARC
  5
26B21
  8
0
 10
3159.2950049710188978
 20
164.8886177616174109
 30
0.0
 40
0.5883107210150906
 50
302.7545548909100717
 51
307.093726127048285
  0
ARC
  5
26B22
  8
0
 10
3159.546533031261788
 20
164.4772760873534025
 30
0.0
 40
0.0213412294414282
 50
127.2280424246366977
 51
218.1180215484793905
  0
ARC
  5
26B23
  8
0
 10
3159.7896995950859491
 20
164.6255667187749054
 30
0.0
 40
0.3060197999705551
 50
211.8452403402760069
 51
228.6538329693090077
  0
ARC
  5
26B24
  8
0
 10
3159.4804389422888562
 20
164.3684637069868018
 30
0.0
 40
0.1039480866878511
 50
26.5481720558620609
 51
53.0843510116283781
  0
ARC
  5
26B25
  8
0
 10
3159.6372075063482043
 20
164.4991478556069069
 30
0.0
 40
0.1056492994502211
 50
206.7632201783742971
 51
232.8643793694591864
  0
ARC
  5
26B26
  8
0
 10
3157.2960284485798184
 20
167.6817407927219108
 30
0.0
 40
4.0775607975668766
 50
304.6974091230696899
 51
305.2401673912498836
  0
ARC
  5
26B27
  8
0
 10
3159.6374909805190327
 20
164.3674413263331928
 30
0.0
 40
0.0196022293483331
 50
305.2401673912739852
 51
36.4701477550949988
  0
ARC
  5
26B28
  8
0
 10
3159.0381677821910671
 20
163.7714584312944908
 30
0.0
 40
0.8646105054663621
 50
33.5914182550928331
 51
44.6508036116954514
  0
ARC
  5
26B29
  8
0
 10
3159.7431649097948139
 20
164.2368004225363904
 30
0.0
 40
0.0200333926703226
 50
40.5287358698728113
 51
121.5151911898360026
  0
ARC
  5
26B2A
  8
0
 10
3159.9306445706188242
 20
163.9310434191513082
 30
0.0
 40
0.3786919605892663
 50
121.5151911898360026
 51
128.2577379531360009
  0
ARC
  5
26B2B
  8
0
 10
3159.6850033643459028
 20
164.2425512637971963
 30
0.0
 40
0.0180154120358173
 50
216.2568178849242031
 51
308.2577379531369957
  0
ARC
  5
26B2C
  8
0
 10
3160.1931427493041156
 20
164.717376773895694
 30
0.0
 40
0.7133520027717148
 50
215.523962634624894
 51
222.8875380663463091
  0
ARC
  5
26B2D
  8
0
 10
3159.62519247158707
 20
164.3142967919588955
 30
0.0
 40
0.0170177461792116
 50
118.2076388852289028
 51
222.0969776041314958
  0
ARC
  5
26B2E
  8
0
 10
3158.9357469665751523
 20
164.502645101692309
 30
0.0
 40
0.5171945685201543
 50
34.361808041560721
 51
51.0450194974309426
  0
ARC
  5
26B2F
  8
0
 10
3161.7738080714070747
 20
166.4731478140375884
 30
0.0
 40
2.9621354953313919
 50
211.9685013819668882
 51
215.209953971050993
  0
ARC
  5
26B30
  8
0
 10
3523.1520192337238768
 20
421.3855175160190925
 30
0.0
 40
444.275733637512019
 50
214.7630083098075886
 51
215.3106709316687102
  0
ARC
  5
26B31
  8
0
 10
3143.8756530855011988
 20
152.7379048516108071
 30
0.0
 40
20.5060449704011312
 50
30.8404345809008795
 51
35.3081924361408213
  0
LINE
  5
26B32
  8
0
 10
3160.8473900760632205
 20
162.8535631136543032
 30
0.0
 11
3161.7395714528020108
 21
163.4112386428940056
 31
0.0
  0
LINE
  5
26B33
  8
0
 10
3163.4876108356788791
 20
158.5772208527737064
 30
0.0
 11
3163.0341062039287863
 21
159.8246639167803949
 31
0.0
  0
ARC
  5
26B34
  8
0
 10
3163.0799995209281406
 20
159.8295935630908104
 30
0.0
 40
0.046157317490117
 50
86.0219186434180187
 51
186.1309381270083918
  0
LINE
  5
26B35
  8
0
 10
3162.8094288665088243
 20
158.3304719698392091
 30
0.0
 11
3162.3550213462299325
 21
159.5774972539352916
 31
0.0
  0
ARC
  5
26B36
  8
0
 10
3162.3154745484498562
 20
159.5497488859568875
 30
0.0
 40
0.0483106731492514
 50
35.0557662722531518
 51
131.5350885964467125
  0
LINE
  5
26B37
  8
0
 10
3163.4902254525309218
 20
159.6628019693125111
 30
0.0
 11
3163.4902254525309218
 21
159.713340915168402
 31
0.0
  0
ARC
  5
26B38
  8
0
 10
3163.4705403373927766
 20
159.713340915168402
 30
0.0
 40
0.0196851151371114
 50
359.9999999999984084
 51
46.8987896327098426
  0
ARC
  5
26B39
  8
0
 10
3162.9323295614540257
 20
159.1382206910099057
 30
0.0
 40
0.8073615154266944
 50
46.8987896327098426
 51
54.6299973250148625
  0
ARC
  5
26B3A
  8
0
 10
3162.9023023679869766
 20
159.0959214421054071
 30
0.0
 40
0.8592350038902489
 50
54.6299973250148625
 51
77.974194370457738
  0
ARC
  5
26B3B
  8
0
 10
3162.2379795096298949
 20
159.8194162520125019
 30
0.0
 40
0.0196850394000015
 50
20.0000000000045404
 51
110.0000000000169962
  0
LINE
  5
26B3C
  8
0
 10
3162.2564773958938531
 20
159.8261489320094881
 30
0.0
 11
3162.2672496838708867
 21
159.7965523140377968
 31
0.0
  0
LINE
  5
26B3D
  8
0
 10
3162.1935728570520041
 20
159.7697361420617881
 30
0.0
 11
3163.0290478785518644
 21
160.0738241813618004
 31
0.0
  0
ARC
  5
26B3E
  8
0
 10
3163.0317409505310025
 20
160.0664250269124977
 30
0.0
 40
0.0078740156999994
 50
17.6140555583109411
 51
110.0000000000460005
  0
LINE
  5
26B3F
  8
0
 10
3163.0392458045239437
 20
160.0688077333103081
 30
0.0
 11
3163.1019852482181705
 21
159.8711961580779928
 31
0.0
  0
LINE
  5
26B40
  8
0
 10
3162.2686408814201968
 20
159.5659446517788922
 30
0.0
 11
3162.188985303159825
 21
159.759338219501501
 31
0.0
  0
ARC
  5
26B41
  8
0
 10
3162.1962659290311422
 20
159.7623369876125139
 30
0.0
 40
0.0078740156999998
 50
110.0000000000721059
 51
202.3859440244505947
  0
LINE
  5
26B42
  8
0
 10
3162.3248711222718157
 20
158.5529443650146106
 30
0.0
 11
3162.3248711218311655
 21
158.5024054195527015
 31
0.0
  0
ARC
  5
26B43
  8
0
 10
3162.3445562450101534
 20
158.5024054193808922
 30
0.0
 40
0.0196851231792152
 50
179.9999994999340913
 51
227.050480020476499
  0
ARC
  5
26B44
  8
0
 10
3163.0258165071031726
 20
161.5277818051432064
 30
0.0
 40
3.268350957204877
 50
266.4062540972283841
 51
268.0026965382376147
  0
ARC
  5
26B45
  8
0
 10
3162.9071519643712236
 20
159.1067597296203928
 30
0.0
 40
0.8453085978689232
 50
236.6670645199459955
 51
264.1470537816892943
  0
ARC
  5
26B46
  8
0
 10
3162.9096216019429448
 20
159.1105146879185099
 30
0.0
 40
0.8498029077773473
 50
227.0965560216488939
 51
236.6670645199459955
  0
ARC
  5
26B47
  8
0
 10
3162.9075482871298846
 20
159.1669282854126948
 30
0.0
 40
0.8464566929001534
 50
226.4986163729006989
 51
239.7973985169550133
  0
ARC
  5
26B48
  8
0
 10
3162.905107704942111
 20
159.1618420246801122
 30
0.0
 40
0.84083324489164
 50
239.7667748153546938
 51
264.3731901024132185
  0
ARC
  5
26B49
  8
0
 10
3162.9386847863770527
 20
159.5355774495432115
 30
0.0
 40
1.216064346011994
 50
264.5253238178459014
 51
267.7249997723350816
  0
ARC
  5
26B4A
  8
0
 10
3149.9033357024218276
 20
153.3127174393922019
 30
0.0
 40
14.4882783337414693
 50
14.5809621179804001
 51
19.3847274220564287
  0
ARC
  5
26B4B
  8
0
 10
3130.9027616836310699
 20
148.3701797941147049
 30
0.0
 40
34.1211714322775777
 50
7.4626084359280016
 51
14.5809621179804001
  0
ARC
  5
26B4C
  8
0
 10
3040.7161686188410386
 20
136.5567608558150994
 30
0.0
 40
125.078185651335005
 50
4.395859212897804
 51
7.4626084359280016
  0
ARC
  5
26B4D
  8
0
 10
3095.1363741609361568
 20
140.7402112281810957
 30
0.0
 40
70.4974195495122871
 50
357.6472842574960964
 51
4.395859212897804
  0
ARC
  5
26B4E
  8
0
 10
3102.2883049527217736
 20
140.4463689252162908
 30
0.0
 40
63.3394549401061298
 50
352.2161185585507042
 51
357.6472842574960964
  0
ARC
  5
26B4F
  8
0
 10
3150.94976506719604
 20
133.7945239229134984
 30
0.0
 40
14.22545752178209
 50
342.0735083152450215
 51
352.2161185585507042
  0
ARC
  5
26B50
  8
0
 10
3159.8482328332661382
 20
130.9158528853373866
 30
0.0
 40
4.8729457989151337
 50
331.2575579537124781
 51
342.0735083152450215
  0
ARC
  5
26B51
  8
0
 10
3163.3100922913358772
 20
129.0172058110327953
 30
0.0
 40
0.9246130342912318
 50
306.9197577073611001
 51
331.2575579537124781
  0
ARC
  5
26B52
  8
0
 10
3163.6489079479770226
 20
128.7995870539710097
 30
0.0
 40
0.6233202217422525
 50
236.4944983395419911
 51
264.1746422241172922
  0
ARC
  5
26B53
  8
0
 10
3163.5466357548039014
 20
128.7370781852887944
 30
0.0
 40
0.5589552020372697
 50
274.0017023672824052
 51
304.7830901485879735
  0
LINE
  5
26B54
  8
0
 10
3162.8386506494312016
 20
131.3874007264124941
 30
0.0
 11
3162.8386524275301781
 21
130.8204715925124901
 31
0.0
  0
ARC
  5
26B55
  8
0
 10
3178.6167790728068212
 20
130.8205210785687882
 30
0.0
 40
15.77812664535392
 50
180.0001797008110032
 51
184.401870085917011
  0
ARC
  5
26B56
  8
0
 10
3167.3302340843310958
 20
129.9516982067061974
 30
0.0
 40
4.4581906490881309
 50
184.401870085917011
 51
197.3845871300333101
  0
ARC
  5
26B57
  8
0
 10
3163.7599726251919492
 20
128.8339007369214073
 30
0.0
 40
0.7170360051213115
 50
197.3845871300333101
 51
230.5975762579745094
  0
LINE
  5
26B58
  8
0
 10
3163.409516791130045
 20
131.3874007264124941
 30
0.0
 11
3163.409516791130045
 21
130.8204715925124901
 31
0.0
  0
ARC
  5
26B59
  8
0
 10
3178.9080758018958477
 20
130.8204715925124901
 30
0.0
 40
15.4985590107651507
 50
180.0
 51
184.1610042102778095
  0
LINE
  5
26B5A
  8
0
 10
3163.9508553738310184
 20
167.1098416712125072
 30
0.0
 11
3164.5043251325309939
 21
167.1102234235125081
 31
0.0
  0
ARC
  5
26B5B
  8
0
 10
3164.5807937739327826
 20
166.6516639847411909
 30
0.0
 40
0.4648916131789723
 50
80.2507246534945864
 51
99.4674363879155408
  0
LINE
  5
26B5C
  8
0
 10
3164.6595171431299605
 20
167.1098417266125011
 30
0.0
 11
3166.1358947438297946
 21
167.1098416713124948
 31
0.0
  0
LINE
  5
26B5D
  8
0
 10
3162.4154223029308923
 20
166.9818889154126111
 30
0.0
 11
3162.4154223029308923
 21
161.9492967258657927
 31
0.0
  0
LINE
  5
26B5E
  8
0
 10
3162.3583356887302216
 20
158.5228363240329088
 30
0.0
 11
3162.3583356887302216
 21
158.5474597309085141
 31
0.0
  0
ARC
  5
26B5F
  8
0
 10
3162.9075482871298846
 20
159.0488180492122012
 30
0.0
 40
0.8464566929003865
 50
46.4986163729018074
 51
55.3424828449000969
  0
ARC
  5
26B60
  8
0
 10
3162.9075482871298846
 20
159.0488180492125991
 30
0.0
 40
0.8464566928999649
 50
55.3424828449000969
 51
76.7539175287949718
  0
LINE
  5
26B61
  8
0
 10
3163.4567608856300467
 20
159.6929100105070063
 30
0.0
 11
3163.4567608856300467
 21
159.6745494550305011
 31
0.0
  0
ARC
  5
26B62
  8
0
 10
3150.6903875482857984
 20
153.5571488211338931
 30
0.0
 40
13.0934585548710007
 50
16.4017919351701309
 51
19.8710706755708486
  0
ARC
  5
26B63
  8
0
 10
3133.0255615179048618
 20
148.897229784514991
 30
0.0
 40
31.3595196612387603
 50
9.1872765436323576
 51
15.4557723640331997
  0
ARC
  5
26B64
  8
0
 10
3087.8430231847378309
 20
141.464636552350612
 30
0.0
 40
77.1492459265238182
 50
4.2054699374078108
 51
9.278856232016329
  0
ARC
  5
26B65
  8
0
 10
3080.2795488864080653
 20
140.524381521117391
 30
0.0
 40
84.762173140632342
 50
357.4721892762884181
 51
4.4644092132350828
  0
ARC
  5
26B66
  8
0
 10
3123.9800979805968382
 20
138.4526748950596868
 30
0.0
 40
41.0130233769175803
 50
350.0703333800030919
 51
357.6709962583857987
  0
ARC
  5
26B67
  8
0
 10
3167.8062538242029405
 20
130.025147410435693
 30
0.0
 40
4.368309516555664
 50
184.3225150630472058
 51
195.6224507891658106
  0
ARC
  5
26B68
  8
0
 10
3160.7693145631251355
 20
130.631196242726503
 30
0.0
 40
3.3445437682021022
 50
327.7960652998285127
 51
346.3100750565967019
  0
ARC
  5
26B69
  8
0
 10
3148.6897706091990585
 20
134.2328124568140879
 30
0.0
 40
15.9461687750339092
 50
344.0082210271015128
 51
349.6956978492613075
  0
LINE
  5
26B6A
  8
0
 10
3162.4154223029308923
 20
137.7102353721124928
 30
0.0
 11
3163.3996742714298307
 21
137.7102353721124928
 31
0.0
  0
LINE
  5
26B6B
  8
0
 10
3163.3996742714298307
 20
137.7102353721124928
 30
0.0
 11
3163.3996742714298307
 21
156.6967648873113887
 31
0.0
  0
LINE
  5
26B6C
  8
0
 10
3162.4154223029308923
 20
137.7102353721124928
 30
0.0
 11
3162.4154223029308923
 21
158.4191780616015137
 31
0.0
  0
LINE
  5
26B6D
  8
0
 10
3162.4154223029308923
 20
137.0606290728125032
 30
0.0
 11
3163.3996742714298307
 21
137.0606290728125032
 31
0.0
  0
LINE
  5
26B6E
  8
0
 10
3163.3996742714298307
 20
137.0606290728125032
 30
0.0
 11
3163.3996742714298307
 21
137.6590542697124988
 31
0.0
  0
ARC
  5
26B6F
  8
0
 10
3163.3799892320298568
 20
137.6590542697124988
 30
0.0
 40
0.0196850393999988
 50
0.0000000000048853
 51
90.0
  0
LINE
  5
26B70
  8
0
 10
3163.3799892320298568
 20
137.6787393091125011
 30
0.0
 11
3162.4351073423308662
 21
137.6787393091123874
 31
0.0
  0
ARC
  5
26B71
  8
0
 10
3162.4351073423308662
 20
137.6590542697124135
 30
0.0
 40
0.0196850394000041
 50
90.0
 51
179.9999999994934967
  0
LINE
  5
26B72
  8
0
 10
3162.4154223029308923
 20
137.0606290728125032
 30
0.0
 11
3162.4154223029308923
 21
137.6590542697124135
 31
0.0
  0
LINE
  5
26B73
  8
0
 10
3162.1398317517309806
 20
137.0015739547125122
 30
0.0
 11
3163.6752648226301972
 21
137.0015739547125122
 31
0.0
  0
ARC
  5
26B74
  8
0
 10
3163.6752648228011822
 20
136.9818889154832107
 30
0.0
 40
0.0196850392292909
 50
359.9999997941907282
 51
90.0000004968447769
  0
LINE
  5
26B75
  8
0
 10
3163.6949498620301711
 20
136.9818889154126111
 30
0.0
 11
3163.6949498620301711
 21
136.4228337973125065
 31
0.0
  0
ARC
  5
26B76
  8
0
 10
3163.6752648226301972
 20
136.4228337973125065
 30
0.0
 40
0.0196850393999988
 50
270.0000000001563194
 51
359.9999999999836859
  0
LINE
  5
26B77
  8
0
 10
3163.6752648226301972
 20
136.4031487579125042
 30
0.0
 11
3162.1398317517309806
 21
136.4031487579086956
 31
0.0
  0
ARC
  5
26B78
  8
0
 10
3162.1398317517309806
 20
136.4228337973086127
 30
0.0
 40
0.019685039399949
 50
179.9999999885584998
 51
270.0000000001563194
  0
LINE
  5
26B79
  8
0
 10
3162.1201467123310067
 20
136.4228337973125065
 30
0.0
 11
3162.1201467124419651
 21
136.9818889154126111
 31
0.0
  0
ARC
  5
26B7A
  8
0
 10
3162.1398317517459873
 20
136.9818889154086037
 30
0.0
 40
0.0196850393039299
 50
90.0000000453358666
 51
179.9999999885584998
  0
LINE
  5
26B7B
  8
0
 10
3162.495048287130885
 20
137.0606290728125032
 30
0.0
 11
3162.495048287130885
 21
137.0015739547125122
 31
0.0
  0
LINE
  5
26B7C
  8
0
 10
3163.3200482871297936
 20
137.0606290728125032
 30
0.0
 11
3163.3200482871297936
 21
137.0015739547125122
 31
0.0
  0
LINE
  5
26B7D
  8
0
 10
3162.1201467123310067
 20
136.3992117500125119
 30
0.0
 11
3162.1201467123310067
 21
136.3696841910125102
 31
0.0
  0
LINE
  5
26B7E
  8
0
 10
3162.1201467123310067
 20
136.3696841910125102
 30
0.0
 11
3163.6949498619310361
 21
136.3696841910125102
 31
0.0
  0
LINE
  5
26B7F
  8
0
 10
3163.6949498619310361
 20
136.3696841910125102
 30
0.0
 11
3163.6949498619310361
 21
136.3992117500125119
 31
0.0
  0
LINE
  5
26B80
  8
0
 10
3163.6949498619310361
 20
136.3992117500125119
 30
0.0
 11
3162.1201467123310067
 21
136.3992117500125119
 31
0.0
  0
LINE
  5
26B81
  8
0
 10
3162.191012854130804
 20
136.3992117500125119
 30
0.0
 11
3162.191012854130804
 21
136.4031487579125042
 31
0.0
  0
LINE
  5
26B82
  8
0
 10
3163.6240837202308285
 20
136.3992117500125119
 30
0.0
 11
3163.6240837202308285
 21
136.4031487579123905
 31
0.0
  0
LINE
  5
26B83
  8
0
 10
3163.6851073416310101
 20
136.3618101752126108
 30
0.0
 11
3160.5551860827308701
 21
136.3618101752126108
 31
0.0
  0
ARC
  5
26B84
  8
0
 10
3160.5551860827308701
 20
136.3519676552126043
 30
0.0
 40
0.009842520000003
 50
90.0
 51
179.9999982536045025
  0
LINE
  5
26B85
  8
0
 10
3160.5453435627309773
 20
136.3519676555125102
 30
0.0
 11
3160.5453435453300699
 21
135.7811015138125015
 31
0.0
  0
ARC
  5
26B86
  8
0
 10
3160.555186064730151
 20
135.7811015135125103
 30
0.0
 40
0.00984251940001
 50
179.9999982536191965
 51
270.0001059479474179
  0
LINE
  5
26B87
  8
0
 10
3160.5551860829309589
 20
135.7712589941124861
 30
0.0
 11
3163.6851073423249545
 21
135.7712647817764946
 31
0.0
  0
ARC
  5
26B88
  8
0
 10
3163.685107324125056
 20
135.7811073213954103
 30
0.0
 40
0.0098425396189698
 50
270.0001059479474179
 51
359.9661926677979977
  0
LINE
  5
26B89
  8
0
 10
3163.6949498620301711
 20
135.7811015138125015
 30
0.0
 11
3163.6949498619310361
 21
136.3519676555125102
 31
0.0
  0
ARC
  5
26B8A
  8
0
 10
3163.6851073425368668
 20
136.3519676558186973
 30
0.0
 40
0.0098425193938567
 50
359.999998217824384
 51
90.0000012000199234
  0
LINE
  5
26B8B
  8
0
 10
3163.6236274490011056
 20
136.3696841910125102
 30
0.0
 11
3163.6236274490011056
 21
136.3618101752126108
 31
0.0
  0
LINE
  5
26B8C
  8
0
 10
3162.1914691252609373
 20
136.3696841910125102
 30
0.0
 11
3162.1914691252609373
 21
136.3618101752126108
 31
0.0
  0
LINE
  5
26B8D
  8
0
 10
3162.1211315802302124
 20
135.7594479705126105
 30
0.0
 11
3163.6949498619310361
 21
135.7594479705126105
 31
0.0
  0
LINE
  5
26B8E
  8
0
 10
3163.6949498619310361
 20
135.7594479705126105
 30
0.0
 11
3163.6956100456309287
 21
135.6661921700624873
 31
0.0
  0
ARC
  5
26B8F
  8
0
 10
3166.091110041308184
 20
135.6831505795435078
 30
0.0
 40
2.3955600215701272
 50
180.4056059532616985
 51
191.5446999705060875
  0
ARC
  5
26B90
  8
0
 10
3166.4154065258330775
 20
135.7493929631201866
 30
0.0
 40
2.7265528662921481
 50
191.5446999705060875
 51
202.6739356971112045
  0
LINE
  5
26B91
  8
0
 10
3162.1211315802302124
 20
135.7594479705126105
 30
0.0
 11
3162.1211315802302124
 21
135.7299204114125075
 31
0.0
  0
ARC
  5
26B92
  8
0
 10
3159.8355120107571565
 20
135.7299204114125075
 30
0.0
 40
2.285619569474135
 50
353.0535001854099733
 51
0.0
  0
ARC
  5
26B93
  8
0
 10
3161.1211980136790771
 20
135.5732764947053965
 30
0.0
 40
0.9904262191393474
 50
337.1055069653123155
 51
353.0535001854099733
  0
ARC
  5
26B94
  8
0
 10
3161.7273051940010191
 20
135.3173154456868872
 30
0.0
 40
0.332488552903442
 50
298.241970913063426
 51
337.1055069653123155
  0
ARC
  5
26B95
  8
0
 10
3161.7600123351508046
 20
135.2574124938516036
 30
0.0
 40
0.2642401431272457
 50
272.8306685777732241
 51
298.1405505177731925
  0
LINE
  5
26B96
  8
0
 10
3157.8674871807329509
 20
134.993098580138593
 30
0.0
 11
3163.124149671520172
 21
134.993098580138593
 31
0.0
  0
ARC
  5
26B97
  8
0
 10
3160.6458967592297995
 20
132.0505577378139037
 30
0.0
 40
0.4217716286068111
 50
160.382612015679797
 51
191.2513587756619984
  0
ARC
  5
26B98
  8
0
 10
3160.8887298802678743
 20
131.9257747089459087
 30
0.0
 40
0.693339840514838
 50
139.8997511505951081
 51
157.4053435882954943
  0
ARC
  5
26B99
  8
0
 10
3167.6606524937451468
 20
126.7404153864947034
 30
0.0
 40
9.2218283007227217
 50
141.3093758110198053
 51
142.3583928502145
  0
ARC
  5
26B9A
  8
0
 10
3166.0464150185430299
 20
127.9718643307595016
 30
0.0
 40
7.1922255094815544
 50
137.2466628060649043
 51
140.9278025630570141
  0
ARC
  5
26B9B
  8
0
 10
3117.4186999150069823
 20
172.9281146218318952
 30
0.0
 40
59.0325365997495979
 50
317.2466628060648759
 51
318.9803745163139865
  0
ARC
  5
26B9C
  8
0
 10
3182.8072868084291258
 20
116.0473491222137028
 30
0.0
 40
27.6340012319952102
 50
137.6776361007802905
 51
138.9803745163139865
  0
ARC
  5
26B9D
  8
0
 10
3163.1688627481821641
 20
133.9309571090246891
 30
0.0
 40
1.0729181555086389
 50
111.2289270442861948
 51
137.6776361007802905
  0
ARC
  5
26B9E
  8
0
 10
3163.1241505265738851
 20
134.0094123052375892
 30
0.0
 40
0.9836862685274441
 50
90.0000222848001243
 51
110.4559882026681947
  0
ARC
  5
26B9F
  8
0
 10
3163.1093205918491549
 20
133.8938606285574906
 30
0.0
 40
1.099337971599381
 50
76.2691288637045091
 51
89.2270834431895281
  0
ARC
  5
26BA0
  8
0
 10
3163.1506771254680643
 20
134.0631155672041928
 30
0.0
 40
0.9251036548606872
 50
50.9419149900465413
 51
76.2691288637045091
  0
ARC
  5
26BA1
  8
0
 10
3163.0781835696689086
 20
133.973778814820804
 30
0.0
 40
1.040153083189969
 50
24.773944546961399
 51
50.9419149900465413
  0
ARC
  5
26BA2
  8
0
 10
3163.1738806948010279
 20
134.0179442955887907
 30
0.0
 40
0.9347560744562255
 50
354.6514084662372852
 51
24.773944546961399
  0
ARC
  5
26BA3
  8
0
 10
3163.0720822414468785
 20
134.0274749358808037
 30
0.0
 40
1.036999696309443
 50
326.9959051879263257
 51
354.6514084662372852
  0
ARC
  5
26BA4
  8
0
 10
3163.113196055168828
 20
134.0007711353719912
 30
0.0
 40
0.9879748185392521
 50
311.5122493379986963
 51
326.9959051879263257
  0
ARC
  5
26BA5
  8
0
 10
3424.220850131494899
 20
-161.0006357325341071
 30
0.0
 40
392.9701918328016745
 50
131.5122493379986111
 51
131.6557083360154934
  0
ARC
  5
26BA6
  8
0
 10
3622.241761499165932
 20
-390.3853147541340149
 30
0.0
 40
695.9852582529524625
 50
131.2844731395591111
 51
131.4393830701355057
  0
ARC
  5
26BA7
  8
0
 10
3160.6511627774639237
 20
132.4473321420917955
 30
0.0
 40
1.4528391690196421
 50
300.7845349611906727
 51
311.8097323838275088
  0
ARC
  5
26BA8
  8
0
 10
3161.1218443582151849
 20
131.657271670403702
 30
0.0
 40
0.5331997291395569
 50
275.0826950551434038
 51
300.7845349611906727
  0
ARC
  5
26BA9
  8
0
 10
3161.1521006566558754
 20
131.5883925835188961
 30
0.0
 40
0.4625358723186614
 50
244.3746296323884906
 51
272.10405100025298
  0
ARC
  5
26BAA
  8
0
 10
3161.3619839426310136
 20
132.0156720916307052
 30
0.0
 40
0.9385705603972594
 50
227.0214848470604068
 51
244.1031331835170874
  0
ARC
  5
26BAB
  8
0
 10
3162.9668534818079024
 20
133.8514238956423128
 30
0.0
 40
3.3765878144421322
 50
224.7933535343051119
 51
228.333922532140889
  0
ARC
  5
26BAC
  8
0
 10
3162.5597606959399855
 20
133.4914426329681021
 30
0.0
 40
2.834241392637511
 50
220.0151689572172984
 51
225.4272536863338132
  0
ARC
  5
26BAD
  8
0
 10
3161.0977605320108523
 20
132.2606123899792863
 30
0.0
 40
0.9231247908585165
 50
207.268629146215801
 51
219.8532284609970873
  0
ARC
  5
26BAE
  8
0
 10
3160.8689825519600163
 20
132.1145946263189899
 30
0.0
 40
0.6533488310754068
 50
192.9422930059309067
 51
205.0780785770415093
  0
ARC
  5
26BAF
  8
0
 10
3158.814979259338088
 20
135.1962174789796904
 30
0.0
 40
0.9690193631106978
 50
192.0996645382014947
 51
210.4494402216541005
  0
ARC
  5
26BB0
  8
0
 10
3158.8890070996458235
 20
135.2445476914560913
 30
0.0
 40
1.057337858500897
 50
210.6742525022042969
 51
223.6856926757074859
  0
ARC
  5
26BB1
  8
0
 10
3158.2535184253811167
 20
134.6385374885117017
 30
0.0
 40
0.1792198118782706
 50
223.9105049562568013
 51
242.7759531570789022
  0
ARC
  5
26BB2
  8
0
 10
3141.7999299568459719
 20
64.80392913577748
 30
0.0
 40
71.5703408083566615
 50
75.9894005877658714
 51
76.689456554791974
  0
ARC
  5
26BB3
  8
0
 10
3158.9709472172071401
 20
137.3383083257423039
 30
0.0
 40
2.9687933830914202
 50
254.3789734931552005
 51
256.4918341946581108
  0
LINE
  5
26BB4
  8
0
 10
3158.2916756163049286
 20
134.4482194425488046
 30
0.0
 11
3158.3066086494309275
 21
134.4239546917125097
 31
0.0
  0
LINE
  5
26BB5
  8
0
 10
3158.3066086494309275
 20
134.4239546917125097
 30
0.0
 11
3158.2928538870310149
 21
134.3670993187126044
 31
0.0
  0
ARC
  5
26BB6
  8
0
 10
3158.3311200677521811
 20
134.3578417552492112
 30
0.0
 40
0.0393700783375642
 50
166.3999999250011967
 51
211.4000003689862126
  0
LINE
  5
26BB7
  8
0
 10
3158.2975157061309801
 20
134.3373295650125101
 30
0.0
 11
3158.3035235876182014
 21
134.3274870752659069
 31
0.0
  0
LINE
  5
26BB8
  8
0
 10
3158.3035235876182014
 20
134.3274870752659069
 30
0.0
 11
3158.9540486666310244
 21
134.1701084956125101
 31
0.0
  0
LINE
  5
26BB9
  8
0
 10
3158.9540486666310244
 20
134.1701084956125101
 30
0.0
 11
3158.9638911564388764
 21
134.1761163770493965
 31
0.0
  0
ARC
  5
26BBA
  8
0
 10
3158.9433789662161871
 20
134.2097207391452116
 30
0.0
 40
0.0393700787352388
 50
301.3999999927618205
 51
346.3999999557880756
  0
LINE
  5
26BBB
  8
0
 10
3158.9816451473298002
 20
134.2004631756088884
 30
0.0
 11
3158.9953999096719599
 21
134.2573185485026102
 31
0.0
  0
LINE
  5
26BBC
  8
0
 10
3158.9953999096719599
 20
134.2573185485026102
 30
0.0
 11
3159.0193410335677981
 21
134.2719474290551034
 31
0.0
  0
LINE
  5
26BBD
  8
0
 10
3158.9953999649678735
 20
134.2573185822907078
 30
0.0
 11
3158.3066086604121665
 21
134.4239547371066124
 31
0.0
  0
LINE
  5
26BBE
  8
0
 10
3158.5790400916530416
 20
134.2608326180051961
 30
0.0
 11
3158.5656756405310261
 21
134.2055905983125115
 31
0.0
  0
ARC
  5
26BBF
  8
0
 10
3158.7405592888321735
 20
134.727206898251012
 30
0.0
 40
0.5501500397049649
 50
243.9834841464636952
 51
251.4651094495731911
  0
ARC
  5
26BC0
  8
0
 10
3158.7942108965371517
 20
134.8371285651633116
 30
0.0
 40
0.6724663013634943
 50
236.0534972499513913
 51
243.9834841464636952
  0
ARC
  5
26BC1
  8
0
 10
3158.68270693750992
 20
134.6714837385094938
 30
0.0
 40
0.47278820673152
 50
230.0088540671054034
 51
236.0534972499513913
  0
ARC
  5
26BC2
  8
0
 10
3159.1595194122810426
 20
134.3623896766088137
 30
0.0
 40
0.1216387191306987
 50
254.5958531523133104
 51
277.9751936568766268
  0
ARC
  5
26BC3
  8
0
 10
3158.938149810962841
 20
135.5934689795942916
 30
0.0
 40
1.3723796423739281
 50
279.9972470883861888
 51
285.1967102313453779
  0
ARC
  5
26BC4
  8
0
 10
3159.7983607760961604
 20
130.7425243243704074
 30
0.0
 40
3.5618891532627912
 50
92.395462592872363
 51
98.0770805248745035
  0
ARC
  5
26BC5
  8
0
 10
3160.0211874290562264
 20
125.4159593581455994
 30
0.0
 40
8.8931128455010775
 50
84.5708034518455491
 51
92.395462592872363
  0
ARC
  5
26BC6
  8
0
 10
3160.650427870320982
 20
132.0366169538023087
 30
0.0
 40
2.2426203425467852
 50
63.3003964978008185
 51
84.5708034518455491
  0
ARC
  5
26BC7
  8
0
 10
3161.4525334037380162
 20
133.6314537846278938
 30
0.0
 40
0.4574374937339134
 50
46.7412649745927382
 51
63.3003964978008185
  0
ARC
  5
26BC8
  8
0
 10
3165.8406191533308629
 20
134.8261644823124925
 30
0.0
 40
0.0590551181000052
 50
271.0000000002103206
 51
359.9999999999935199
  0
LINE
  5
26BC9
  8
0
 10
3165.8416498072538161
 20
134.767118358593109
 30
0.0
 11
3165.3718960276478356
 21
134.7589187758680964
 31
0.0
  0
ARC
  5
26BCA
  8
0
 10
3165.8406191533308629
 20
133.1927314586125135
 30
0.0
 40
0.0590551180999945
 50
0.0000000000065138
 51
88.9999999998157847
  0
LINE
  5
26BCB
  8
0
 10
3165.8416498072538161
 20
133.2517775823320108
 30
0.0
 11
3165.28943805093013
 21
133.2614164743945935
 31
0.0
  0
LINE
  5
26BCC
  8
0
 10
3165.28943805093013
 20
133.2614164743945935
 30
0.0
 11
3165.28943805093013
 21
133.9084961479597951
 31
0.0
  0
LINE
  5
26BCD
  8
0
 10
3165.2894380509310395
 20
133.3696841910125102
 30
0.0
 11
3165.2311924403679768
 21
133.3696841910125102
 31
0.0
  0
LINE
  5
26BCE
  8
0
 10
3162.6921417974299402
 20
132.3051879769124923
 30
0.0
 11
3162.7295968686271408
 21
131.406266266901099
 31
0.0
  0
ARC
  5
26BCF
  8
0
 10
3162.7492648425368316
 20
131.4070857658128091
 30
0.0
 40
0.0196850394002635
 50
182.3859440269442871
 51
269.9999999816832883
  0
LINE
  5
26BD0
  8
0
 10
3162.7492648425309199
 20
131.3874007264124941
 30
0.0
 11
3163.4989025979311918
 21
131.3874007261728991
 31
0.0
  0
ARC
  5
26BD1
  8
0
 10
3163.4989025979371036
 20
131.4070857655497093
 30
0.0
 40
0.0196850393767356
 50
269.9999999816832883
 51
357.6140567341677183
  0
LINE
  5
26BD2
  8
0
 10
3163.5185705718340614
 20
131.4062662669001895
 30
0.0
 11
3163.5764978648999204
 21
132.7965217464847001
 31
0.0
  0
ARC
  5
26BD3
  8
0
 10
3163.5686306759957915
 20
132.7968495459172118
 30
0.0
 40
0.0078740150953867
 50
357.6140567341710153
 51
89.999869494674229
  0
LINE
  5
26BD4
  8
0
 10
3163.5686306939310271
 20
132.8047235610125085
 30
0.0
 11
3163.2534535133409008
 21
132.8047242789066047
 31
0.0
  0
LINE
  5
26BD5
  8
0
 10
3163.5366034053308795
 20
132.8047236339625954
 30
0.0
 11
3163.5366034053308795
 21
132.8165345847125138
 31
0.0
  0
LINE
  5
26BD6
  8
0
 10
3163.5366034053308795
 20
132.8165345847125138
 30
0.0
 11
3163.2667505356548645
 21
132.8165345847125991
 31
0.0
  0
ARC
  5
26BD7
  8
0
 10
3163.5040049801309578
 20
132.8362196240125002
 30
0.0
 40
0.0196850393999881
 50
179.9999999999689919
 51
270.0
  0
LINE
  5
26BD8
  8
0
 10
3163.4843199407309839
 20
132.8362196240125002
 30
0.0
 11
3163.4843199407309839
 21
132.8755897028125048
 31
0.0
  0
ARC
  5
26BD9
  8
0
 10
3163.5040049801309578
 20
132.8755897028125048
 30
0.0
 40
0.019685039400013
 50
90.0057752171870789
 51
179.9999999999756142
  0
LINE
  5
26BDA
  8
0
 10
3163.3554337279629181
 20
132.8952747421124911
 30
0.0
 11
3163.5866821454310411
 21
132.8952747421126048
 31
0.0
  0
LINE
  5
26BDB
  8
0
 10
3163.5866821454310411
 20
132.8952747421126048
 30
0.0
 11
3163.5866821454310411
 21
133.1003709765917051
 31
0.0
  0
LINE
  5
26BDC
  8
0
 10
3164.6707427994851969
 20
133.3204715925124901
 30
0.0
 11
3163.8894474178300698
 21
133.3204792909124876
 31
0.0
  0
ARC
  5
26BDD
  8
0
 10
3163.889445865855123
 20
133.1629723007640962
 30
0.0
 40
0.1575069901560517
 50
89.9994354429319969
 51
121.6747658297710046
  0
LINE
  5
26BDE
  8
0
 10
3162.76975301163111
 20
137.0606290728125032
 30
0.0
 11
3162.7697530115278823
 21
137.5330700177410108
 31
0.0
  0
LINE
  5
26BDF
  8
0
 10
3162.7697530115278823
 20
137.5330700177410108
 30
0.0
 11
3163.0453435627309773
 21
137.5330700177125038
 31
0.0
  0
LINE
  5
26BE0
  8
0
 10
3163.0453435627309773
 20
137.5330700177125038
 30
0.0
 11
3163.0453435627309773
 21
137.0606290728125032
 31
0.0
  0
ARC
  5
26BE1
  8
0
 10
3162.9075482871789973
 20
137.0606290732523007
 30
0.0
 40
0.4921259838641676
 50
73.73979528356179
 51
106.2602047288420977
  0
LINE
  5
26BE2
  8
0
 10
3162.5433750588299517
 20
137.7102353721124928
 30
0.0
 11
3162.5433750588299517
 21
137.6787393091123874
 31
0.0
  0
LINE
  5
26BE3
  8
0
 10
3163.2717215155298618
 20
137.7102353721124928
 30
0.0
 11
3163.2717215155298618
 21
137.6787393091125011
 31
0.0
  0
LINE
  5
26BE4
  8
0
 10
3158.5484271467307735
 20
134.2682386687125984
 30
0.0
 11
3158.5471277463298065
 21
134.2628675911126095
 31
0.0
  0
LINE
  5
26BE5
  8
0
 10
3158.5471277463298065
 20
134.2628675911126095
 30
0.0
 11
3158.546293400409013
 21
134.2629885051250938
 31
0.0
  0
LINE
  5
26BE6
  8
0
 10
3158.546293400409013
 20
134.2629885051250938
 30
0.0
 11
3158.5347127508039193
 21
134.2715565084650109
 31
0.0
  0
LINE
  5
26BE7
  8
0
 10
3158.5279299733301741
 20
134.2595829442126103
 30
0.0
 11
3158.5262846348778112
 21
134.2527819300030103
 31
0.0
  0
LINE
  5
26BE8
  8
0
 10
3158.5262846348778112
 20
134.2527819300030103
 30
0.0
 11
3158.5414427413438716
 21
134.2429170742485098
 31
0.0
  0
LINE
  5
26BE9
  8
0
 10
3158.5414427413438716
 20
134.2429170742485098
 30
0.0
 11
3158.542253742110006
 21
134.2427208725169976
 31
0.0
  0
LINE
  5
26BEA
  8
0
 10
3158.542253742110006
 20
134.2427208725169976
 30
0.0
 11
3158.5454540538121364
 21
134.2559493754552875
 31
0.0
  0
LINE
  5
26BEB
  8
0
 10
3158.5454540538121364
 20
134.2559493754552875
 30
0.0
 11
3158.5447132511339987
 21
134.2564569506247949
 31
0.0
  0
LINE
  5
26BEC
  8
0
 10
3158.5447132511339987
 20
134.2564569506247949
 30
0.0
 11
3158.5279299733301741
 21
134.2595829442126103
 31
0.0
  0
LINE
  5
26BED
  8
0
 10
3158.541049407430819
 20
134.2377427497125097
 30
0.0
 11
3158.5388346054310205
 21
134.2285878556126022
 31
0.0
  0
LINE
  5
26BEE
  8
0
 10
3158.5388346054310205
 20
134.2285878556126022
 30
0.0
 11
3158.5380187573377953
 21
134.228785230040188
 31
0.0
  0
LINE
  5
26BEF
  8
0
 10
3158.5380187573377953
 20
134.228785230040188
 30
0.0
 11
3158.522606718165207
 21
134.2375792443901048
 31
0.0
  0
LINE
  5
26BF0
  8
0
 10
3158.522606718165207
 20
134.2375792443901048
 30
0.0
 11
3158.5237471883178841
 21
134.2422933832606873
 31
0.0
  0
LINE
  5
26BF1
  8
0
 10
3158.5237471883178841
 20
134.2422933832606873
 30
0.0
 11
3158.5403169308369797
 21
134.2382847406252893
 31
0.0
  0
LINE
  5
26BF2
  8
0
 10
3158.5403169308369797
 20
134.2382847406252893
 30
0.0
 11
3158.541049407430819
 21
134.2377427497125097
 31
0.0
  0
LINE
  5
26BF3
  8
0
 10
3158.5380464357299388
 20
134.2253299523125065
 30
0.0
 11
3158.5372794702261672
 21
134.2257293831951017
 31
0.0
  0
LINE
  5
26BF4
  8
0
 10
3158.5372794702261672
 20
134.2257293831951017
 30
0.0
 11
3158.520955849218808
 21
134.2307553701641041
 31
0.0
  0
LINE
  5
26BF5
  8
0
 10
3158.520955849218808
 20
134.2307553701641041
 30
0.0
 11
3158.520284488634843
 21
134.2279802982315005
 31
0.0
  0
LINE
  5
26BF6
  8
0
 10
3158.520284488634843
 20
134.2279802982315005
 30
0.0
 11
3158.5359424659309298
 21
134.2202028698125105
 31
0.0
  0
LINE
  5
26BF7
  8
0
 10
3158.5359424659309298
 20
134.2202028698125105
 30
0.0
 11
3158.5367426560310378
 21
134.2199407729125085
 31
0.0
  0
LINE
  5
26BF8
  8
0
 10
3158.5367426560310378
 20
134.2199407729125085
 30
0.0
 11
3158.5380464462659802
 21
134.2253299468258092
 31
0.0
  0
LINE
  5
26BF9
  8
0
 10
3158.5372794703189356
 20
134.2257293831665947
 30
0.0
 11
3158.5359424631637921
 21
134.2202028711867001
 31
0.0
  0
LINE
  5
26BFA
  8
0
 10
3158.5192488739139662
 20
134.2236995799441956
 30
0.0
 11
3158.5194705967360278
 21
134.2246160722777972
 31
0.0
  0
LINE
  5
26BFB
  8
0
 10
3158.5194705967360278
 20
134.2246160722777972
 30
0.0
 11
3158.5355755607320134
 21
134.2186862675924885
 31
0.0
  0
LINE
  5
26BFC
  8
0
 10
3158.5355755607320134
 20
134.2186862675924885
 30
0.0
 11
3158.5363540198309238
 21
134.218334343312506
 31
0.0
  0
LINE
  5
26BFD
  8
0
 10
3158.5363540198309238
 20
134.218334343312506
 30
0.0
 11
3158.5359234026309423
 21
134.2165543853124916
 31
0.0
  0
LINE
  5
26BFE
  8
0
 10
3158.5359234026309423
 20
134.2165543853124916
 30
0.0
 11
3158.5192488633460925
 21
134.2236995362588914
 31
0.0
  0
LINE
  5
26BFF
  8
0
 10
3158.5351409218028493
 20
134.2168896835497947
 30
0.0
 11
3158.5355755611299173
 21
134.2186862674126075
 31
0.0
  0
LINE
  5
26C00
  8
0
 10
3158.5380187573377953
 20
134.228785230040188
 30
0.0
 11
3158.5403169308369797
 21
134.2382847406252893
 31
0.0
  0
LINE
  5
26C01
  8
0
 10
3158.5414378569289511
 20
134.242918093708397
 30
0.0
 11
3158.5447132511330892
 21
134.2564569506253065
 31
0.0
  0
LINE
  5
26C02
  8
0
 10
3158.5462934376469093
 20
134.2629884997284933
 30
0.0
 11
3158.5476112986380031
 21
134.2684360432448898
 31
0.0
  0
LINE
  5
26C03
  8
0
 10
3158.5039832799297983
 20
134.2789907717125004
 30
0.0
 11
3158.5030000386300344
 21
134.274926539112613
 31
0.0
  0
LINE
  5
26C04
  8
0
 10
3158.5030000386300344
 20
134.274926539112613
 30
0.0
 11
3158.5177868715281875
 21
134.2635482319016944
 31
0.0
  0
LINE
  5
26C05
  8
0
 10
3158.5177868715281875
 20
134.2635482319016944
 30
0.0
 11
3158.534483791177081
 21
134.2600652766348048
 31
0.0
  0
LINE
  5
26C06
  8
0
 10
3158.534483791177081
 20
134.2600652766348048
 30
0.0
 11
3158.5363976141288731
 21
134.2679760725725089
 31
0.0
  0
LINE
  5
26C07
  8
0
 10
3158.5363976141288731
 20
134.2679760725725089
 30
0.0
 11
3158.5302752990460249
 21
134.2726290940169065
 31
0.0
  0
LINE
  5
26C08
  8
0
 10
3158.5177868715281875
 20
134.2635482319016944
 30
0.0
 11
3158.5205530224029644
 21
134.2749821291980084
 31
0.0
  0
LINE
  5
26C09
  8
0
 10
3158.4999579122941213
 20
134.2623518962512037
 30
0.0
 11
3158.4985562333308735
 21
134.2565580495125062
 31
0.0
  0
LINE
  5
26C0A
  8
0
 10
3158.4985562333308735
 20
134.2565580495125062
 30
0.0
 11
3158.5136325439070788
 21
134.24637629951701
 31
0.0
  0
LINE
  5
26C0B
  8
0
 10
3158.5136325439070788
 20
134.24637629951701
 30
0.0
 11
3158.5300957129429662
 21
134.2419271348975087
 31
0.0
  0
LINE
  5
26C0C
  8
0
 10
3158.5300957129429662
 20
134.2419271348975087
 30
0.0
 11
3158.5314802212237737
 21
134.2476500061848981
 31
0.0
  0
LINE
  5
26C0D
  8
0
 10
3158.5314802212237737
 20
134.2476500061848981
 30
0.0
 11
3158.5164186915590108
 21
134.2578928535799889
 31
0.0
  0
LINE
  5
26C0E
  8
0
 10
3158.5164186915590108
 20
134.2578928535799889
 30
0.0
 11
3158.4999579122941213
 21
134.2623518962512037
 31
0.0
  0
LINE
  5
26C0F
  8
0
 10
3158.5063359123309965
 20
134.2621074849126046
 30
0.0
 11
3158.50799456791583
 21
134.2689635450502124
 31
0.0
  0
LINE
  5
26C10
  8
0
 10
3158.50799456791583
 20
134.2689635450502124
 30
0.0
 11
3158.4933062218128725
 21
134.2807489485396104
 31
0.0
  0
LINE
  5
26C11
  8
0
 10
3158.4933062218128725
 20
134.2807489485396104
 30
0.0
 11
3158.4769250037629718
 21
134.285536857666699
 31
0.0
  0
LINE
  5
26C12
  8
0
 10
3158.4769250037629718
 20
134.285536857666699
 30
0.0
 11
3158.4752516684311558
 21
134.2786201181125989
 31
0.0
  0
LINE
  5
26C13
  8
0
 10
3158.4752516684311558
 20
134.2786201181125989
 30
0.0
 11
3158.4899617503410809
 21
134.2669245599689987
 31
0.0
  0
LINE
  5
26C14
  8
0
 10
3158.4899617503410809
 20
134.2669245599689987
 30
0.0
 11
3158.5063359124010276
 21
134.2621074849751039
 31
0.0
  0
LINE
  5
26C15
  8
0
 10
3158.4802749330328879
 20
134.272775901605911
 30
0.0
 11
3158.4656648651280193
 21
134.2848848681830134
 31
0.0
  0
LINE
  5
26C16
  8
0
 10
3158.4656648651280193
 20
134.2848848681830134
 30
0.0
 11
3158.4496254256300745
 21
134.291085520506897
 31
0.0
  0
LINE
  5
26C17
  8
0
 10
3158.4496254256300745
 20
134.291085520506897
 30
0.0
 11
3158.4481818640301753
 21
134.2851185521126069
 31
0.0
  0
LINE
  5
26C18
  8
0
 10
3158.4481818640301753
 20
134.2851185521126069
 30
0.0
 11
3158.4628058469779717
 21
134.2730671037330978
 31
0.0
  0
LINE
  5
26C19
  8
0
 10
3158.4628058469779717
 20
134.2730671037330978
 30
0.0
 11
3158.4788592054310357
 21
134.2669239854126033
 31
0.0
  0
LINE
  5
26C1A
  8
0
 10
3158.4788592054310357
 20
134.2669239854126033
 30
0.0
 11
3158.4802749330328879
 21
134.272775901605911
 31
0.0
  0
LINE
  5
26C1B
  8
0
 10
3158.4726536698308337
 20
134.2678812790124994
 30
0.0
 11
3158.4714867606699045
 21
134.2630578550370899
 31
0.0
  0
LINE
  5
26C1C
  8
0
 10
3158.4714867606699045
 20
134.2630578550370899
 30
0.0
 11
3158.4864791460681772
 21
134.2525291997924057
 31
0.0
  0
LINE
  5
26C1D
  8
0
 10
3158.4864791460681772
 20
134.2525291997924057
 30
0.0
 11
3158.502629429011904
 21
134.246786718830009
 31
0.0
  0
LINE
  5
26C1E
  8
0
 10
3158.502629429011904
 20
134.246786718830009
 30
0.0
 11
3158.5037785854260619
 21
134.2515367622951885
 31
0.0
  0
LINE
  5
26C1F
  8
0
 10
3158.5037785854260619
 20
134.2515367622951885
 30
0.0
 11
3158.4887950756087776
 21
134.2621021046603005
 31
0.0
  0
LINE
  5
26C20
  8
0
 10
3158.4887950756087776
 20
134.2621021046603005
 30
0.0
 11
3158.472653611370788
 21
134.267881037371609
 31
0.0
  0
LINE
  5
26C21
  8
0
 10
3158.4691121165028562
 20
134.2532422521971966
 30
0.0
 11
3158.4697984387298675
 21
134.2560791685125139
 31
0.0
  0
LINE
  5
26C22
  8
0
 10
3158.4697984387298675
 20
134.2560791685125139
 30
0.0
 11
3158.485720626730199
 21
134.2493938564126097
 31
0.0
  0
LINE
  5
26C23
  8
0
 10
3158.485720626730199
 20
134.2493938564126097
 30
0.0
 11
3158.500966249232988
 21
134.2399119578217892
 31
0.0
  0
LINE
  5
26C24
  8
0
 10
3158.500966249232988
 20
134.2399119578217892
 30
0.0
 11
3158.5002899688470279
 21
134.2371165496786887
 31
0.0
  0
LINE
  5
26C25
  8
0
 10
3158.5002899688470279
 20
134.2371165496786887
 30
0.0
 11
3158.4843581217310202
 21
134.2437619358125005
 31
0.0
  0
LINE
  5
26C26
  8
0
 10
3158.4843581217310202
 20
134.2437619358125005
 30
0.0
 11
3158.4691121165028562
 21
134.2532422521971966
 31
0.0
  0
LINE
  5
26C27
  8
0
 10
3158.4955374979308544
 20
134.2440800932126024
 30
0.0
 11
3158.4964490135362212
 21
134.2478478471159917
 31
0.0
  0
LINE
  5
26C28
  8
0
 10
3158.4964490135362212
 20
134.2478478471159917
 30
0.0
 11
3158.5126843925309004
 21
134.2424571113124898
 31
0.0
  0
LINE
  5
26C29
  8
0
 10
3158.5126843925309004
 20
134.2424571113124898
 30
0.0
 11
3158.5280136355590912
 21
134.2333208586071009
 31
0.0
  0
LINE
  5
26C2A
  8
0
 10
3158.5280136355590912
 20
134.2333208586071009
 30
0.0
 11
3158.5271127540218004
 21
134.2295970605790956
 31
0.0
  0
LINE
  5
26C2B
  8
0
 10
3158.5271127540218004
 20
134.2295970605790956
 30
0.0
 11
3158.5108720577482018
 21
134.2349658173870921
 31
0.0
  0
LINE
  5
26C2C
  8
0
 10
3158.5108720577482018
 20
134.2349658173870921
 30
0.0
 11
3158.4955374979308544
 21
134.2440800932126024
 31
0.0
  0
LINE
  5
26C2D
  8
0
 10
3158.4938482802099315
 20
134.2370977038295052
 30
0.0
 11
3158.4942975495278006
 21
134.2389547607025122
 31
0.0
  0
LINE
  5
26C2E
  8
0
 10
3158.4942975495278006
 20
134.2389547607025122
 30
0.0
 11
3158.5103139827401719
 21
134.2326590117793046
 31
0.0
  0
LINE
  5
26C2F
  8
0
 10
3158.5103139827401719
 20
134.2326590117793046
 30
0.0
 11
3158.5258870440179635
 21
134.2245305828600124
 31
0.0
  0
LINE
  5
26C30
  8
0
 10
3158.5258870440179635
 20
134.2245305828600124
 30
0.0
 11
3158.5254428703301528
 21
134.2226945887124998
 31
0.0
  0
LINE
  5
26C31
  8
0
 10
3158.5254428703301528
 20
134.2226945887124998
 30
0.0
 11
3158.5094205796699498
 21
134.2289661258978128
 31
0.0
  0
LINE
  5
26C32
  8
0
 10
3158.5094205796699498
 20
134.2289661258978128
 30
0.0
 11
3158.4938482802299404
 21
134.2370977039126103
 31
0.0
  0
LINE
  5
26C33
  8
0
 10
3158.4992468606301372
 20
134.2328048572124999
 30
0.0
 11
3158.4994701781211006
 21
134.2337279410425026
 31
0.0
  0
LINE
  5
26C34
  8
0
 10
3158.4994701781211006
 20
134.2337279410425026
 30
0.0
 11
3158.48398430856696
 21
134.2422167772336081
 31
0.0
  0
LINE
  5
26C35
  8
0
 10
3158.48398430856696
 20
134.2422167772336081
 30
0.0
 11
3158.468280290329858
 21
134.2498038951125068
 31
0.0
  0
LINE
  5
26C36
  8
0
 10
3158.468280290329858
 20
134.2498038951125068
 30
0.0
 11
3158.4680933983099749
 21
134.2490313760694107
 31
0.0
  0
LINE
  5
26C37
  8
0
 10
3158.4741062306297863
 20
134.2472775422124869
 30
0.0
 11
3158.4745596585498788
 21
134.2491517885111136
 31
0.0
  0
LINE
  5
26C38
  8
0
 10
3158.4745596585498788
 20
134.2491517885111136
 30
0.0
 11
3158.4594045565909255
 21
134.2590078542372112
 31
0.0
  0
LINE
  5
26C39
  8
0
 10
3158.4594045565909255
 20
134.2590078542372112
 30
0.0
 11
3158.4438015083310347
 21
134.2670123318125093
 31
0.0
  0
LINE
  5
26C3A
  8
0
 10
3158.4438015083310347
 20
134.2670123318125093
 30
0.0
 11
3158.4433398693308845
 21
134.2651041448125113
 31
0.0
  0
LINE
  5
26C3B
  8
0
 10
3158.4433398693308845
 20
134.2651041448125113
 30
0.0
 11
3158.4579663105300824
 21
134.2555535554126038
 31
0.0
  0
LINE
  5
26C3C
  8
0
 10
3158.4579663105300824
 20
134.2555535554126038
 30
0.0
 11
3158.4741062306297863
 21
134.2472775422739915
 31
0.0
  0
LINE
  5
26C3D
  8
0
 10
3158.4758112315639664
 20
134.2543251712754113
 30
0.0
 11
3158.4767314333312243
 21
134.25812882971249
 31
0.0
  0
LINE
  5
26C3E
  8
0
 10
3158.4767314333312243
 20
134.25812882971249
 30
0.0
 11
3158.4618336210960479
 21
134.2690484035329916
 31
0.0
  0
LINE
  5
26C3F
  8
0
 10
3158.4618336210960479
 20
134.2690484035329916
 30
0.0
 11
3158.4460134205301074
 21
134.2761552812125103
 31
0.0
  0
LINE
  5
26C40
  8
0
 10
3158.4460134205301074
 20
134.2761552812125103
 30
0.0
 11
3158.4450760465788335
 21
134.2722806416363994
 31
0.0
  0
LINE
  5
26C41
  8
0
 10
3158.4450760465788335
 20
134.2722806416363994
 30
0.0
 11
3158.4599762480552272
 21
134.2613709438820138
 31
0.0
  0
LINE
  5
26C42
  8
0
 10
3158.4599762480552272
 20
134.2613709438820138
 30
0.0
 11
3158.4758112315298604
 21
134.2543251713125017
 31
0.0
  0
LINE
  5
26C43
  8
0
 10
3158.4503389322890143
 20
134.2674268998923139
 30
0.0
 11
3158.4496446760808794
 21
134.2645571888139955
 31
0.0
  0
LINE
  5
26C44
  8
0
 10
3158.4496446760808794
 20
134.2645571888139955
 30
0.0
 11
3158.4341321724309637
 21
134.2729359330124908
 31
0.0
  0
LINE
  5
26C45
  8
0
 10
3158.4341321724309637
 20
134.2729359330124908
 30
0.0
 11
3158.4193340535298375
 21
134.2842675897124991
 31
0.0
  0
LINE
  5
26C46
  8
0
 10
3158.4193340535298375
 20
134.2842675897124991
 30
0.0
 11
3158.420043683107906
 21
134.2872008470170044
 31
0.0
  0
LINE
  5
26C47
  8
0
 10
3158.420043683107906
 20
134.2872008470170044
 30
0.0
 11
3158.4355358212028477
 21
134.2787379216024988
 31
0.0
  0
LINE
  5
26C48
  8
0
 10
3158.4355358212028477
 20
134.2787379216024988
 30
0.0
 11
3158.4503389322298972
 21
134.267426899912607
 31
0.0
  0
LINE
  5
26C49
  8
0
 10
3158.4520471329301472
 20
134.2744877554125082
 30
0.0
 11
3158.4532280906219057
 21
134.2793692490616024
 31
0.0
  0
LINE
  5
26C4A
  8
0
 10
3158.4532280906219057
 20
134.2793692490616024
 30
0.0
 11
3158.4387064374850524
 21
134.2918436784335938
 31
0.0
  0
LINE
  5
26C4B
  8
0
 10
3158.4387064374850524
 20
134.2918436784335938
 30
0.0
 11
3158.426190670691085
 21
134.2978101718040875
 31
0.0
  0
LINE
  5
26C4C
  8
0
 10
3158.4228084514488728
 20
134.2986290295893923
 30
0.0
 11
3158.4217904392307901
 21
134.2944210712126107
 31
0.0
  0
LINE
  5
26C4D
  8
0
 10
3158.4217904392307901
 20
134.2944210712126107
 30
0.0
 11
3158.4363176308747825
 21
134.281969535524496
 31
0.0
  0
LINE
  5
26C4E
  8
0
 10
3158.4363176308747825
 20
134.281969535524496
 30
0.0
 11
3158.4520471329578868
 21
134.2744877555269909
 31
0.0
  0
LINE
  5
26C4F
  8
0
 10
3158.4131523189989821
 20
134.3009639627144907
 30
0.0
 11
3158.4268542223248915
 21
134.2887443382913943
 31
0.0
  0
LINE
  5
26C50
  8
0
 10
3158.4268542223248915
 20
134.2887443382913943
 30
0.0
 11
3158.4259035311429216
 21
134.284814652064199
 31
0.0
  0
LINE
  5
26C51
  8
0
 10
3158.4259035311429216
 20
134.284814652064199
 30
0.0
 11
3158.4105061075201775
 21
134.293669079802612
 31
0.0
  0
LINE
  5
26C52
  8
0
 10
3158.4105061075201775
 20
134.293669079802612
 30
0.0
 11
3158.3982278033349758
 21
134.3045757141530032
 31
0.0
  0
LINE
  5
26C53
  8
0
 10
3158.3967809752612084
 20
134.304924810784911
 30
0.0
 11
3158.4011643253297734
 21
134.3009466256125108
 31
0.0
  0
LINE
  5
26C54
  8
0
 10
3158.4011643253297734
 20
134.3009466256125108
 30
0.0
 11
3158.4004429150359101
 21
134.2979646729365868
 31
0.0
  0
LINE
  5
26C55
  8
0
 10
3158.4004429150359101
 20
134.2979646729365868
 30
0.0
 11
3158.3866041596229479
 21
134.3073868731619029
 31
0.0
  0
LINE
  5
26C56
  8
0
 10
3158.3826086245321676
 20
134.3083532435537109
 30
0.0
 11
3158.3849900752197755
 21
134.3065900377673927
 31
0.0
  0
LINE
  5
26C57
  8
0
 10
3158.3849900752197755
 20
134.3065900377673927
 30
0.0
 11
3158.3995690823221594
 21
134.2943526816524979
 31
0.0
  0
LINE
  5
26C58
  8
0
 10
3158.3995690823221594
 20
134.2943526816524979
 30
0.0
 11
3158.399331167830951
 21
134.2933692610126002
 31
0.0
  0
LINE
  5
26C59
  8
0
 10
3158.399331167830951
 20
134.2933692610126002
 30
0.0
 11
3158.3895630488450479
 21
134.3005452679205121
 31
0.0
  0
LINE
  5
26C5A
  8
0
 10
3158.3942816636540556
 20
134.2991050159077986
 30
0.0
 11
3158.3947618391139258
 21
134.3010898234446131
 31
0.0
  0
LINE
  5
26C5B
  8
0
 10
3158.3947618391139258
 20
134.3010898234446131
 30
0.0
 11
3158.4099135614060287
 21
134.2912197874996139
 31
0.0
  0
LINE
  5
26C5C
  8
0
 10
3158.4099135614060287
 20
134.2912197874996139
 30
0.0
 11
3158.4246111977308829
 21
134.2794727857126134
 31
0.0
  0
LINE
  5
26C5D
  8
0
 10
3158.4246111977308829
 20
134.2794727857126134
 30
0.0
 11
3158.4241432001308567
 21
134.2775383155124871
 31
0.0
  0
LINE
  5
26C5E
  8
0
 10
3158.4241432001308567
 20
134.2775383155124871
 30
0.0
 11
3158.408965617928061
 21
134.287301459103702
 31
0.0
  0
LINE
  5
26C5F
  8
0
 10
3158.408965617928061
 20
134.287301459103702
 30
0.0
 11
3158.3942816636549651
 21
134.2991050159068038
 31
0.0
  0
LINE
  5
26C60
  8
0
 10
3158.4182402064161579
 20
134.279746167575297
 30
0.0
 11
3158.4184743159698883
 21
134.2807138604634076
 31
0.0
  0
LINE
  5
26C61
  8
0
 10
3158.4184743159698883
 20
134.2807138604634076
 30
0.0
 11
3158.4337472234828965
 21
134.2713447446928967
 31
0.0
  0
LINE
  5
26C62
  8
0
 10
3158.4337472234828965
 20
134.2713447446928967
 30
0.0
 11
3158.448803345117085
 21
134.2610795433566011
 31
0.0
  0
LINE
  5
26C63
  8
0
 10
3158.448803345117085
 20
134.2610795433566011
 30
0.0
 11
3158.4486068710889413
 21
134.2602674171702972
 31
0.0
  0
LINE
  5
26C64
  8
0
 10
3158.4182402064161579
 20
134.279746167575297
 30
0.0
 11
3158.4199541401949318
 21
134.2784311454431077
 31
0.0
  0
LINE
  5
26C65
  8
0
 10
3158.3849900752197755
 20
134.3065900377673927
 30
0.0
 11
3158.3838205107840622
 21
134.3051565727907075
 31
0.0
  0
LINE
  5
26C66
  8
0
 10
3158.4105061075201775
 20
134.293669079802612
 30
0.0
 11
3158.4131523189989821
 21
134.3009639627144907
 31
0.0
  0
LINE
  5
26C67
  8
0
 10
3158.408965617928061
 20
134.287301459103702
 30
0.0
 11
3158.4099135614060287
 21
134.2912197874996139
 31
0.0
  0
LINE
  5
26C68
  8
0
 10
3158.4363176308747825
 20
134.281969535524496
 30
0.0
 11
3158.4387064374850524
 21
134.2918436784335938
 31
0.0
  0
LINE
  5
26C69
  8
0
 10
3158.4355358212028477
 20
134.2787379216024988
 30
0.0
 11
3158.4341321724309637
 21
134.2729359330124908
 31
0.0
  0
LINE
  5
26C6A
  8
0
 10
3158.4618336210960479
 20
134.2690484035329916
 30
0.0
 11
3158.4599762480552272
 21
134.2613709438820138
 31
0.0
  0
LINE
  5
26C6B
  8
0
 10
3158.4628058469779717
 20
134.2730671037330978
 30
0.0
 11
3158.4656648651280193
 21
134.2848848681830134
 31
0.0
  0
LINE
  5
26C6C
  8
0
 10
3158.4899617503410809
 20
134.2669245599689987
 30
0.0
 11
3158.4933062218128725
 21
134.2807489485396104
 31
0.0
  0
LINE
  5
26C6D
  8
0
 10
3158.4887950756087776
 20
134.2621021046603005
 30
0.0
 11
3158.4864791460681772
 21
134.2525291997924057
 31
0.0
  0
LINE
  5
26C6E
  8
0
 10
3158.485720626730199
 20
134.2493938564126097
 30
0.0
 11
3158.485720626730199
 21
134.2437619358125005
 31
0.0
  0
LINE
  5
26C6F
  8
0
 10
3158.4594045565909255
 20
134.2590078542372112
 30
0.0
 11
3158.4579663105300824
 21
134.2555535554126038
 31
0.0
  0
LINE
  5
26C70
  8
0
 10
3158.5164186915590108
 20
134.2578928535799889
 30
0.0
 11
3158.5136325439070788
 21
134.24637629951701
 31
0.0
  0
LINE
  5
26C71
  8
0
 10
3158.5126843925309004
 20
134.2424571113124898
 30
0.0
 11
3158.5108720577482018
 21
134.2349658173870921
 31
0.0
  0
LINE
  5
26C72
  8
0
 10
3158.5103139827401719
 20
134.2326590117793046
 30
0.0
 11
3158.5094205796699498
 21
134.2289661258978128
 31
0.0
  0
LINE
  5
26C73
  8
0
 10
3158.678532376055955
 20
134.2367629011600911
 30
0.0
 11
3158.6651679249339395
 21
134.1815208814674065
 31
0.0
  0
ARC
  5
26C74
  8
0
 10
3158.7480532749491431
 20
134.7253939121991948
 30
0.0
 40
0.5501500397049647
 50
261.3348904646522897
 51
268.8165157677743764
  0
ARC
  5
26C75
  8
0
 10
3158.7505796228701911
 20
134.8476840811919999
 30
0.0
 40
0.6724663013634942
 50
268.8165157677743764
 51
276.7465026642885277
  0
ARC
  5
26C76
  8
0
 10
3158.7740371625268381
 20
134.6493886316499982
 30
0.0
 40
0.4727882067315199
 50
276.7465026642885277
 51
282.7911458471293145
  0
LINE
  5
26C77
  8
0
 10
3158.7091453209191059
 20
134.229356850209598
 30
0.0
 11
3158.7078459204649334
 21
134.2239857726225978
 31
0.0
  0
LINE
  5
26C78
  8
0
 10
3158.7078459204649334
 20
134.2239857726225978
 30
0.0
 11
3158.7086432709329529
 21
134.2237119377329009
 31
0.0
  0
LINE
  5
26C79
  8
0
 10
3158.7086432709329529
 20
134.2237119377329009
 30
0.0
 11
3158.7228597068738054
 21
134.226038969240193
 31
0.0
  0
LINE
  5
26C7A
  8
0
 10
3158.7234193287958988
 20
134.2122890916234894
 30
0.0
 11
3158.7217739902471294
 21
134.2054880774371952
 31
0.0
  0
LINE
  5
26C7B
  8
0
 10
3158.7217739902471294
 20
134.2054880774371952
 30
0.0
 11
3158.7037829170490113
 21
134.2036428522798133
 31
0.0
  0
LINE
  5
26C7C
  8
0
 10
3158.7037829170490113
 20
134.2036428522798133
 30
0.0
 11
3158.7029719162860602
 21
134.2038390540170951
 31
0.0
  0
LINE
  5
26C7D
  8
0
 10
3158.7029719162860602
 20
134.2038390540170951
 30
0.0
 11
3158.7061722279481728
 21
134.2170675569649916
 31
0.0
  0
LINE
  5
26C7E
  8
0
 10
3158.7061722279481728
 20
134.2170675569649916
 30
0.0
 11
3158.7070631215378853
 21
134.217180383261308
 31
0.0
  0
LINE
  5
26C7F
  8
0
 10
3158.7070631215378853
 20
134.217180383261308
 30
0.0
 11
3158.7234193287958988
 21
134.2122890916234894
 31
0.0
  0
LINE
  5
26C80
  8
0
 10
3158.7017675816459814
 20
134.198860931203086
 30
0.0
 11
3158.6995527796789247
 21
134.1897060370951067
 31
0.0
  0
LINE
  5
26C81
  8
0
 10
3158.6995527796789247
 20
134.1897060370951067
 30
0.0
 11
3158.7003686277721499
 21
134.1895086626697093
 31
0.0
  0
LINE
  5
26C82
  8
0
 10
3158.7003686277721499
 20
134.1895086626697093
 30
0.0
 11
3158.71809607348996
 21
134.1902853918346921
 31
0.0
  0
LINE
  5
26C83
  8
0
 10
3158.71809607348996
 20
134.1902853918346921
 30
0.0
 11
3158.7192365437749686
 21
134.194999530673698
 31
0.0
  0
LINE
  5
26C84
  8
0
 10
3158.7192365437749686
 20
134.194999530673698
 30
0.0
 11
3158.7026668012440496
 21
134.1990081732614044
 31
0.0
  0
LINE
  5
26C85
  8
0
 10
3158.7026668012440496
 20
134.1990081732614044
 30
0.0
 11
3158.7017675816459814
 21
134.198860931203086
 31
0.0
  0
LINE
  5
26C86
  8
0
 10
3158.6987646098650657
 20
134.1864481338226085
 30
0.0
 11
3158.6996293405709366
 21
134.1864528158461098
 31
0.0
  0
LINE
  5
26C87
  8
0
 10
3158.6996293405709366
 20
134.1864528158461098
 30
0.0
 11
3158.7164452045872167
 21
134.1834615175984879
 31
0.0
  0
LINE
  5
26C88
  8
0
 10
3158.7164452045872167
 20
134.1834615175984879
 30
0.0
 11
3158.7157738440510002
 21
134.1806864456544872
 31
0.0
  0
LINE
  5
26C89
  8
0
 10
3158.7157738440510002
 20
134.1806864456544872
 30
0.0
 11
3158.6982923362629663
 21
134.1809263024663892
 31
0.0
  0
LINE
  5
26C8A
  8
0
 10
3158.6982923362629663
 20
134.1809263024663892
 30
0.0
 11
3158.6974608301370608
 21
134.1810589544292895
 31
0.0
  0
LINE
  5
26C8B
  8
0
 10
3158.6974608301370608
 20
134.1810589544292895
 30
0.0
 11
3158.6987645979870649
 21
134.1864481337582049
 31
0.0
  0
LINE
  5
26C8C
  8
0
 10
3158.6996293404758944
 20
134.1864528158629923
 30
0.0
 11
3158.698292339352065
 21
134.1809263024240124
 31
0.0
  0
LINE
  5
26C8D
  8
0
 10
3158.7147382292778275
 20
134.1764057273796027
 30
0.0
 11
3158.7149599521180789
 21
134.1773222197089126
 31
0.0
  0
LINE
  5
26C8E
  8
0
 10
3158.7149599521180789
 20
134.1773222197089126
 30
0.0
 11
3158.6979254320208383
 21
134.1794097000152135
 31
0.0
  0
LINE
  5
26C8F
  8
0
 10
3158.6979254320208383
 20
134.1794097000152135
 30
0.0
 11
3158.6970721938942006
 21
134.1794525248398031
 31
0.0
  0
LINE
  5
26C90
  8
0
 10
3158.6970721938942006
 20
134.1794525248398031
 30
0.0
 11
3158.6966415767678882
 21
134.1776725668219967
 31
0.0
  0
LINE
  5
26C91
  8
0
 10
3158.6966415767678882
 20
134.1776725668219967
 30
0.0
 11
3158.7147382187090443
 21
134.1764056836942984
 31
0.0
  0
LINE
  5
26C92
  8
0
 10
3158.6974907921571685
 20
134.1776131161983017
 30
0.0
 11
3158.6979254315838261
 21
134.1794097000370982
 31
0.0
  0
LINE
  5
26C93
  8
0
 10
3158.7003686277721499
 20
134.1895086626697093
 30
0.0
 11
3158.7026668012440496
 21
134.1990081732614044
 31
0.0
  0
LINE
  5
26C94
  8
0
 10
3158.7037877273210142
 20
134.203641526348207
 30
0.0
 11
3158.707063121540159
 21
134.2171803832613932
 31
0.0
  0
LINE
  5
26C95
  8
0
 10
3158.7086432353457894
 20
134.2237119499546054
 30
0.0
 11
3158.7099611690600796
 21
134.2291594758773954
 31
0.0
  0
LINE
  5
26C96
  8
0
 10
3158.7535891877200811
 20
134.2186047472137886
 30
0.0
 11
3158.752605946328913
 21
134.2145405146360133
 31
0.0
  0
LINE
  5
26C97
  8
0
 10
3158.752605946328913
 20
134.2145405146360133
 30
0.0
 11
3158.7342532943957849
 21
134.2111794925949084
 31
0.0
  0
LINE
  5
26C98
  8
0
 10
3158.7342532943957849
 20
134.2111794925949084
 30
0.0
 11
3158.7178107290510525
 21
134.2157138225373956
 31
0.0
  0
LINE
  5
26C99
  8
0
 10
3158.7178107290510525
 20
134.2157138225373956
 30
0.0
 11
3158.7197245520178512
 21
134.2236246184716038
 31
0.0
  0
LINE
  5
26C9A
  8
0
 10
3158.7197245520178512
 20
134.2236246184716038
 30
0.0
 11
3158.7272967257540586
 21
134.2249645943853977
 31
0.0
  0
LINE
  5
26C9B
  8
0
 10
3158.7342532943957849
 20
134.2111794925949084
 30
0.0
 11
3158.7370194452869328
 21
134.2226133898874991
 31
0.0
  0
LINE
  5
26C9C
  8
0
 10
3158.7495638200980466
 20
134.2019658717489108
 30
0.0
 11
3158.7481621409751824
 21
134.1961720250488952
 31
0.0
  0
LINE
  5
26C9D
  8
0
 10
3158.7481621409751824
 20
134.1961720250488952
 30
0.0
 11
3158.7300989666791793
 21
134.1940075602335014
 31
0.0
  0
LINE
  5
26C9E
  8
0
 10
3158.7300989666791793
 20
134.1940075602335014
 30
0.0
 11
3158.7134226506627783
 21
134.1975756808375024
 31
0.0
  0
LINE
  5
26C9F
  8
0
 10
3158.7134226506627783
 20
134.1975756808375024
 30
0.0
 11
3158.7148071589399478
 21
134.2032985521256876
 31
0.0
  0
LINE
  5
26CA0
  8
0
 10
3158.7148071589399478
 20
134.2032985521256876
 30
0.0
 11
3158.7328851143461179
 21
134.2055241142928992
 31
0.0
  0
LINE
  5
26CA1
  8
0
 10
3158.7328851143461179
 20
134.2055241142928992
 30
0.0
 11
3158.7495638200980466
 21
134.2019658717489108
 31
0.0
  0
LINE
  5
26CA2
  8
0
 10
3158.7437794025240692
 20
134.2046638589067982
 30
0.0
 11
3158.7454380579761164
 21
134.2115199190766077
 31
0.0
  0
LINE
  5
26CA3
  8
0
 10
3158.7454380579761164
 20
134.2115199190766077
 30
0.0
 11
3158.7638891970068471
 21
134.2152880373228072
 31
0.0
  0
LINE
  5
26CA4
  8
0
 10
3158.7638891970068471
 20
134.2152880373228072
 30
0.0
 11
3158.7806474638869076
 21
134.2120586612558952
 31
0.0
  0
LINE
  5
26CA5
  8
0
 10
3158.7806474638869076
 20
134.2120586612558952
 30
0.0
 11
3158.7789741284068441
 21
134.2051419217374928
 31
0.0
  0
LINE
  5
26CA6
  8
0
 10
3158.7789741284068441
 20
134.2051419217374928
 30
0.0
 11
3158.7605447253149578
 21
134.201463648805202
 31
0.0
  0
LINE
  5
26CA7
  8
0
 10
3158.7605447253149578
 20
134.201463648805202
 30
0.0
 11
3158.7437794024890536
 21
134.2046638589949907
 31
0.0
  0
LINE
  5
26CA8
  8
0
 10
3158.771834975368165
 20
134.2022401037347095
 30
0.0
 11
3158.7903643925042161
 21
134.2063317850908959
 31
0.0
  0
LINE
  5
26CA9
  8
0
 10
3158.7903643925042161
 20
134.2063317850908959
 30
0.0
 11
3158.8074644379339588
 21
134.2045151522212052
 31
0.0
  0
LINE
  5
26CAA
  8
0
 10
3158.8074644379339588
 20
134.2045151522212052
 30
0.0
 11
3158.8060208763631636
 21
134.1985481838202077
 31
0.0
  0
LINE
  5
26CAB
  8
0
 10
3158.8060208763631636
 20
134.1985481838202077
 30
0.0
 11
3158.7875053744078286
 21
134.1945140206279916
 31
0.0
  0
LINE
  5
26CAC
  8
0
 10
3158.7875053744078286
 20
134.1945140206279916
 30
0.0
 11
3158.7704192479068297
 21
134.1963881875072104
 31
0.0
  0
LINE
  5
26CAD
  8
0
 10
3158.7704192479068297
 20
134.1963881875072104
 30
0.0
 11
3158.771834975368165
 21
134.2022401037347095
 31
0.0
  0
LINE
  5
26CAE
  8
0
 10
3158.77637612979197
 20
134.1944030826410881
 30
0.0
 11
3158.7752092207988426
 21
134.1895796586250071
 31
0.0
  0
LINE
  5
26CAF
  8
0
 10
3158.7752092207988426
 20
134.1895796586250071
 30
0.0
 11
3158.757062121259878
 21
134.1870682885760004
 31
0.0
  0
LINE
  5
26CB0
  8
0
 10
3158.757062121259878
 20
134.1870682885760004
 30
0.0
 11
3158.7400729190349011
 21
134.189343092865613
 31
0.0
  0
LINE
  5
26CB1
  8
0
 10
3158.7400729190349011
 20
134.189343092865613
 30
0.0
 11
3158.7412220755331873
 21
134.1940931363104994
 31
0.0
  0
LINE
  5
26CB2
  8
0
 10
3158.7412220755331873
 20
134.1940931363104994
 30
0.0
 11
3158.7593780505922041
 21
134.1966411934945995
 31
0.0
  0
LINE
  5
26CB3
  8
0
 10
3158.7593780505922041
 20
134.1966411934945995
 30
0.0
 11
3158.7763760713328338
 21
134.1944028410001124
 31
0.0
  0
LINE
  5
26CB4
  8
0
 10
3158.7728345764749065
 20
134.1797640558231137
 30
0.0
 11
3158.7735208988187878
 21
134.1826009721102082
 31
0.0
  0
LINE
  5
26CB5
  8
0
 10
3158.7735208988187878
 20
134.1826009721102082
 30
0.0
 11
3158.7563036018132152
 21
134.1839329452226934
 31
0.0
  0
LINE
  5
26CB6
  8
0
 10
3158.7563036018132152
 20
134.1839329452226934
 30
0.0
 11
3158.7384097393460252
 21
134.1824683318355085
 31
0.0
  0
LINE
  5
26CB7
  8
0
 10
3158.7384097393460252
 20
134.1824683318355085
 30
0.0
 11
3158.7377334589218663
 21
134.1796729237013039
 31
0.0
  0
LINE
  5
26CB8
  8
0
 10
3158.7377334589218663
 20
134.1796729237013039
 30
0.0
 11
3158.7549410968290431
 21
134.1783010246188894
 31
0.0
  0
LINE
  5
26CB9
  8
0
 10
3158.7549410968290431
 20
134.1783010246188894
 30
0.0
 11
3158.7728345764749065
 21
134.1797640558231137
 31
0.0
  0
LINE
  5
26CBA
  8
0
 10
3158.7451434056902144
 20
134.1836940687213087
 30
0.0
 11
3158.7460549212901242
 21
134.1874618226258917
 31
0.0
  0
LINE
  5
26CBB
  8
0
 10
3158.7460549212901242
 20
134.1874618226258917
 30
0.0
 11
3158.7291508152279675
 21
134.1900883720470006
 31
0.0
  0
LINE
  5
26CBC
  8
0
 10
3158.7291508152279675
 20
134.1900883720470006
 30
0.0
 11
3158.7113405733139189
 21
134.1889694045385966
 31
0.0
  0
LINE
  5
26CBD
  8
0
 10
3158.7113405733139189
 20
134.1889694045385966
 30
0.0
 11
3158.7104396917379745
 21
134.1852456065201125
 31
0.0
  0
LINE
  5
26CBE
  8
0
 10
3158.7104396917379745
 20
134.1852456065201125
 30
0.0
 11
3158.7273384805221212
 21
134.1825970781032993
 31
0.0
  0
LINE
  5
26CBF
  8
0
 10
3158.7273384805221212
 20
134.1825970781032993
 30
0.0
 11
3158.7451434056902144
 21
134.1836940687213087
 31
0.0
  0
LINE
  5
26CC0
  8
0
 10
3158.7434541878637901
 20
134.1767116793635921
 30
0.0
 11
3158.7439034572271339
 21
134.1785687362257136
 31
0.0
  0
LINE
  5
26CC1
  8
0
 10
3158.7439034572271339
 20
134.1785687362257136
 30
0.0
 11
3158.7267804055068154
 21
134.1802902724971034
 31
0.0
  0
LINE
  5
26CC2
  8
0
 10
3158.7267804055068154
 20
134.1802902724971034
 30
0.0
 11
3158.7092139818150827
 21
134.1801791287813046
 31
0.0
  0
LINE
  5
26CC3
  8
0
 10
3158.7092139818150827
 20
134.1801791287813046
 30
0.0
 11
3158.7087698080431437
 21
134.1783431346543125
 31
0.0
  0
LINE
  5
26CC4
  8
0
 10
3158.7087698080431437
 20
134.1783431346543125
 30
0.0
 11
3158.7258870023388226
 21
134.1765973866392017
 31
0.0
  0
LINE
  5
26CC5
  8
0
 10
3158.7258870023388226
 20
134.1765973866392017
 30
0.0
 11
3158.743454187883799
 21
134.1767116794466972
 31
0.0
  0
LINE
  5
26CC6
  8
0
 10
3158.7366903507540883
 20
134.1753612312236896
 30
0.0
 11
3158.7369136682291355
 21
134.1762843150573872
 31
0.0
  0
LINE
  5
26CC7
  8
0
 10
3158.7369136682291355
 20
134.1762843150573872
 30
0.0
 11
3158.754567283590859
 21
134.1767558660581017
 31
0.0
  0
LINE
  5
26CC8
  8
0
 10
3158.754567283590859
 20
134.1767558660581017
 30
0.0
 11
3158.7720027503910387
 21
134.1763256987169939
 31
0.0
  0
LINE
  5
26CC9
  8
0
 10
3158.7720027503910387
 20
134.1763256987169939
 30
0.0
 11
3158.7718158583597869
 21
134.1755531796767968
 31
0.0
  0
LINE
  5
26CCA
  8
0
 10
3158.7656662730259995
 20
134.1767417443267902
 30
0.0
 11
3158.7661197009110765
 21
134.1786159906336025
 31
0.0
  0
LINE
  5
26CCB
  8
0
 10
3158.7661197009110765
 20
134.1786159906336025
 30
0.0
 11
3158.7841040839471134
 21
134.1804547711498117
 31
0.0
  0
LINE
  5
26CCC
  8
0
 10
3158.7841040839471134
 20
134.1804547711498117
 30
0.0
 11
3158.8016405206499257
 21
134.1804419635232932
 31
0.0
  0
LINE
  5
26CCD
  8
0
 10
3158.8016405206499257
 20
134.1804419635232932
 30
0.0
 11
3158.8011788816102126
 21
134.1785337765329018
 31
0.0
  0
LINE
  5
26CCE
  8
0
 10
3158.8011788816102126
 20
134.1785337765329018
 30
0.0
 11
3158.7838043307051521
 21
134.1767250419246977
 31
0.0
  0
LINE
  5
26CCF
  8
0
 10
3158.7838043307051521
 20
134.1767250419246977
 30
0.0
 11
3158.7656662730541939
 21
134.1767417443811894
 31
0.0
  0
LINE
  5
26CD0
  8
0
 10
3158.7673712739251641
 20
134.1837893733980991
 30
0.0
 11
3158.7682914758001971
 21
134.1875930318090013
 31
0.0
  0
LINE
  5
26CD1
  8
0
 10
3158.7682914758001971
 20
134.1875930318090013
 30
0.0
 11
3158.7865331484899798
 21
134.1904953204366109
 31
0.0
  0
LINE
  5
26CD2
  8
0
 10
3158.7865331484899798
 20
134.1904953204366109
 30
0.0
 11
3158.8038524329549546
 21
134.1895849128979137
 31
0.0
  0
LINE
  5
26CD3
  8
0
 10
3158.8038524329549546
 20
134.1895849128979137
 30
0.0
 11
3158.8029150589700293
 21
134.185710273329903
 31
0.0
  0
LINE
  5
26CD4
  8
0
 10
3158.8029150589700293
 20
134.185710273329903
 30
0.0
 11
3158.7846757755792169
 21
134.1828178607541986
 31
0.0
  0
LINE
  5
26CD5
  8
0
 10
3158.7846757755792169
 20
134.1828178607541986
 30
0.0
 11
3158.7673712739720031
 21
134.1837893734156921
 31
0.0
  0
LINE
  5
26CD6
  8
0
 10
3158.796015526957035
 20
134.1837989301093899
 30
0.0
 11
3158.7953212708061983
 21
134.1809292190174006
 31
0.0
  0
LINE
  5
26CD7
  8
0
 10
3158.7953212708061983
 20
134.1809292190174006
 30
0.0
 11
3158.8129482521480895
 21
134.1812906780064907
 31
0.0
  0
LINE
  5
26CD8
  8
0
 10
3158.8129482521480895
 20
134.1812906780064907
 30
0.0
 11
3158.8312896181851102
 21
134.1846050495109921
 31
0.0
  0
LINE
  5
26CD9
  8
0
 10
3158.8312896181851102
 20
134.1846050495109921
 30
0.0
 11
3158.8319992478582208
 21
134.1875383067921916
 31
0.0
  0
LINE
  5
26CDA
  8
0
 10
3158.8319992478582208
 20
134.1875383067921916
 30
0.0
 11
3158.8143519009149713
 21
134.1870926665978914
 31
0.0
  0
LINE
  5
26CDB
  8
0
 10
3158.8143519009149713
 20
134.1870926665978914
 30
0.0
 11
3158.7960155270179712
 21
134.1837989301006928
 31
0.0
  0
LINE
  5
26CDC
  8
0
 10
3158.7977237277700624
 20
134.1908597855882022
 30
0.0
 11
3158.7989046852981119
 21
134.1957412792766036
 31
0.0
  0
LINE
  5
26CDD
  8
0
 10
3158.7989046852981119
 20
134.1957412792766036
 30
0.0
 11
3158.8175225171789862
 21
134.2001984234333065
 31
0.0
  0
LINE
  5
26CDE
  8
0
 10
3158.8175225171789862
 20
134.2001984234333065
 30
0.0
 11
3158.8313815168407928
 21
134.1997841892504084
 31
0.0
  0
LINE
  5
26CDF
  8
0
 10
3158.8347640162069183
 20
134.1989664893627037
 30
0.0
 11
3158.8337460038860627
 21
134.1947585310109048
 31
0.0
  0
LINE
  5
26CE0
  8
0
 10
3158.8337460038860627
 20
134.1947585310109048
 30
0.0
 11
3158.8151337106210121
 21
134.1903242805117884
 31
0.0
  0
LINE
  5
26CE1
  8
0
 10
3158.8151337106210121
 20
134.1903242805117884
 30
0.0
 11
3158.7977237277968925
 21
134.1908597857027132
 31
0.0
  0
LINE
  5
26CE2
  8
0
 10
3158.8444196315990666
 20
134.196629418974112
 30
0.0
 11
3158.8266473694361594
 21
134.1920241965704008
 31
0.0
  0
LINE
  5
26CE3
  8
0
 10
3158.8266473694361594
 20
134.1920241965704008
 30
0.0
 11
3158.8256966783051212
 21
134.1880945103306999
 31
0.0
  0
LINE
  5
26CE4
  8
0
 10
3158.8256966783051212
 20
134.1880945103306999
 30
0.0
 11
3158.8434387395468548
 21
134.1889316528906875
 31
0.0
  0
LINE
  5
26CE5
  8
0
 10
3158.8434387395468548
 20
134.1889316528906875
 30
0.0
 11
3158.8593446642839808
 21
134.1930198046451892
 31
0.0
  0
LINE
  5
26CE6
  8
0
 10
3158.8607910682098918
 20
134.1926689547892124
 30
0.0
 11
3158.8550740246892019
 21
134.1911343120002016
 31
0.0
  0
LINE
  5
26CE7
  8
0
 10
3158.8550740246892019
 20
134.1911343120002016
 30
0.0
 11
3158.8543526144248972
 21
134.1881523593168879
 31
0.0
  0
LINE
  5
26CE8
  8
0
 10
3158.8543526144248972
 20
134.1881523593168879
 30
0.0
 11
3158.8709678982709192
 21
134.1902069520322129
 31
0.0
  0
LINE
  5
26CE9
  8
0
 10
3158.8749633185020684
 20
134.1892401068677998
 30
0.0
 11
3158.8720392595578232
 21
134.1887604389490889
 31
0.0
  0
LINE
  5
26CEA
  8
0
 10
3158.8720392595578232
 20
134.1887604389490889
 30
0.0
 11
3158.8534787818161931
 21
134.1845403680075037
 31
0.0
  0
LINE
  5
26CEB
  8
0
 10
3158.8534787818161931
 20
134.1845403680075037
 30
0.0
 11
3158.8532408673218015
 21
134.1835569473680039
 31
0.0
  0
LINE
  5
26CEC
  8
0
 10
3158.8532408673218015
 20
134.1835569473680039
 30
0.0
 11
3158.8652089301699561
 21
134.1854744184493882
 31
0.0
  0
LINE
  5
26CED
  8
0
 10
3158.8603537806911845
 20
134.1863503037824898
 30
0.0
 11
3158.8608339561878893
 21
134.1883351113104084
 31
0.0
  0
LINE
  5
26CEE
  8
0
 10
3158.8608339561878893
 20
134.1883351113104084
 30
0.0
 11
3158.8428461933249309
 21
134.1864823606140078
 31
0.0
  0
LINE
  5
26CEF
  8
0
 10
3158.8428461933249309
 20
134.1864823606140078
 30
0.0
 11
3158.8244043447580225
 21
134.1827526440116003
 31
0.0
  0
LINE
  5
26CF0
  8
0
 10
3158.8244043447580225
 20
134.1827526440116003
 30
0.0
 11
3158.8239363471648176
 21
134.1808181738099961
 31
0.0
  0
LINE
  5
26CF1
  8
0
 10
3158.8239363471648176
 20
134.1808181738099961
 30
0.0
 11
3158.8418982499820231
 21
134.182564032185411
 31
0.0
  0
LINE
  5
26CF2
  8
0
 10
3158.8418982499820231
 20
134.182564032185411
 30
0.0
 11
3158.8603537806889108
 21
134.1863503037820919
 31
0.0
  0
LINE
  5
26CF3
  8
0
 10
3158.8301957710259558
 20
134.180083627384704
 30
0.0
 11
3158.8304298805701364
 21
134.181051320275003
 31
0.0
  0
LINE
  5
26CF4
  8
0
 10
3158.8304298805701364
 20
134.181051320275003
 30
0.0
 11
3158.8125633031609141
 21
134.1796994896967021
 31
0.0
  0
LINE
  5
26CF5
  8
0
 10
3158.8125633031609141
 20
134.1796994896967021
 30
0.0
 11
3158.794479939806024
 21
134.1774515735685895
 31
0.0
  0
LINE
  5
26CF6
  8
0
 10
3158.794479939806024
 20
134.1774515735685895
 30
0.0
 11
3158.7942834658260836
 21
134.1766394473706896
 31
0.0
  0
LINE
  5
26CF7
  8
0
 10
3158.8301957710259558
 20
134.180083627384704
 30
0.0
 11
3158.8280702763681802
 21
134.1796974607497077
 31
0.0
  0
LINE
  5
26CF8
  8
0
 10
3158.8720392595578232
 20
134.1887604389490889
 30
0.0
 11
3158.8724242554440025
 21
134.1869508862486953
 31
0.0
  0
LINE
  5
26CF9
  8
0
 10
3158.8434387395468548
 20
134.1889316528906875
 30
0.0
 11
3158.8444196315990666
 21
134.196629418974112
 31
0.0
  0
LINE
  5
26CFA
  8
0
 10
3158.8418982499820231
 20
134.182564032185411
 30
0.0
 11
3158.8428461933249309
 21
134.1864823606140078
 31
0.0
  0
LINE
  5
26CFB
  8
0
 10
3158.8151337106210121
 20
134.1903242805117884
 30
0.0
 11
3158.8175225171789862
 21
134.2001984234333065
 31
0.0
  0
LINE
  5
26CFC
  8
0
 10
3158.8143519009149713
 20
134.1870926665978914
 30
0.0
 11
3158.8129482521480895
 21
134.1812906780064907
 31
0.0
  0
LINE
  5
26CFD
  8
0
 10
3158.7865331484899798
 20
134.1904953204366109
 30
0.0
 11
3158.7846757755792169
 21
134.1828178607541986
 31
0.0
  0
LINE
  5
26CFE
  8
0
 10
3158.7875053744078286
 20
134.1945140206279916
 30
0.0
 11
3158.7903643925042161
 21
134.2063317850908959
 31
0.0
  0
LINE
  5
26CFF
  8
0
 10
3158.7605447253149578
 20
134.201463648805202
 30
0.0
 11
3158.7638891970068471
 21
134.2152880373228072
 31
0.0
  0
LINE
  5
26D00
  8
0
 10
3158.7593780505922041
 20
134.1966411934945995
 30
0.0
 11
3158.757062121259878
 21
134.1870682885760004
 31
0.0
  0
LINE
  5
26D01
  8
0
 10
3158.7563036018132152
 20
134.1839329452226934
 30
0.0
 11
3158.7537292625738701
 21
134.1789238228317913
 31
0.0
  0
LINE
  5
26D02
  8
0
 10
3158.7841040839471134
 20
134.1804547711498117
 30
0.0
 11
3158.7838043307051521
 21
134.1767250419246977
 31
0.0
  0
LINE
  5
26D03
  8
0
 10
3158.7328851143461179
 20
134.2055241142928992
 30
0.0
 11
3158.7300989666791793
 21
134.1940075602335014
 31
0.0
  0
LINE
  5
26D04
  8
0
 10
3158.7291508152279675
 20
134.1900883720470006
 30
0.0
 11
3158.7273384805221212
 21
134.1825970781032993
 31
0.0
  0
LINE
  5
26D05
  8
0
 10
3158.7267804055068154
 20
134.1802902724971034
 30
0.0
 11
3158.7258870023388226
 21
134.1765973866392017
 31
0.0
  0
ARC
  5
26D06
  8
0
 10
3162.1461830294178981
 20
136.3520676974399066
 30
0.0
 40
0.0097430293187296
 50
90.6096542137254346
 51
180.5883263564743118
  0
LINE
  5
26D07
  8
0
 10
3162.1364405137310314
 20
136.3519676555125102
 30
0.0
 11
3162.1364405137310314
 21
135.7811015138125015
 31
0.0
  0
ARC
  5
26D08
  8
0
 10
3162.1470395957439905
 20
135.7812104078774951
 30
0.0
 40
0.0105996413836512
 50
180.5886312438707932
 51
249.8123312474035913
  0
LINE
  5
26D09
  8
0
 10
3162.2689970437309057
 20
135.7712589941124861
 30
0.0
 11
3162.2689970437309057
 21
135.7594479705126105
 31
0.0
  0
LINE
  5
26D0A
  8
0
 10
3163.5473120667311377
 20
135.7712589941124861
 30
0.0
 11
3163.5473120667311377
 21
135.7594479705126105
 31
0.0
  0
ARC
  5
26D0B
  8
0
 10
3162.9630966549821096
 20
160.0833372965718979
 30
0.0
 40
0.0196850394000015
 50
109.9999982270808943
 51
199.9999982270965972
  0
LINE
  5
26D0C
  8
0
 10
3162.9445987685098771
 20
160.0766046171472965
 30
0.0
 11
3162.9553710555710495
 21
160.0470079988423038
 31
0.0
  0
ARC
  5
26D0D
  8
0
 10
3165.9674341970389833
 20
135.1227974336916873
 30
0.0
 40
0.0682922091252218
 50
98.1595185186351102
 51
172.8417634850571005
  0
ARC
  5
26D0E
  8
0
 10
3162.5758248884908426
 20
133.9788184118390006
 30
0.0
 40
1.506666140013563
 50
17.3322450857656385
 51
28.526258080530301
  0
ENDSEC
  0
EOF
