  0
SECTION
  2
HEADER
  9
$ACADVER
  1
AC1009
  9
$INSBASE
 10
4292.2040486835612683
 20
75.5327513862241631
 30
0.0
  9
$EXTMIN
 10
4283.1615155377376141
 20
62.2646216856176125
 30
-0.0015258207003583
  9
$EXTMAX
 10
4304.9090492248378723
 20
121.1362250927858071
 30
0.0000000349246037
  9
$LIMMIN
 10
0.0
 20
0.0
  9
$LIMMAX
 10
11.6929133858000007
 20
8.2677165353999982
  9
$ORTHOMODE
 70
     0
  9
$REGENMODE
 70
     1
  9
$FILLMODE
 70
     1
  9
$QTEXTMODE
 70
     0
  9
$MIRRTEXT
 70
     0
  9
$DRAGMODE
 70
     2
  9
$LTSCALE
 40
0.6431102362
  9
$OSMODE
 70
  4095
  9
$ATTMODE
 70
     1
  9
$TEXTSIZE
 40
0.2
  9
$TRACEWID
 40
0.05
  9
$TEXTSTYLE
  7
STANDARD
  9
$CLAYER
  8
0
  9
$CELTYPE
  6
BYLAYER
  9
$CECOLOR
 62
   256
  9
$DIMSCALE
 40
1.0
  9
$DIMASZ
 40
0.1875
  9
$DIMEXO
 40
0.0625
  9
$DIMDLI
 40
0.4443307087
  9
$DIMRND
 40
0.0
  9
$DIMDLE
 40
0.0
  9
$DIMEXE
 40
0.125
  9
$DIMTP
 40
0.01
  9
$DIMTM
 40
0.01
  9
$DIMTXT
 40
2.0
  9
$DIMCEN
 40
0.1052362205
  9
$DIMTSZ
 40
0.0
  9
$DIMTOL
 70
     1
  9
$DIMLIM
 70
     0
  9
$DIMTIH
 70
     1
  9
$DIMTOH
 70
     1
  9
$DIMSE1
 70
     0
  9
$DIMSE2
 70
     0
  9
$DIMTAD
 70
     0
  9
$DIMZIN
 70
     0
  9
$DIMBLK
  1

  9
$DIMASO
 70
     1
  9
$DIMSHO
 70
     1
  9
$DIMPOST
  1
\X
  9
$DIMAPOST
  1

  9
$DIMALT
 70
     1
  9
$DIMALTD
 70
     2
  9
$DIMALTF
 40
25.3999999999999986
  9
$DIMLFAC
 40
1.0
  9
$DIMTOFL
 70
     0
  9
$DIMTVP
 40
0.0
  9
$DIMTIX
 70
     0
  9
$DIMSOXD
 70
     0
  9
$DIMSAH
 70
     0
  9
$DIMBLK1
  1

  9
$DIMBLK2
  1

  9
$DIMSTYLE
  2
STANDARD
  9
$DIMCLRD
 70
     0
  9
$DIMCLRE
 70
     0
  9
$DIMCLRT
 70
     0
  9
$DIMTFAC
 40
1.0
  9
$DIMGAP
 40
0.09
  9
$LUNITS
 70
     2
  9
$LUPREC
 70
     4
  9
$SKETCHINC
 40
0.1
  9
$FILLETRAD
 40
0.0
  9
$AUNITS
 70
     0
  9
$AUPREC
 70
     0
  9
$MENU
  1
.
  9
$ELEVATION
 40
0.0
  9
$PELEVATION
 40
0.0
  9
$THICKNESS
 40
0.0
  9
$LIMCHECK
 70
     0
  9
$BLIPMODE
 70
     0
  9
$CHAMFERA
 40
0.0
  9
$CHAMFERB
 40
0.0
  9
$SKPOLY
 70
     0
  9
$TDCREATE
 40
2458060.468368056230247
  9
$TDUPDATE
 40
2459256.7539699082262814
  9
$TDINDWG
 40
0.4278890046
  9
$TDUSRTIMER
 40
0.4278890046
  9
$USRTIMER
 70
     1
  9
$ANGBASE
 50
0.0
  9
$ANGDIR
 70
     0
  9
$PDMODE
 70
     0
  9
$PDSIZE
 40
0.3125
  9
$PLINEWID
 40
0.0
  9
$COORDS
 70
     1
  9
$SPLFRAME
 70
     0
  9
$SPLINETYPE
 70
     6
  9
$SPLINESEGS
 70
     8
  9
$ATTDIA
 70
     1
  9
$ATTREQ
 70
     1
  9
$HANDLING
 70
     1
  9
$HANDSEED
  5
F540
  9
$SURFTAB1
 70
     6
  9
$SURFTAB2
 70
     6
  9
$SURFTYPE
 70
     6
  9
$SURFU
 70
     6
  9
$SURFV
 70
     6
  9
$UCSNAME
  2

  9
$UCSORG
 10
0.0
 20
0.0
 30
0.0
  9
$UCSXDIR
 10
1.0
 20
0.0
 30
0.0
  9
$UCSYDIR
 10
0.0
 20
1.0
 30
0.0
  9
$PUCSNAME
  2

  9
$PUCSORG
 10
0.0
 20
0.0
 30
0.0
  9
$PUCSXDIR
 10
1.0
 20
0.0
 30
0.0
  9
$PUCSYDIR
 10
0.0
 20
1.0
 30
0.0
  9
$USERI1
 70
     0
  9
$USERI2
 70
     0
  9
$USERI3
 70
     0
  9
$USERI4
 70
     0
  9
$USERI5
 70
     0
  9
$USERR1
 40
0.0
  9
$USERR2
 40
0.0
  9
$USERR3
 40
0.0
  9
$USERR4
 40
0.0
  9
$USERR5
 40
0.0
  9
$WORLDVIEW
 70
     1
  9
$SHADEDGE
 70
     3
  9
$SHADEDIF
 70
    70
  9
$TILEMODE
 70
     1
  9
$MAXACTVP
 70
    64
  9
$PLIMCHECK
 70
     0
  9
$PEXTMIN
 10
1.0000000000000000E+20
 20
1.0000000000000000E+20
 30
1.0000000000000000E+20
  9
$PEXTMAX
 10
-1.0000000000000000E+20
 20
-1.0000000000000000E+20
 30
-1.0000000000000000E+20
  9
$PLIMMIN
 10
0.0
 20
0.0
  9
$PLIMMAX
 10
12.0
 20
9.0
  9
$UNITMODE
 70
     0
  9
$VISRETAIN
 70
     1
  9
$PLINEGEN
 70
     0
  9
$PSLTSCALE
 70
     1
  0
ENDSEC
  0
SECTION
  2
TABLES
  0
TABLE
  2
VPORT
 70
     1
  0
VPORT
  2
*ACTIVE
 70
     0
 10
0.0
 20
0.0
 11
1.0
 21
1.0
 12
501.6773722250380843
 22
-28.4802330439037483
 13
0.0
 23
0.0
 14
1.0
 24
1.0
 15
0.0
 25
0.0
 16
0.0
 26
0.0
 36
5.1040778033513332
 17
3792.35791015625
 27
120.1806564331053977
 37
0.0
 40
57.247271794593253
 41
2.8789237668161429
 42
50.0
 43
0.0
 44
0.0
 50
0.0
 51
0.0
 71
     0
 72
   100
 73
     1
 74
     1
 75
     0
 76
     0
 77
     0
 78
     0
  0
ENDTAB
  0
TABLE
  2
LTYPE
 70
     2
  0
LTYPE
  2
CONTINUOUS
 70
     0
  3
Solid line
 72
    65
 73
     0
 40
0.0
  0
LTYPE
  2
PHANTOM2
 70
     0
  3
___ _ _ ___ _ _ ___ _ _ ___ _ _
 72
    65
 73
     6
 40
1.25
 49
0.625
 49
-0.125
 49
0.125
 49
-0.125
 49
0.125
 49
-0.125
  0
ENDTAB
  0
TABLE
  2
LAYER
 70
     2
  0
LAYER
  2
0
 70
     0
 62
   255
  6
CONTINUOUS
  0
LAYER
  2
DEFPOINTS
 70
     0
 62
     7
  6
CONTINUOUS
  0
ENDTAB
  0
TABLE
  2
STYLE
 70
     1
  0
STYLE
  2
STANDARD
 70
     0
 40
0.0
 41
0.8
 50
0.0
 71
     0
 42
0.2
  3
txt
  4

  0
ENDTAB
  0
TABLE
  2
VIEW
 70
     0
  0
ENDTAB
  0
TABLE
  2
UCS
 70
     0
  0
ENDTAB
  0
TABLE
  2
APPID
 70
     9
  0
APPID
  2
ACAD
 70
     0
  0
APPID
  2
ACAD_MLEADERVER
 70
     0
  0
APPID
  2
ACAD_EXEMPT_FROM_CAD_STANDARDS
 70
     0
  0
APPID
  2
ACAD_NAV_VCDISPLAY
 70
     0
  0
APPID
  2
ACAECLAYERSTANDARD
 70
     0
  0
APPID
  2
ACCMTRANSPARENCY
 70
     0
  0
APPID
  2
ACAD_DSTYLE_DIMJAG
 70
     0
  0
APPID
  2
ACAD_DSTYLE_DIMTALN
 70
     0
  0
APPID
  2
ACDBATTR
 70
     0
  0
ENDTAB
  0
TABLE
  2
DIMSTYLE
 70
     1
  0
DIMSTYLE
  2
STANDARD
 70
     0
  3

  4

  5

  6

  7

 40
1.0
 41
0.1875
 42
0.0625
 43
0.38
 44
0.125
 45
0.0
 46
0.0
 47
0.01
 48
0.01
140
0.15625
141
0.09
142
0.0
143
25.3999999999999986
144
1.0
145
0.0
146
1.0
147
0.09
 71
     1
 72
     0
 73
     1
 74
     1
 75
     0
 76
     0
 77
     0
 78
     4
170
     0
171
     2
172
     0
173
     0
174
     0
175
     0
176
     0
177
     0
178
     0
  0
ENDTAB
  0
ENDSEC
  0
SECTION
  2
BLOCKS
  0
BLOCK
  8
0
  2
$MODEL_SPACE
 70
     0
 10
0.0
 20
0.0
 30
0.0
  3
$MODEL_SPACE
  1

  0
ENDBLK
  5
21
  8
0
  0
BLOCK
 67
     1
  8
0
  2
$PAPER_SPACE
 70
     0
 10
0.0
 20
0.0
 30
0.0
  3
$PAPER_SPACE
  1

  0
ENDBLK
  5
1D
 67
     1
  8
0
  0
ENDSEC
  0
SECTION
  2
ENTITIES
  0
ATTDEF
  5
3930
  8
DEFPOINTS
 10
4292.1998221476533217
 20
75.5376217557888481
 30
0.0
 40
0.001
  1
K-26250T-7X
  3

  2
MODELNUMBER
 70
     0
1001
ACDBATTR
1070
     0
1070
     1
  0
ATTDEF
  5
3931
  8
DEFPOINTS
 10
4292.1998221476533217
 20
75.5359550891221829
 30
0.0
 40
0.001
  1
BEITOU
  3

  2
TRADENAME
 70
     0
1001
ACDBATTR
1070
     0
1070
     1
  0
ATTDEF
  5
3932
  8
DEFPOINTS
 10
4292.1998221476533217
 20
75.5342884224555036
 30
0.0
 40
0.001
  1
BATH AND SHOWER FAUCET
  3

  2
PRODUCT
 70
     0
1001
ACDBATTR
1070
     0
1070
     1
  0
CIRCLE
  5
ECE1
  8
0
 10
4295.9047139513140792
 20
111.2737054451802976
 30
0.0
 40
0.0433212358218895
  0
CIRCLE
  5
ECE2
  8
0
 10
4295.9048460104741025
 20
111.2796145669633034
 30
0.0
 40
0.0756263202459176
  0
ARC
  5
ECE3
  8
0
 10
4295.9044203089106304
 20
111.2837415088811071
 30
0.0
 40
0.1218367252264427
 50
51.2110686504836394
 51
113.3856831371757039
  0
ARC
  5
ECE4
  8
0
 10
4295.9003702486861584
 20
111.2931070658225963
 30
0.0
 40
0.1116329688273702
 50
113.3856831371757039
 51
229.3220401157090009
  0
ARC
  5
ECE5
  8
0
 10
4295.905677285798447
 20
111.2992818686652043
 30
0.0
 40
0.1197750099135546
 50
229.3220401157090009
 51
302.8197584128577091
  0
ARC
  5
ECE6
  8
0
 10
4295.9101413194430279
 20
111.2923602875241045
 30
0.0
 40
0.1115387557966256
 50
302.8197584128577091
 51
50.7282151726039814
  0
ARC
  5
ECE7
  8
0
 10
4295.9042816939108889
 20
111.3478323779070962
 30
0.0
 40
0.0472248876198776
 50
236.9839859485902025
 51
303.6842258138869965
  0
CIRCLE
  5
ECE8
  8
0
 10
4295.6570243632559141
 20
111.0719280325784979
 30
0.0
 40
0.0433212358218895
  0
CIRCLE
  5
ECE9
  8
0
 10
4295.6571564224159374
 20
111.0778371543616032
 30
0.0
 40
0.0756263202459176
  0
ARC
  5
ECEA
  8
0
 10
4295.6567307208533748
 20
111.0819640962794068
 30
0.0
 40
0.1218367252264427
 50
51.2110686504836394
 51
113.3856831371757039
  0
ARC
  5
ECEB
  8
0
 10
4295.6526806606279933
 20
111.0913296532207966
 30
0.0
 40
0.1116329688273702
 50
113.3856831371757039
 51
229.3220401157090009
  0
ARC
  5
ECEC
  8
0
 10
4295.6579876977393724
 20
111.0975044560634046
 30
0.0
 40
0.1197750099135546
 50
229.3220401157090009
 51
302.8197584128577091
  0
ARC
  5
ECED
  8
0
 10
4295.6624517313839533
 20
111.0905828749224042
 30
0.0
 40
0.1115387557966256
 50
302.8197584128577091
 51
50.7282151726039814
  0
ARC
  5
ECEE
  8
0
 10
4295.6565921058518143
 20
111.1460549653052965
 30
0.0
 40
0.0472248876198776
 50
236.9839859485902025
 51
303.6842258138869965
  0
CIRCLE
  5
ECEF
  8
0
 10
4295.599956956087226
 20
110.765128716117502
 30
0.0
 40
0.0433212358218895
  0
CIRCLE
  5
ECF0
  8
0
 10
4295.6000890152472493
 20
110.7710378379005931
 30
0.0
 40
0.0756263202459176
  0
ARC
  5
ECF1
  8
0
 10
4295.5996633136846867
 20
110.7751647798183967
 30
0.0
 40
0.1218367252264427
 50
51.2110686504836394
 51
113.3856831371757039
  0
ARC
  5
ECF2
  8
0
 10
4295.5956132534602148
 20
110.7845303367599001
 30
0.0
 40
0.1116329688273702
 50
113.3856831371757039
 51
229.3220401157090009
  0
ARC
  5
ECF3
  8
0
 10
4295.6009202905715938
 20
110.790705139602494
 30
0.0
 40
0.1197750099135546
 50
229.3220401157090009
 51
302.8197584128577091
  0
ARC
  5
ECF4
  8
0
 10
4295.6053843242170842
 20
110.7837835584613941
 30
0.0
 40
0.1115387557966256
 50
302.8197584128577091
 51
50.7282151726039814
  0
ARC
  5
ECF5
  8
0
 10
4295.5995246986831262
 20
110.8392556488443006
 30
0.0
 40
0.0472248876198776
 50
236.9839859485902025
 51
303.6842258138869965
  0
CIRCLE
  5
ECF6
  8
0
 10
4295.7622658586506077
 20
110.497647225203707
 30
0.0
 40
0.0433212358218895
  0
CIRCLE
  5
ECF7
  8
0
 10
4295.762397917810631
 20
110.5035563469868976
 30
0.0
 40
0.0756263202459176
  0
ARC
  5
ECF8
  8
0
 10
4295.7619722162480684
 20
110.5076832889047012
 30
0.0
 40
0.1218367252264427
 50
51.2110686504836394
 51
113.3856831371757039
  0
ARC
  5
ECF9
  8
0
 10
4295.757922156022687
 20
110.5170488458460056
 30
0.0
 40
0.1116329688273702
 50
113.3856831371757039
 51
229.3220401157090009
  0
ARC
  5
ECFA
  8
0
 10
4295.7632291931349755
 20
110.523223648688699
 30
0.0
 40
0.1197750099135546
 50
229.3220401157090009
 51
302.8197584128577091
  0
ARC
  5
ECFB
  8
0
 10
4295.7676932267813754
 20
110.5163020675476986
 30
0.0
 40
0.1115387557966256
 50
302.8197584128577091
 51
50.7282151726039814
  0
ARC
  5
ECFC
  8
0
 10
4295.7618336012474174
 20
110.571774157930605
 30
0.0
 40
0.0472248876198776
 50
236.9839859485902025
 51
303.6842258138869965
  0
CIRCLE
  5
ECFD
  8
0
 10
4295.7427810563649473
 20
111.7284882654953009
 30
0.0
 40
0.0566230140189084
  0
CIRCLE
  5
ECFE
  8
0
 10
4295.7416807096096818
 20
111.7298298820917068
 30
0.0
 40
0.0225530929022718
  0
CIRCLE
  5
ECFF
  8
0
 10
4295.247795680348645
 20
111.3278056990854026
 30
0.0
 40
0.0566230140189084
  0
CIRCLE
  5
ED00
  8
0
 10
4295.246695333594289
 20
111.3291473156818938
 30
0.0
 40
0.0225530929022718
  0
CIRCLE
  5
ED01
  8
0
 10
4295.1349486239741964
 20
110.7142581346762995
 30
0.0
 40
0.0566230140189084
  0
CIRCLE
  5
ED02
  8
0
 10
4295.1338482772180214
 20
110.715599751272805
 30
0.0
 40
0.0225530929022718
  0
CIRCLE
  5
ED03
  8
0
 10
4295.459110554083054
 20
110.1720215375101048
 30
0.0
 40
0.0566230140189084
  0
CIRCLE
  5
ED04
  8
0
 10
4295.4580102073277885
 20
110.1733631541066956
 30
0.0
 40
0.0225530929022718
  0
CIRCLE
  5
ED05
  8
0
 10
4296.0656504839353147
 20
109.9585066483195988
 30
0.0
 40
0.0566230140189084
  0
CIRCLE
  5
ED06
  8
0
 10
4296.0645501371800492
 20
109.9598482649161042
 30
0.0
 40
0.0225530929022718
  0
CIRCLE
  5
ED07
  8
0
 10
4295.8127035066927419
 20
112.4762926171949999
 30
0.0
 40
0.024881955890729
  0
CIRCLE
  5
ED08
  8
0
 10
4295.8111815358433887
 20
112.4812781893952973
 30
0.0
 40
0.0685304788790694
  0
ARC
  5
ED09
  8
0
 10
4295.8109862988803798
 20
112.4898342202377961
 30
0.0
 40
0.068886925685224
 50
355.3572237852595777
 51
187.2571457361084128
  0
CIRCLE
  5
ED0A
  8
0
 10
4295.8131422414453482
 20
112.4924334326545932
 30
0.0
 40
0.0947674677291647
  0
CIRCLE
  5
ED0B
  8
0
 10
4295.6367278428033387
 20
112.0975726661477978
 30
0.0
 40
0.024881955890729
  0
CIRCLE
  5
ED0C
  8
0
 10
4295.635205871953076
 20
112.1025582383480952
 30
0.0
 40
0.0685304788790694
  0
ARC
  5
ED0D
  8
0
 10
4295.6350106349891576
 20
112.1111142691906934
 30
0.0
 40
0.068886925685224
 50
355.3572237852595777
 51
187.2571457361084128
  0
CIRCLE
  5
ED0E
  8
0
 10
4295.637166577554126
 20
112.1137134816074052
 30
0.0
 40
0.0947674677291647
  0
CIRCLE
  5
ED0F
  8
0
 10
4295.5494572331290328
 20
112.8417260791537018
 30
0.0
 40
0.024881955890729
  0
CIRCLE
  5
ED10
  8
0
 10
4295.5479352622796796
 20
112.8467116513540986
 30
0.0
 40
0.0685304788790694
  0
ARC
  5
ED11
  8
0
 10
4295.5477400253148517
 20
112.8552676821965974
 30
0.0
 40
0.068886925685224
 50
355.3572237852595777
 51
187.2571457361084128
  0
CIRCLE
  5
ED12
  8
0
 10
4295.5498959678798201
 20
112.8578668946133945
 30
0.0
 40
0.0947674677291647
  0
CIRCLE
  5
ED13
  8
0
 10
4295.0322917385892652
 20
112.8210587111318972
 30
0.0
 40
0.024881955890729
  0
CIRCLE
  5
ED14
  8
0
 10
4295.0307697677390024
 20
112.8260442833322941
 30
0.0
 40
0.0685304788790694
  0
ARC
  5
ED15
  8
0
 10
4295.030574530775084
 20
112.8346003141748071
 30
0.0
 40
0.068886925685224
 50
355.3572237852595777
 51
187.2571457361084128
  0
CIRCLE
  5
ED16
  8
0
 10
4295.0327304733400524
 20
112.8371995265915047
 30
0.0
 40
0.0947674677291647
  0
CIRCLE
  5
ED17
  8
0
 10
4295.3409835717702663
 20
112.4379149255070018
 30
0.0
 40
0.024881955890729
  0
CIRCLE
  5
ED18
  8
0
 10
4295.3394616009200035
 20
112.4429004977072992
 30
0.0
 40
0.0685304788790694
  0
ARC
  5
ED19
  8
0
 10
4295.3392663639560851
 20
112.4514565285498975
 30
0.0
 40
0.068886925685224
 50
355.3572237852595777
 51
187.2571457361084128
  0
CIRCLE
  5
ED1A
  8
0
 10
4295.341422306520144
 20
112.4540557409665951
 30
0.0
 40
0.0947674677291647
  0
CIRCLE
  5
ED1B
  8
0
 10
4294.879318982390032
 20
112.3487374714234051
 30
0.0
 40
0.024881955890729
  0
CIRCLE
  5
ED1C
  8
0
 10
4294.8777970115397693
 20
112.3537230436237024
 30
0.0
 40
0.0685304788790694
  0
ARC
  5
ED1D
  8
0
 10
4294.8776017745749414
 20
112.3622790744663007
 30
0.0
 40
0.068886925685224
 50
355.3572237852595777
 51
187.2571457361084128
  0
CIRCLE
  5
ED1E
  8
0
 10
4294.8797577171408193
 20
112.3648782868829983
 30
0.0
 40
0.0947674677291647
  0
CIRCLE
  5
ED1F
  8
0
 10
4295.2285967396073829
 20
111.9660059802404959
 30
0.0
 40
0.024881955890729
  0
CIRCLE
  5
ED20
  8
0
 10
4295.2270747687571202
 20
111.9709915524407933
 30
0.0
 40
0.0685304788790694
  0
ARC
  5
ED21
  8
0
 10
4295.2268795317932017
 20
111.9795475832834057
 30
0.0
 40
0.068886925685224
 50
355.3572237852595777
 51
187.2571457361084128
  0
CIRCLE
  5
ED22
  8
0
 10
4295.2290354743581702
 20
111.9821467957001033
 30
0.0
 40
0.0947674677291647
  0
CIRCLE
  5
ED23
  8
0
 10
4294.9221815138362217
 20
111.6730892150861933
 30
0.0
 40
0.024881955890729
  0
CIRCLE
  5
ED24
  8
0
 10
4294.9206595429868685
 20
111.6780747872865049
 30
0.0
 40
0.0685304788790694
  0
ARC
  5
ED25
  8
0
 10
4294.92046430602295
 20
111.6866308181290037
 30
0.0
 40
0.068886925685224
 50
355.3572237852595777
 51
187.2571457361084128
  0
CIRCLE
  5
ED26
  8
0
 10
4294.922620248587009
 20
111.6892300305458008
 30
0.0
 40
0.0947674677291647
  0
CIRCLE
  5
ED27
  8
0
 10
4294.5456781731490992
 20
112.0271566795231024
 30
0.0
 40
0.024881955890729
  0
CIRCLE
  5
ED28
  8
0
 10
4294.5441562022988364
 20
112.0321422517233003
 30
0.0
 40
0.0685304788790694
  0
ARC
  5
ED29
  8
0
 10
4294.5439609653340085
 20
112.0406982825658986
 30
0.0
 40
0.068886925685224
 50
355.3572237852595777
 51
187.2571457361084128
  0
CIRCLE
  5
ED2A
  8
0
 10
4294.5461169078998864
 20
112.0432974949825962
 30
0.0
 40
0.0947674677291647
  0
CIRCLE
  5
ED2B
  8
0
 10
4294.5220050935986364
 20
112.7465156393964065
 30
0.0
 40
0.024881955890729
  0
CIRCLE
  5
ED2C
  8
0
 10
4294.5204831227492832
 20
112.7515012115966044
 30
0.0
 40
0.0685304788790694
  0
ARC
  5
ED2D
  8
0
 10
4294.5202878857853648
 20
112.7600572424392027
 30
0.0
 40
0.068886925685224
 50
355.3572237852595777
 51
187.2571457361084128
  0
CIRCLE
  5
ED2E
  8
0
 10
4294.5224438283503332
 20
112.7626564548559003
 30
0.0
 40
0.0947674677291647
  0
CIRCLE
  5
ED2F
  8
0
 10
4294.1561533339499874
 20
112.3957384462912046
 30
0.0
 40
0.024881955890729
  0
CIRCLE
  5
ED30
  8
0
 10
4294.1546313630997247
 20
112.400724018491502
 30
0.0
 40
0.0685304788790694
  0
ARC
  5
ED31
  8
0
 10
4294.1544361261348968
 20
112.4092800493340008
 30
0.0
 40
0.068886925685224
 50
355.3572237852595777
 51
187.2571457361084128
  0
CIRCLE
  5
ED32
  8
0
 10
4294.1565920687007747
 20
112.4118792617506983
 30
0.0
 40
0.0947674677291647
  0
CIRCLE
  5
ED33
  8
0
 10
4294.0744164855314011
 20
111.8973251400003051
 30
0.0
 40
0.024881955890729
  0
CIRCLE
  5
ED34
  8
0
 10
4294.0728945146802289
 20
111.9023107122007019
 30
0.0
 40
0.0685304788790694
  0
ARC
  5
ED35
  8
0
 10
4294.07269927771722
 20
111.9108667430432007
 30
0.0
 40
0.068886925685224
 50
355.3572237852595777
 51
187.2571457361084128
  0
CIRCLE
  5
ED36
  8
0
 10
4294.0748552202821884
 20
111.9134659554598983
 30
0.0
 40
0.0947674677291647
  0
CIRCLE
  5
ED37
  8
0
 10
4294.0486954778607469
 20
111.3953736713741023
 30
0.0
 40
0.024881955890729
  0
CIRCLE
  5
ED38
  8
0
 10
4294.0471735070095747
 20
111.4003592435744991
 30
0.0
 40
0.0685304788790694
  0
ARC
  5
ED39
  8
0
 10
4294.0469782700456562
 20
111.4089152744169979
 30
0.0
 40
0.068886925685224
 50
355.3572237852595777
 51
187.2571457361084128
  0
CIRCLE
  5
ED3A
  8
0
 10
4294.0491342126106247
 20
111.4115144868336955
 30
0.0
 40
0.0947674677291647
  0
CIRCLE
  5
ED3B
  8
0
 10
4294.0338590289720742
 20
110.896901253482298
 30
0.0
 40
0.024881955890729
  0
CIRCLE
  5
ED3C
  8
0
 10
4294.0323370581218114
 20
110.9018868256825954
 30
0.0
 40
0.0685304788790694
  0
ARC
  5
ED3D
  8
0
 10
4294.0321418211569835
 20
110.9104428565250942
 30
0.0
 40
0.068886925685224
 50
355.3572237852595777
 51
187.2571457361084128
  0
CIRCLE
  5
ED3E
  8
0
 10
4294.0342977637219519
 20
110.9130420689419054
 30
0.0
 40
0.0947674677291647
  0
CIRCLE
  5
ED3F
  8
0
 10
4294.4068035396330743
 20
111.1220148075506984
 30
0.0
 40
0.024881955890729
  0
CIRCLE
  5
ED40
  8
0
 10
4294.405281568781902
 20
111.1270003797509958
 30
0.0
 40
0.0685304788790694
  0
ARC
  5
ED41
  8
0
 10
4294.4050863318188931
 20
111.135556410593594
 30
0.0
 40
0.068886925685224
 50
355.3572237852595777
 51
187.2571457361084128
  0
CIRCLE
  5
ED42
  8
0
 10
4294.4072422743838615
 20
111.1381556230103058
 30
0.0
 40
0.0947674677291647
  0
CIRCLE
  5
ED43
  8
0
 10
4294.4482984460300941
 20
111.5768946712827017
 30
0.0
 40
0.024881955890729
  0
CIRCLE
  5
ED44
  8
0
 10
4294.4467764751798313
 20
111.581880243482999
 30
0.0
 40
0.0685304788790694
  0
ARC
  5
ED45
  8
0
 10
4294.4465812382159129
 20
111.5904362743255973
 30
0.0
 40
0.068886925685224
 50
355.3572237852595777
 51
187.2571457361084128
  0
CIRCLE
  5
ED46
  8
0
 10
4294.4487371807808813
 20
111.5930354867422949
 30
0.0
 40
0.0947674677291647
  0
CIRCLE
  5
ED47
  8
0
 10
4294.7864118122379296
 20
111.2766650528203058
 30
0.0
 40
0.024881955890729
  0
CIRCLE
  5
ED48
  8
0
 10
4294.7848898413885763
 20
111.2816506250207027
 30
0.0
 40
0.0685304788790694
  0
ARC
  5
ED49
  8
0
 10
4294.7846946044237484
 20
111.2902066558632015
 30
0.0
 40
0.068886925685224
 50
355.3572237852595777
 51
187.2571457361084128
  0
CIRCLE
  5
ED4A
  8
0
 10
4294.7868505469896263
 20
111.2928058682798991
 30
0.0
 40
0.0947674677291647
  0
CIRCLE
  5
ED4B
  8
0
 10
4294.0454808765243797
 20
110.3999005140889977
 30
0.0
 40
0.024881955890729
  0
CIRCLE
  5
ED4C
  8
0
 10
4294.0439589056732075
 20
110.4048860862892951
 30
0.0
 40
0.0685304788790694
  0
ARC
  5
ED4D
  8
0
 10
4294.043763668709289
 20
110.4134421171318934
 30
0.0
 40
0.068886925685224
 50
355.3572237852595777
 51
187.2571457361084128
  0
CIRCLE
  5
ED4E
  8
0
 10
4294.045919611273348
 20
110.4160413295486052
 30
0.0
 40
0.0947674677291647
  0
CIRCLE
  5
ED4F
  8
0
 10
4294.746090398510205
 20
110.8613005847124953
 30
0.0
 40
0.024881955890729
  0
CIRCLE
  5
ED50
  8
0
 10
4294.7445684276608517
 20
110.8662861569129063
 30
0.0
 40
0.0685304788790694
  0
ARC
  5
ED51
  8
0
 10
4294.7443731906969333
 20
110.8748421877554051
 30
0.0
 40
0.068886925685224
 50
355.3572237852595777
 51
187.2571457361084128
  0
CIRCLE
  5
ED52
  8
0
 10
4294.7465291332619017
 20
110.8774414001722022
 30
0.0
 40
0.0947674677291647
  0
CIRCLE
  5
ED53
  8
0
 10
4294.7862829178284301
 20
110.450724331923297
 30
0.0
 40
0.024881955890729
  0
CIRCLE
  5
ED54
  8
0
 10
4294.7847609469781673
 20
110.4557099041235944
 30
0.0
 40
0.0685304788790694
  0
ARC
  5
ED55
  8
0
 10
4294.7845657100142489
 20
110.4642659349662068
 30
0.0
 40
0.068886925685224
 50
355.3572237852595777
 51
187.2571457361084128
  0
CIRCLE
  5
ED56
  8
0
 10
4294.7867216525792173
 20
110.4668651473829044
 30
0.0
 40
0.0947674677291647
  0
CIRCLE
  5
ED57
  8
0
 10
4294.4054410545450082
 20
110.6337097148286972
 30
0.0
 40
0.024881955890729
  0
CIRCLE
  5
ED58
  8
0
 10
4294.403919083695655
 20
110.6386952870289946
 30
0.0
 40
0.0685304788790694
  0
ARC
  5
ED59
  8
0
 10
4294.4037238467299176
 20
110.6472513178714934
 30
0.0
 40
0.068886925685224
 50
355.3572237852595777
 51
187.2571457361084128
  0
CIRCLE
  5
ED5A
  8
0
 10
4294.405879789294886
 20
110.6498505302883046
 30
0.0
 40
0.0947674677291647
  0
CIRCLE
  5
ED5B
  8
0
 10
4294.4471514439301245
 20
110.1770286508439938
 30
0.0
 40
0.024881955890729
  0
CIRCLE
  5
ED5C
  8
0
 10
4294.4456294730798618
 20
110.1820142230443054
 30
0.0
 40
0.0685304788790694
  0
ARC
  5
ED5D
  8
0
 10
4294.4454342361159433
 20
110.1905702538869036
 30
0.0
 40
0.068886925685224
 50
355.3572237852595777
 51
187.2571457361084128
  0
CIRCLE
  5
ED5E
  8
0
 10
4294.4475901786800023
 20
110.1931694663036012
 30
0.0
 40
0.0947674677291647
  0
CIRCLE
  5
ED5F
  8
0
 10
4294.9210914466902977
 20
110.0529899369612963
 30
0.0
 40
0.024881955890729
  0
CIRCLE
  5
ED60
  8
0
 10
4294.9195694758391255
 20
110.0579755091615937
 30
0.0
 40
0.0685304788790694
  0
ARC
  5
ED61
  8
0
 10
4294.9193742388761166
 20
110.0665315400042061
 30
0.0
 40
0.068886925685224
 50
355.3572237852595777
 51
187.2571457361084128
  0
CIRCLE
  5
ED62
  8
0
 10
4294.921530181441085
 20
110.0691307524209037
 30
0.0
 40
0.0947674677291647
  0
CIRCLE
  5
ED63
  8
0
 10
4295.2257278505203431
 20
109.756314213775795
 30
0.0
 40
0.024881955890729
  0
CIRCLE
  5
ED64
  8
0
 10
4295.2242058796691708
 20
109.7612997859759929
 30
0.0
 40
0.0685304788790694
  0
ARC
  5
ED65
  8
0
 10
4295.2240106427061619
 20
109.7698558168185059
 30
0.0
 40
0.068886925685224
 50
355.3572237852595777
 51
187.2571457361084128
  0
CIRCLE
  5
ED66
  8
0
 10
4295.2261665852711303
 20
109.772455029235303
 30
0.0
 40
0.0947674677291647
  0
CIRCLE
  5
ED67
  8
0
 10
4295.6366210897640485
 20
109.6223954186387033
 30
0.0
 40
0.024881955890729
  0
CIRCLE
  5
ED68
  8
0
 10
4295.6350991189128763
 20
109.6273809908390007
 30
0.0
 40
0.0685304788790694
  0
ARC
  5
ED69
  8
0
 10
4295.6349038819489579
 20
109.6359370216814995
 30
0.0
 40
0.068886925685224
 50
355.3572237852595777
 51
187.2571457361084128
  0
CIRCLE
  5
ED6A
  8
0
 10
4295.6370598245148358
 20
109.6385362340982965
 30
0.0
 40
0.0947674677291647
  0
CIRCLE
  5
ED6B
  8
0
 10
4295.789119388009567
 20
109.2628989177754022
 30
0.0
 40
0.024881955890729
  0
CIRCLE
  5
ED6C
  8
0
 10
4295.7875974171593043
 20
109.2678844899756996
 30
0.0
 40
0.0685304788790694
  0
ARC
  5
ED6D
  8
0
 10
4295.7874021801962954
 20
109.2764405208181984
 30
0.0
 40
0.068886925685224
 50
355.3572237852595777
 51
187.2571457361084128
  0
CIRCLE
  5
ED6E
  8
0
 10
4295.7895581227612638
 20
109.2790397332349954
 30
0.0
 40
0.0947674677291647
  0
CIRCLE
  5
ED6F
  8
0
 10
4296.062754957625657
 20
109.5876788698027013
 30
0.0
 40
0.0685304788790694
  0
ARC
  5
ED70
  8
0
 10
4296.062559720660829
 20
109.5962349006452996
 30
0.0
 40
0.068886925685224
 50
355.3572237852595777
 51
187.2571457361084128
  0
CIRCLE
  5
ED71
  8
0
 10
4295.3033515438701215
 20
109.3132181629279955
 30
0.0
 40
0.024881955890729
  0
CIRCLE
  5
ED72
  8
0
 10
4295.3018295730207683
 20
109.3182037351281934
 30
0.0
 40
0.0685304788790694
  0
ARC
  5
ED73
  8
0
 10
4295.3016343360559404
 20
109.3267597659708059
 30
0.0
 40
0.068886925685224
 50
355.3572237852595777
 51
187.2571457361084128
  0
CIRCLE
  5
ED74
  8
0
 10
4295.3037902786199993
 20
109.3293589783875035
 30
0.0
 40
0.0947674677291647
  0
CIRCLE
  5
ED75
  8
0
 10
4294.8349864220535892
 20
109.4153912719047952
 30
0.0
 40
0.024881955890729
  0
CIRCLE
  5
ED76
  8
0
 10
4294.833464451204236
 20
109.4203768441052063
 30
0.0
 40
0.0685304788790694
  0
ARC
  5
ED77
  8
0
 10
4294.833269214239408
 20
109.4289328749478045
 30
0.0
 40
0.068886925685224
 50
355.3572237852595777
 51
187.2571457361084128
  0
CIRCLE
  5
ED78
  8
0
 10
4294.8354251568025575
 20
109.4315320873645021
 30
0.0
 40
0.0947674677291647
  0
CIRCLE
  5
ED79
  8
0
 10
4294.9409103461366612
 20
108.9796871418311071
 30
0.0
 40
0.024881955890729
  0
CIRCLE
  5
ED7A
  8
0
 10
4294.939388375287308
 20
108.9846727140314044
 30
0.0
 40
0.0685304788790694
  0
ARC
  5
ED7B
  8
0
 10
4294.9391931383233896
 20
108.9932287448739032
 30
0.0
 40
0.068886925685224
 50
355.3572237852595777
 51
187.2571457361084128
  0
CIRCLE
  5
ED7C
  8
0
 10
4294.9413490808892675
 20
108.9958279572906008
 30
0.0
 40
0.0947674677291647
  0
CIRCLE
  5
ED7D
  8
0
 10
4294.4719505703533287
 20
109.0893097468938038
 30
0.0
 40
0.024881955890729
  0
CIRCLE
  5
ED7E
  8
0
 10
4294.4704285995030659
 20
109.0942953190941012
 30
0.0
 40
0.0685304788790694
  0
ARC
  5
ED7F
  8
0
 10
4294.470233362540057
 20
109.1028513499366994
 30
0.0
 40
0.068886925685224
 50
355.3572237852595777
 51
187.2571457361084128
  0
CIRCLE
  5
ED80
  8
0
 10
4294.4723893051041159
 20
109.105450562353397
 30
0.0
 40
0.0947674677291647
  0
CIRCLE
  5
ED81
  8
0
 10
4294.1558935682205629
 20
109.4115386554040015
 30
0.0
 40
0.024881955890729
  0
CIRCLE
  5
ED82
  8
0
 10
4294.1543715973703002
 20
109.4165242276041994
 30
0.0
 40
0.0685304788790694
  0
ARC
  5
ED83
  8
0
 10
4294.1541763604063817
 20
109.4250802584466982
 30
0.0
 40
0.068886925685224
 50
355.3572237852595777
 51
187.2571457361084128
  0
CIRCLE
  5
ED84
  8
0
 10
4294.1563323029713501
 20
109.4276794708634952
 30
0.0
 40
0.0947674677291647
  0
CIRCLE
  5
ED85
  8
0
 10
4294.5439404708968141
 20
109.7327607846595043
 30
0.0
 40
0.024881955890729
  0
CIRCLE
  5
ED86
  8
0
 10
4294.5424185000465513
 20
109.7377463568598017
 30
0.0
 40
0.0685304788790694
  0
ARC
  5
ED87
  8
0
 10
4294.5422232630844519
 20
109.7463023877023005
 30
0.0
 40
0.068886925685224
 50
355.3572237852595777
 51
187.2571457361084128
  0
CIRCLE
  5
ED88
  8
0
 10
4294.5443792056476013
 20
109.7489016001190976
 30
0.0
 40
0.0947674677291647
  0
CIRCLE
  5
ED89
  8
0
 10
4294.0719287443316716
 20
109.9014467867744997
 30
0.0
 40
0.024881955890729
  0
CIRCLE
  5
ED8A
  8
0
 10
4294.0704067734832279
 20
109.9064323589747971
 30
0.0
 40
0.0685304788790694
  0
ARC
  5
ED8B
  8
0
 10
4294.0702115365184
 20
109.9149883898173954
 30
0.0
 40
0.068886925685224
 50
355.3572237852595777
 51
187.2571457361084128
  0
CIRCLE
  5
ED8C
  8
0
 10
4294.0723674790833684
 20
109.917587602234093
 30
0.0
 40
0.0947674677291647
  0
CIRCLE
  5
ED8D
  8
0
 10
4295.5334003593006855
 20
111.4609310429190003
 30
0.0
 40
0.0712347942688798
  0
CIRCLE
  5
ED8E
  8
0
 10
4295.5353973152541585
 20
111.4666935556785035
 30
0.0
 40
0.1287741863770954
  0
CIRCLE
  5
ED8F
  8
0
 10
4295.5349686714025665
 20
111.4779258604172014
 30
0.0
 40
0.1688836336931854
  0
ARC
  5
ED90
  8
0
 10
4295.5312069736110061
 20
111.5375797101286963
 30
0.0
 40
0.0848939267061581
 50
219.6218566209246887
 51
323.6564118970899244
  0
CIRCLE
  5
ED91
  8
0
 10
4295.2512066073968526
 20
110.9896301875899951
 30
0.0
 40
0.0712347942688798
  0
CIRCLE
  5
ED92
  8
0
 10
4295.2532035633494161
 20
110.9953927003494982
 30
0.0
 40
0.1287741863770954
  0
CIRCLE
  5
ED93
  8
0
 10
4295.2527749194969147
 20
111.0066250050881962
 30
0.0
 40
0.1688836336931854
  0
ARC
  5
ED94
  8
0
 10
4295.2490132217071732
 20
111.0662788547997053
 30
0.0
 40
0.0848939267061581
 50
219.6218566209246887
 51
323.6564118970899244
  0
CIRCLE
  5
ED95
  8
0
 10
4295.3501314859149716
 20
110.4519528847249035
 30
0.0
 40
0.0712347942688798
  0
CIRCLE
  5
ED96
  8
0
 10
4295.3521284418684445
 20
110.4577153974844066
 30
0.0
 40
0.1287741863770954
  0
CIRCLE
  5
ED97
  8
0
 10
4295.3516997980159431
 20
110.4689477022233035
 30
0.0
 40
0.1688836336931854
  0
ARC
  5
ED98
  8
0
 10
4295.3479381002252921
 20
110.5286015519346989
 30
0.0
 40
0.0848939267061581
 50
219.6218566209246887
 51
323.6564118970899244
  0
CIRCLE
  5
ED99
  8
0
 10
4295.7812666137051565
 20
110.097643560939801
 30
0.0
 40
0.0712347942688798
  0
CIRCLE
  5
ED9A
  8
0
 10
4295.7832635696568104
 20
110.1034060736992046
 30
0.0
 40
0.1287741863770954
  0
CIRCLE
  5
ED9B
  8
0
 10
4295.782834925806128
 20
110.1146383784380021
 30
0.0
 40
0.1688836336931854
  0
ARC
  5
ED9C
  8
0
 10
4295.7790732280136581
 20
110.174292228149497
 30
0.0
 40
0.0848939267061581
 50
219.6218566209246887
 51
323.6564118970899244
  0
ARC
  5
ED9D
  8
0
 10
4296.063138451057057
 20
107.8392810953667009
 30
0.0
 40
0.4789494524161018
 50
237.2135548900319861
 51
270.0314217395381888
  0
ARC
  5
ED9E
  8
0
 10
4296.1002399042217803
 20
107.896235533983301
 30
0.0
 40
0.5469216441716512
 50
213.8679605883835961
 51
237.1769268720910873
  0
ARC
  5
ED9F
  8
0
 10
4296.3808126058747803
 20
108.0849947383472056
 30
0.0
 40
0.8850798792340793
 50
201.6011863684313994
 51
213.8921393158366016
  0
ARC
  5
EDA0
  8
0
 10
4293.6727715251763584
 20
107.062376764191697
 30
0.0
 40
2.0097728105841108
 50
20.2853939467165603
 51
26.8120057853288287
  0
ARC
  5
EDA1
  8
0
 10
4294.8078164874195863
 20
107.5920981448407048
 30
0.0
 40
0.7588300241061477
 50
29.7736522959205701
 51
56.1193357422142967
  0
ARC
  5
EDA2
  8
0
 10
4294.3025709556750371
 20
109.2446317549675001
 30
0.0
 40
0.5884085943271947
 50
223.5887928130995874
 51
242.6607859363230091
  0
ARC
  5
EDA3
  8
0
 10
4295.1975141241737219
 20
111.1848020011110947
 30
0.0
 40
2.72457116905343
 50
244.6812183344216862
 51
253.3295913906285932
  0
ARC
  5
EDA4
  8
0
 10
4294.2600401076151684
 20
106.7893295640483018
 30
0.0
 40
1.730670194757143
 50
55.8793540676216907
 51
65.7344466779408663
  0
ARC
  5
EDA5
  8
0
 10
4292.8786361945849421
 20
103.6167002628154989
 30
0.0
 40
5.1909004797067251
 50
66.2254802457190266
 51
72.7734160046900342
  0
ARC
  5
EDA6
  8
0
 10
4294.2754372279669042
 20
109.1977323189963016
 30
0.0
 40
0.5366363841773635
 50
192.2493206171648126
 51
221.9591309083610042
  0
ARC
  5
EDA7
  8
0
 10
4296.8681725380356511
 20
109.8405483401457019
 30
0.0
 40
3.2076789637653502
 50
185.8325323295817952
 51
193.6443239254836044
  0
ARC
  5
EDA8
  8
0
 10
4306.1799853295879075
 20
110.7003274524186054
 30
0.0
 40
12.5589871546359593
 50
181.3268580118242141
 51
185.4176065894552039
  0
ARC
  5
EDA9
  8
0
 10
4314.3320214687746557
 20
110.9469135954813055
 30
0.0
 40
20.7146278906779386
 50
179.2379890241801093
 51
181.4865969944314941
  0
ARC
  5
EDAA
  8
0
 10
4314.3527308850452755
 20
110.9022291874778006
 30
0.0
 40
20.7359772883094315
 50
177.4877398458262121
 51
179.1152929419993995
  0
ARC
  5
EDAB
  8
0
 10
4302.0764953871403122
 20
111.4703150201309967
 30
0.0
 40
8.4466911936235842
 50
174.3700698814668044
 51
177.6873948643873007
  0
ARC
  5
EDAC
  8
0
 10
4296.7502948370956801
 20
112.0535272742703938
 30
0.0
 40
3.089511878972063
 50
165.2714767466885917
 51
175.4436041063003984
  0
ARC
  5
EDAD
  8
0
 10
4294.4277571983584494
 20
112.6422067234944961
 30
0.0
 40
0.693935020232579
 50
151.7061720764870074
 51
163.5566342210711923
  0
ARC
  5
EDAE
  8
0
 10
4294.1419460220458859
 20
112.7967138140616044
 30
0.0
 40
0.369035270745693
 50
133.1435992457298028
 51
151.7954898293523911
  0
ARC
  5
EDAF
  8
0
 10
4294.1825535947500612
 20
112.7226615598104047
 30
0.0
 40
0.4513248555763856
 50
109.3128504566595041
 51
130.475398919476504
  0
ARC
  5
EDB0
  8
0
 10
4294.4898716702400634
 20
111.811782536746307
 30
0.0
 40
1.4126285130955569
 50
98.002904122823935
 51
108.8574767439193067
  0
ARC
  5
EDB1
  8
0
 10
4295.2560861951769766
 20
106.8267489303711955
 30
0.0
 40
6.4561122536217788
 50
92.9400760625395748
 51
98.5772777265210465
  0
ARC
  5
EDB2
  8
0
 10
4296.0357331311515736
 20
93.0697786282383959
 30
0.0
 40
20.2350955523723393
 50
89.9137217122703589
 51
93.1467910794517167
  0
ARC
  5
EDB3
  8
0
 10
4294.6847085564741064
 20
107.5829740712753022
 30
0.0
 40
0.7590759033150988
 50
10.92523344719962
 51
26.4060527395186213
  0
ARC
  5
EDB4
  8
0
 10
4293.7738984822008206
 20
107.3867079764650043
 30
0.0
 40
1.690695056943526
 50
4.8120802620279672
 51
11.6059054663076306
  0
ARC
  5
EDB5
  8
0
 10
4287.6792084759681529
 20
106.9468942123566961
 30
0.0
 40
7.8011391679517219
 50
359.7236425329616054
 51
4.2758659380271427
  0
ARC
  5
EDB6
  8
0
 10
4529.023807879279957
 20
110.5672229270292064
 30
0.0
 40
233.5721962221888077
 50
180.8973414736391874
 51
181.6333252196151022
  0
ARC
  5
EDB7
  8
0
 10
4435.2171498223424351
 20
109.0495589110648069
 30
0.0
 40
139.7833703145365973
 50
181.8479403228986087
 51
182.1073534692694125
  0
ARC
  5
EDB8
  8
0
 10
4834.8185904019774171
 20
117.8394333313563038
 30
0.0
 40
539.4760223589197494
 50
181.168684484440206
 51
181.4124194419248965
  0
ARC
  5
EDB9
  8
0
 10
4254.7034931600137497
 20
105.8746621687897971
 30
0.0
 40
40.762640937166303
 50
1.3517883486813871
 51
2.200517505678973
  0
ARC
  5
EDBA
  8
0
 10
4293.5074573653619154
 20
107.3987082619968021
 30
0.0
 40
1.9290552255037501
 50
1.2211285354762591
 51
15.6952573906606698
  0
ARC
  5
EDBB
  8
0
 10
4294.8157809017739055
 20
107.6535319289689028
 30
0.0
 40
0.6103195433244352
 50
25.9456299200378595
 51
56.2008061412860869
  0
ARC
  5
EDBC
  8
0
 10
4294.0591264407521521
 20
106.5225536959980985
 30
0.0
 40
1.9710684893912971
 50
56.2115899608271192
 51
67.1469886265014253
  0
ARC
  5
EDBD
  8
0
 10
4292.9803572278142383
 20
104.0978501221333943
 30
0.0
 40
4.6246998871548142
 50
66.4976350652191144
 51
71.8585676075482525
  0
ARC
  5
EDBE
  8
0
 10
4296.6319278797627703
 20
115.261066421328195
 30
0.0
 40
7.1205709893982423
 50
248.577209198845992
 51
251.904965502993889
  0
ARC
  5
EDBF
  8
0
 10
4294.8030276642930403
 20
109.3994803089374983
 30
0.0
 40
1.1920773937731599
 50
188.5511804893428973
 51
202.427650569137711
  0
ARC
  5
EDC0
  8
0
 10
4294.2369330298188288
 20
109.1883790364103959
 30
0.0
 40
0.5886314335711541
 50
204.4566272926830948
 51
227.8555606670745988
  0
ARC
  5
EDC1
  8
0
 10
4294.321116893582257
 20
109.3011308195707016
 30
0.0
 40
0.7288396430969774
 50
228.8962927104824985
 51
246.5571788384766023
  0
ARC
  5
EDC2
  8
0
 10
4302.3728456561093481
 20
110.594081502537307
 30
0.0
 40
8.8568167159826476
 50
181.4073565159062866
 51
188.8945755772755888
  0
ARC
  5
EDC3
  8
0
 10
4313.9464020561817961
 20
111.0792754103399034
 30
0.0
 40
20.4397864662149011
 50
178.4328867128481022
 51
181.97022350581301
  0
ARC
  5
EDC4
  8
0
 10
4305.5168373816140956
 20
111.3826752180871011
 30
0.0
 40
12.0053471812093608
 50
175.2760078349012076
 51
178.7801167294323932
  0
ARC
  5
EDC5
  8
0
 10
4298.2598448271037341
 20
111.9901408958236004
 30
0.0
 40
4.7229847242969907
 50
169.9173154113643989
 51
175.3699817957055132
  0
ARC
  5
EDC6
  8
0
 10
4294.8656070130264197
 20
112.6209266912066056
 30
0.0
 40
1.2710188566502489
 50
156.9657551384619012
 51
171.1263036584392978
  0
ARC
  5
EDC7
  8
0
 10
4294.1643068053963361
 20
112.9102467319340946
 30
0.0
 40
0.5124918539050638
 50
132.1216873764743127
 51
156.0542553992204091
  0
ARC
  5
EDC8
  8
0
 10
4294.1488981998436429
 20
112.9107610691030033
 30
0.0
 40
0.5018980964826379
 50
109.2690763897916071
 51
130.8562628275709869
  0
ARC
  5
EDC9
  8
0
 10
4294.8375903611467947
 20
111.0569441733826039
 30
0.0
 40
2.4794309955599232
 50
107.0589548644869069
 51
110.1551426085380996
  0
ARC
  5
EDCA
  8
0
 10
4295.1893184878017564
 20
108.1918424730548054
 30
0.0
 40
5.3454950062696422
 50
92.2138801172763038
 51
101.6462002745088995
  0
ARC
  5
EDCB
  8
0
 10
4296.0395682571806901
 20
92.3111270370579859
 30
0.0
 40
21.2485141636531303
 50
89.9309264219838695
 51
92.8506487619132344
  0
ARC
  5
EDCC
  8
0
 10
4296.064122110147764
 20
107.8383500374169017
 30
0.0
 40
0.4501315533967049
 50
248.6788860156688941
 51
269.8933192783304094
  0
ARC
  5
EDCD
  8
0
 10
4296.070632265178574
 20
107.857551484010898
 30
0.0
 40
0.4703867517865711
 50
233.1470616626006915
 51
248.7905768689934973
  0
ARC
  5
EDCE
  8
0
 10
4296.0955493917217609
 20
107.8853166313205065
 30
0.0
 40
0.507558809254345
 50
214.2267659031697917
 51
232.7761626703677962
  0
ARC
  5
EDCF
  8
0
 10
4296.5128042465748877
 20
108.1499967123110935
 30
0.0
 40
1.001552557130831
 50
200.1745252684040111
 51
213.3199417008459875
  0
ARC
  5
EDD0
  8
0
 10
4293.8953073651846353
 20
107.1715206468292934
 30
0.0
 40
1.792878218028215
 50
20.6768522062558304
 51
25.9576480674445911
  0
ARC
  5
EDD1
  8
0
 10
4294.9013779894221443
 20
107.6561472692563939
 30
0.0
 40
0.6761937103576767
 50
26.3497409631363801
 51
43.3830400929251994
  0
ARC
  5
EDD2
  8
0
 10
4294.7873559863819537
 20
107.5615657228320998
 30
0.0
 40
0.8240835224591997
 50
42.7170445401747401
 51
54.9780969733503966
  0
ARC
  5
EDD3
  8
0
 10
4294.2567099222951583
 20
106.7815416853411961
 30
0.0
 40
1.767451383887773
 50
55.4022540454010368
 51
66.1434857206828326
  0
ARC
  5
EDD4
  8
0
 10
4293.584374512620343
 20
105.3554008880670949
 30
0.0
 40
3.3438858039893189
 50
65.4907730595925273
 51
71.1784467054882271
  0
ARC
  5
EDD5
  8
0
 10
4239.9151303360758902
 20
-51.8854736146695927
 30
0.0
 40
169.4916522286144982
 50
71.1547464591185843
 51
71.3055855075341469
  0
ARC
  5
EDD6
  8
0
 10
4294.7742444268560575
 20
110.1932256809447068
 30
0.0
 40
1.619573405988989
 50
244.0078517184338978
 51
250.7656857873164995
  0
ARC
  5
EDD7
  8
0
 10
4294.3138239700920167
 20
109.2559238110692945
 30
0.0
 40
0.5753056800796014
 50
222.5326518221366996
 51
244.3146136930321859
  0
ARC
  5
EDD8
  8
0
 10
4294.2287988354419213
 20
109.1592766206747029
 30
0.0
 40
0.447527822396905
 50
199.8464416557285972
 51
220.7731907546020125
  0
ARC
  5
EDD9
  8
0
 10
4295.1422512623103103
 20
109.4880042363951986
 30
0.0
 40
1.418330025565937
 50
187.3192339062744907
 51
199.8095038997412018
  0
ARC
  5
EDDA
  8
0
 10
4298.8672595221669326
 20
110.1121742364180989
 30
0.0
 40
5.1945146425102653
 50
186.948312804409511
 51
188.9135811617194918
  0
ARC
  5
EDDB
  8
0
 10
4304.3747458854222714
 20
110.6171406401956006
 30
0.0
 40
10.7239095655763705
 50
183.9650311849487139
 51
186.066691521312606
  0
ARC
  5
EDDC
  8
0
 10
4303.28251927600013
 20
110.4881619277419986
 30
0.0
 40
9.6255254114179802
 50
181.7659347288966103
 51
183.6486841592914061
  0
ARC
  5
EDDD
  8
0
 10
4315.5301898473808251
 20
110.9865361874427947
 30
0.0
 40
21.8830701241792411
 50
180.4241549596821983
 51
182.0819805265591924
  0
ARC
  5
EDDE
  8
0
 10
3857.7390934227541948
 20
111.0330699442447013
 30
0.0
 40
435.9086758044870749
 50
359.9725907811971979
 51
0.0141530706378068
  0
ARC
  5
EDDF
  8
0
 10
4313.2448633278891066
 20
110.957378760711407
 30
0.0
 40
19.5979652612734512
 50
178.335754150545597
 51
179.46390430129739
  0
ARC
  5
EDE0
  8
0
 10
4314.9054311026457071
 20
110.9292984656761973
 30
0.0
 40
21.2586576513610908
 50
177.7242092468445094
 51
178.3900849975564995
  0
ARC
  5
EDE1
  8
0
 10
4305.0637567210869747
 20
111.3344040952399041
 30
0.0
 40
11.4086677441760909
 50
176.2672994754744877
 51
177.7944043963566116
  0
LINE
  5
EDE2
  8
0
 10
4293.6792011761608592
 20
112.0896720182742001
 30
0.0
 11
4293.6792910382537229
 21
112.0771293562964956
 31
0.0
  0
ARC
  5
EDE3
  8
0
 10
4300.6953324613432414
 20
111.6366916645342968
 30
0.0
 40
7.0307388951505914
 50
174.2929833919054943
 51
176.3059569700704969
  0
ARC
  5
EDE4
  8
0
 10
4335.3038232080962189
 20
106.0965446318795955
 30
0.0
 40
42.0696247549130717
 50
171.0453769546869864
 51
171.4710690271828923
  0
ARC
  5
EDE5
  8
0
 10
4295.2975606056970719
 20
112.3873541002530061
 30
0.0
 40
1.571836427714626
 50
163.4919130246373129
 51
170.5742083853085092
  0
ARC
  5
EDE6
  8
0
 10
4294.3035652717308039
 20
112.6938964353400934
 30
0.0
 40
0.5318332603692049
 50
141.7580962555348094
 51
164.7268510215942001
  0
ARC
  5
EDE7
  8
0
 10
4294.1583609207564223
 20
112.7690148089317006
 30
0.0
 40
0.3725741055184182
 50
108.1965067103731997
 51
137.003694371344011
  0
ARC
  5
EDE8
  8
0
 10
4294.3909689263737164
 20
112.1494294512274053
 30
0.0
 40
1.034178320620327
 50
101.5563919003869984
 51
109.7198749160527029
  0
ARC
  5
EDE9
  8
0
 10
4294.8545399064078083
 20
109.7387001856878044
 30
0.0
 40
3.489024189557735
 50
96.2260563406897518
 51
101.0838765969852062
  0
ARC
  5
EDEA
  8
0
 10
4295.5463212581516927
 20
103.2252649558653985
 30
0.0
 40
10.0390836185080303
 50
91.802866622769443
 51
96.1193846966699539
  0
ARC
  5
EDEB
  8
0
 10
4296.0561473123443648
 20
90.5128068087819742
 30
0.0
 40
22.7615524747536817
 50
89.9747073626186022
 51
92.0788302715907463
  0
CIRCLE
  5
EDEC
  8
0
 10
4295.6171936181281126
 20
108.6186694302454043
 30
0.0
 40
0.2840505158532122
  0
CIRCLE
  5
EDED
  8
0
 10
4296.2214459080068991
 20
111.2737054451802976
 30
0.0
 40
0.0433212358218895
  0
CIRCLE
  5
EDEE
  8
0
 10
4296.2213138488468758
 20
111.2796145669633034
 30
0.0
 40
0.0756263202459176
  0
ARC
  5
EDEF
  8
0
 10
4296.2217395504103479
 20
111.2837415088811071
 30
0.0
 40
0.1218367252264427
 50
66.6143168628242961
 51
128.7889313495163037
  0
ARC
  5
EDF0
  8
0
 10
4296.2257896106348198
 20
111.2931070658225963
 30
0.0
 40
0.1116329688273702
 50
310.6779598842907149
 51
66.6143168628242961
  0
ARC
  5
EDF1
  8
0
 10
4296.2204825735234408
 20
111.2992818686652043
 30
0.0
 40
0.1197750099135546
 50
237.1802415871422056
 51
310.6779598842907149
  0
ARC
  5
EDF2
  8
0
 10
4296.2160185398779504
 20
111.2923602875241045
 30
0.0
 40
0.1115387557966256
 50
129.2717848273960044
 51
237.1802415871422056
  0
ARC
  5
EDF3
  8
0
 10
4296.2218781654100894
 20
111.3478323779070962
 30
0.0
 40
0.0472248876198776
 50
236.3157741861130035
 51
303.0160140514097975
  0
CIRCLE
  5
EDF4
  8
0
 10
4296.4691354960650642
 20
111.0719280325784979
 30
0.0
 40
0.0433212358218895
  0
CIRCLE
  5
EDF5
  8
0
 10
4296.4690034369050409
 20
111.0778371543616032
 30
0.0
 40
0.0756263202459176
  0
ARC
  5
EDF6
  8
0
 10
4296.469429138466694
 20
111.0819640962794068
 30
0.0
 40
0.1218367252264427
 50
66.6143168628242961
 51
128.7889313495163037
  0
ARC
  5
EDF7
  8
0
 10
4296.4734791986920754
 20
111.0913296532207966
 30
0.0
 40
0.1116329688273702
 50
310.6779598842907149
 51
66.6143168628242961
  0
ARC
  5
EDF8
  8
0
 10
4296.4681721615797869
 20
111.0975044560634046
 30
0.0
 40
0.1197750099135546
 50
237.1802415871422056
 51
310.6779598842907149
  0
ARC
  5
EDF9
  8
0
 10
4296.4637081279361155
 20
111.0905828749224042
 30
0.0
 40
0.1115387557966256
 50
129.2717848273960044
 51
237.1802415871422056
  0
ARC
  5
EDFA
  8
0
 10
4296.4695677534682545
 20
111.1460549653052965
 30
0.0
 40
0.0472248876198776
 50
236.3157741861130035
 51
303.0160140514097975
  0
CIRCLE
  5
EDFB
  8
0
 10
4296.5262029032319333
 20
110.765128716117502
 30
0.0
 40
0.0433212358218895
  0
CIRCLE
  5
EDFC
  8
0
 10
4296.52607084407191
 20
110.7710378379005931
 30
0.0
 40
0.0756263202459176
  0
ARC
  5
EDFD
  8
0
 10
4296.5264965456353821
 20
110.7751647798183967
 30
0.0
 40
0.1218367252264427
 50
66.6143168628242961
 51
128.7889313495163037
  0
ARC
  5
EDFE
  8
0
 10
4296.530546605859854
 20
110.7845303367599001
 30
0.0
 40
0.1116329688273702
 50
310.6779598842907149
 51
66.6143168628242961
  0
ARC
  5
EDFF
  8
0
 10
4296.5252395687493845
 20
110.790705139602494
 30
0.0
 40
0.1197750099135546
 50
237.1802415871422056
 51
310.6779598842907149
  0
ARC
  5
EE00
  8
0
 10
4296.5207755351029846
 20
110.7837835584613941
 30
0.0
 40
0.1115387557966256
 50
129.2717848273960044
 51
237.1802415871422056
  0
ARC
  5
EE01
  8
0
 10
4296.5266351606369426
 20
110.8392556488443006
 30
0.0
 40
0.0472248876198776
 50
236.3157741861130035
 51
303.0160140514097975
  0
CIRCLE
  5
EE02
  8
0
 10
4296.3638940006703706
 20
110.497647225203707
 30
0.0
 40
0.0433212358218895
  0
CIRCLE
  5
EE03
  8
0
 10
4296.3637619415103472
 20
110.5035563469868976
 30
0.0
 40
0.0756263202459176
  0
ARC
  5
EE04
  8
0
 10
4296.3641876430729099
 20
110.5076832889047012
 30
0.0
 40
0.1218367252264427
 50
66.6143168628242961
 51
128.7889313495163037
  0
ARC
  5
EE05
  8
0
 10
4296.3682377032973818
 20
110.5170488458460056
 30
0.0
 40
0.1116329688273702
 50
310.6779598842907149
 51
66.6143168628242961
  0
ARC
  5
EE06
  8
0
 10
4296.3629306661860028
 20
110.523223648688699
 30
0.0
 40
0.1197750099135546
 50
237.1802415871422056
 51
310.6779598842907149
  0
ARC
  5
EE07
  8
0
 10
4296.3584666325396029
 20
110.5163020675476986
 30
0.0
 40
0.1115387557966256
 50
129.2717848273960044
 51
237.1802415871422056
  0
ARC
  5
EE08
  8
0
 10
4296.3643262580735609
 20
110.571774157930605
 30
0.0
 40
0.0472248876198776
 50
236.3157741861130035
 51
303.0160140514097975
  0
CIRCLE
  5
EE09
  8
0
 10
4296.0602262818256349
 20
110.3882028669968065
 30
0.0
 40
0.0433212358218895
  0
CIRCLE
  5
EE0A
  8
0
 10
4296.0600942226656116
 20
110.3941119887798976
 30
0.0
 40
0.0756263202459176
  0
ARC
  5
EE0B
  8
0
 10
4296.0605199242290837
 20
110.3982389306977012
 30
0.0
 40
0.1218367252264427
 50
66.6143168628242961
 51
128.7889313495163037
  0
ARC
  5
EE0C
  8
0
 10
4296.0645699844535557
 20
110.4076044876392046
 30
0.0
 40
0.1116329688273702
 50
310.6779598842907149
 51
66.6143168628242961
  0
ARC
  5
EE0D
  8
0
 10
4296.0592629473430861
 20
110.413779290481898
 30
0.0
 40
0.1197750099135546
 50
237.1802415871422056
 51
310.6779598842907149
  0
ARC
  5
EE0E
  8
0
 10
4296.0547989136966862
 20
110.4068577093406986
 30
0.0
 40
0.1115387557966256
 50
129.2717848273960044
 51
237.1802415871422056
  0
ARC
  5
EE0F
  8
0
 10
4296.0606585392297347
 20
110.4623297997236051
 30
0.0
 40
0.0472248876198776
 50
236.3157741861130035
 51
303.0160140514097975
  0
CIRCLE
  5
EE10
  8
0
 10
4296.383378802956031
 20
111.7284882654953009
 30
0.0
 40
0.0566230140189084
  0
CIRCLE
  5
EE11
  8
0
 10
4296.384479149710387
 20
111.7298298820917068
 30
0.0
 40
0.0225530929022718
  0
CIRCLE
  5
EE12
  8
0
 10
4296.8783641789714238
 20
111.3278056990854026
 30
0.0
 40
0.0566230140189084
  0
CIRCLE
  5
EE13
  8
0
 10
4296.8794645257257798
 20
111.3291473156818938
 30
0.0
 40
0.0225530929022718
  0
CIRCLE
  5
EE14
  8
0
 10
4296.9912112353467819
 20
110.7142581346762995
 30
0.0
 40
0.0566230140189084
  0
CIRCLE
  5
EE15
  8
0
 10
4296.9923115821029569
 20
110.715599751272805
 30
0.0
 40
0.0225530929022718
  0
CIRCLE
  5
EE16
  8
0
 10
4296.6670493052379243
 20
110.1720215375101048
 30
0.0
 40
0.0566230140189084
  0
CIRCLE
  5
EE17
  8
0
 10
4296.6681496519931898
 20
110.1733631541066956
 30
0.0
 40
0.0225530929022718
  0
CIRCLE
  5
EE18
  8
0
 10
4296.0605093753856636
 20
109.9585066483195988
 30
0.0
 40
0.0566230140189084
  0
CIRCLE
  5
EE19
  8
0
 10
4296.0616097221400196
 20
109.9598482649161042
 30
0.0
 40
0.0225530929022718
  0
CIRCLE
  5
EE1A
  8
0
 10
4296.3134563526273269
 20
112.4762926171949999
 30
0.0
 40
0.024881955890729
  0
CIRCLE
  5
EE1B
  8
0
 10
4296.3149783234766801
 20
112.4812781893952973
 30
0.0
 40
0.0685304788790694
  0
ARC
  5
EE1C
  8
0
 10
4296.3151735604405985
 20
112.4898342202377961
 30
0.0
 40
0.068886925685224
 50
352.7428542638915019
 51
184.6427762147403087
  0
CIRCLE
  5
EE1D
  8
0
 10
4296.3130176178756301
 20
112.4924334326545932
 30
0.0
 40
0.0947674677291647
  0
CIRCLE
  5
EE1E
  8
0
 10
4296.4894320165167301
 20
112.0975726661477978
 30
0.0
 40
0.024881955890729
  0
CIRCLE
  5
EE1F
  8
0
 10
4296.4909539873679023
 20
112.1025582383480952
 30
0.0
 40
0.0685304788790694
  0
ARC
  5
EE20
  8
0
 10
4296.4911492243318207
 20
112.1111142691906934
 30
0.0
 40
0.068886925685224
 50
352.7428542638915019
 51
184.6427762147403087
  0
CIRCLE
  5
EE21
  8
0
 10
4296.4889932817668523
 20
112.1137134816074052
 30
0.0
 40
0.0947674677291647
  0
CIRCLE
  5
EE22
  8
0
 10
4296.5767026261901265
 20
112.8417260791537018
 30
0.0
 40
0.024881955890729
  0
CIRCLE
  5
EE23
  8
0
 10
4296.5782245970412987
 20
112.8467116513540986
 30
0.0
 40
0.0685304788790694
  0
ARC
  5
EE24
  8
0
 10
4296.5784198340052171
 20
112.8552676821965974
 30
0.0
 40
0.068886925685224
 50
352.7428542638915019
 51
184.6427762147403087
  0
CIRCLE
  5
EE25
  8
0
 10
4296.5762638914411582
 20
112.8578668946133945
 30
0.0
 40
0.0947674677291647
  0
CIRCLE
  5
EE26
  8
0
 10
4297.0938681207317131
 20
112.8210587111318972
 30
0.0
 40
0.024881955890729
  0
CIRCLE
  5
EE27
  8
0
 10
4297.0953900915819759
 20
112.8260442833322941
 30
0.0
 40
0.0685304788790694
  0
ARC
  5
EE28
  8
0
 10
4297.0955853285458943
 20
112.8346003141748071
 30
0.0
 40
0.068886925685224
 50
352.7428542638915019
 51
184.6427762147403087
  0
CIRCLE
  5
EE29
  8
0
 10
4297.0934293859809259
 20
112.8371995265915047
 30
0.0
 40
0.0947674677291647
  0
CIRCLE
  5
EE2A
  8
0
 10
4296.7851762875498025
 20
112.4379149255070018
 30
0.0
 40
0.024881955890729
  0
CIRCLE
  5
EE2B
  8
0
 10
4296.7866982584009747
 20
112.4429004977072992
 30
0.0
 40
0.0685304788790694
  0
ARC
  5
EE2C
  8
0
 10
4296.7868934953639837
 20
112.4514565285498975
 30
0.0
 40
0.068886925685224
 50
352.7428542638915019
 51
184.6427762147403087
  0
CIRCLE
  5
EE2D
  8
0
 10
4296.7847375527999247
 20
112.4540557409665951
 30
0.0
 40
0.0947674677291647
  0
CIRCLE
  5
EE2E
  8
0
 10
4297.2468408769309463
 20
112.3487374714234051
 30
0.0
 40
0.024881955890729
  0
CIRCLE
  5
EE2F
  8
0
 10
4297.2483628477802995
 20
112.3537230436237024
 30
0.0
 40
0.0685304788790694
  0
ARC
  5
EE30
  8
0
 10
4297.2485580847451274
 20
112.3622790744663007
 30
0.0
 40
0.068886925685224
 50
352.7428542638915019
 51
184.6427762147403087
  0
CIRCLE
  5
EE31
  8
0
 10
4297.246402142180159
 20
112.3648782868829983
 30
0.0
 40
0.0947674677291647
  0
CIRCLE
  5
EE32
  8
0
 10
4296.8975631197126859
 20
111.9660059802404959
 30
0.0
 40
0.024881955890729
  0
CIRCLE
  5
EE33
  8
0
 10
4296.8990850905638581
 20
111.9709915524407933
 30
0.0
 40
0.0685304788790694
  0
ARC
  5
EE34
  8
0
 10
4296.8992803275277765
 20
111.9795475832834057
 30
0.0
 40
0.068886925685224
 50
352.7428542638915019
 51
184.6427762147403087
  0
CIRCLE
  5
EE35
  8
0
 10
4296.8971243849628081
 20
111.9821467957001033
 30
0.0
 40
0.0947674677291647
  0
CIRCLE
  5
EE36
  8
0
 10
4297.2039783454847566
 20
111.6730892150861933
 30
0.0
 40
0.024881955890729
  0
CIRCLE
  5
EE37
  8
0
 10
4297.2055003163341098
 20
111.6780747872865049
 30
0.0
 40
0.0685304788790694
  0
ARC
  5
EE38
  8
0
 10
4297.2056955532989377
 20
111.6866308181290037
 30
0.0
 40
0.068886925685224
 50
352.7428542638915019
 51
184.6427762147403087
  0
CIRCLE
  5
EE39
  8
0
 10
4297.2035396107330598
 20
111.6892300305458008
 30
0.0
 40
0.0947674677291647
  0
CIRCLE
  5
EE3A
  8
0
 10
4297.5804816861709696
 20
112.0271566795231024
 30
0.0
 40
0.024881955890729
  0
CIRCLE
  5
EE3B
  8
0
 10
4297.5820036570221419
 20
112.0321422517233003
 30
0.0
 40
0.0685304788790694
  0
ARC
  5
EE3C
  8
0
 10
4297.5821988939860603
 20
112.0406982825658986
 30
0.0
 40
0.068886925685224
 50
352.7428542638915019
 51
184.6427762147403087
  0
CIRCLE
  5
EE3D
  8
0
 10
4297.5800429514210919
 20
112.0432974949825962
 30
0.0
 40
0.0947674677291647
  0
CIRCLE
  5
EE3E
  8
0
 10
4297.6041547657214323
 20
112.7465156393964065
 30
0.0
 40
0.024881955890729
  0
CIRCLE
  5
EE3F
  8
0
 10
4297.6056767365716951
 20
112.7515012115966044
 30
0.0
 40
0.0685304788790694
  0
ARC
  5
EE40
  8
0
 10
4297.605871973534704
 20
112.7600572424392027
 30
0.0
 40
0.068886925685224
 50
352.7428542638915019
 51
184.6427762147403087
  0
CIRCLE
  5
EE41
  8
0
 10
4297.6037160309706451
 20
112.7626564548559003
 30
0.0
 40
0.0947674677291647
  0
CIRCLE
  5
EE42
  8
0
 10
4297.9700065253700814
 20
112.3957384462912046
 30
0.0
 40
0.024881955890729
  0
CIRCLE
  5
EE43
  8
0
 10
4297.9715284962212536
 20
112.400724018491502
 30
0.0
 40
0.0685304788790694
  0
ARC
  5
EE44
  8
0
 10
4297.971723733185172
 20
112.4092800493340008
 30
0.0
 40
0.068886925685224
 50
352.7428542638915019
 51
184.6427762147403087
  0
CIRCLE
  5
EE45
  8
0
 10
4297.9695677906202036
 20
112.4118792617506983
 30
0.0
 40
0.0947674677291647
  0
CIRCLE
  5
EE46
  8
0
 10
4298.0517433737886677
 20
111.8973251400003051
 30
0.0
 40
0.024881955890729
  0
CIRCLE
  5
EE47
  8
0
 10
4298.0532653446389304
 20
111.9023107122007019
 30
0.0
 40
0.0685304788790694
  0
ARC
  5
EE48
  8
0
 10
4298.0534605816037583
 20
111.9108667430432007
 30
0.0
 40
0.068886925685224
 50
352.7428542638915019
 51
184.6427762147403087
  0
CIRCLE
  5
EE49
  8
0
 10
4298.0513046390387899
 20
111.9134659554598983
 30
0.0
 40
0.0947674677291647
  0
CIRCLE
  5
EE4A
  8
0
 10
4298.0774643814602314
 20
111.3953736713741023
 30
0.0
 40
0.024881955890729
  0
CIRCLE
  5
EE4B
  8
0
 10
4298.0789863523114036
 20
111.4003592435744991
 30
0.0
 40
0.0685304788790694
  0
ARC
  5
EE4C
  8
0
 10
4298.0791815892744125
 20
111.4089152744169979
 30
0.0
 40
0.068886925685224
 50
352.7428542638915019
 51
184.6427762147403087
  0
CIRCLE
  5
EE4D
  8
0
 10
4298.0770256467094441
 20
111.4115144868336955
 30
0.0
 40
0.0947674677291647
  0
CIRCLE
  5
EE4E
  8
0
 10
4298.0923008303489041
 20
110.896901253482298
 30
0.0
 40
0.024881955890729
  0
CIRCLE
  5
EE4F
  8
0
 10
4298.0938228011991669
 20
110.9018868256825954
 30
0.0
 40
0.0685304788790694
  0
ARC
  5
EE50
  8
0
 10
4298.0940180381621758
 20
110.9104428565250942
 30
0.0
 40
0.068886925685224
 50
352.7428542638915019
 51
184.6427762147403087
  0
CIRCLE
  5
EE51
  8
0
 10
4298.0918620955981169
 20
110.9130420689419054
 30
0.0
 40
0.0947674677291647
  0
CIRCLE
  5
EE52
  8
0
 10
4297.719356319687904
 20
111.1220148075506984
 30
0.0
 40
0.024881955890729
  0
CIRCLE
  5
EE53
  8
0
 10
4297.7208782905381668
 20
111.1270003797509958
 30
0.0
 40
0.0685304788790694
  0
ARC
  5
EE54
  8
0
 10
4297.7210735275020852
 20
111.135556410593594
 30
0.0
 40
0.068886925685224
 50
352.7428542638915019
 51
184.6427762147403087
  0
CIRCLE
  5
EE55
  8
0
 10
4297.7189175849371168
 20
111.1381556230103058
 30
0.0
 40
0.0947674677291647
  0
CIRCLE
  5
EE56
  8
0
 10
4297.6778614132908842
 20
111.5768946712827017
 30
0.0
 40
0.024881955890729
  0
CIRCLE
  5
EE57
  8
0
 10
4297.6793833841402375
 20
111.581880243482999
 30
0.0
 40
0.0685304788790694
  0
ARC
  5
EE58
  8
0
 10
4297.6795786211050654
 20
111.5904362743255973
 30
0.0
 40
0.068886925685224
 50
352.7428542638915019
 51
184.6427762147403087
  0
CIRCLE
  5
EE59
  8
0
 10
4297.677422678540097
 20
111.5930354867422949
 30
0.0
 40
0.0947674677291647
  0
CIRCLE
  5
EE5A
  8
0
 10
4297.3397480470821392
 20
111.2766650528203058
 30
0.0
 40
0.024881955890729
  0
CIRCLE
  5
EE5B
  8
0
 10
4297.341270017932402
 20
111.2816506250207027
 30
0.0
 40
0.0685304788790694
  0
ARC
  5
EE5C
  8
0
 10
4297.3414652548963204
 20
111.2902066558632015
 30
0.0
 40
0.068886925685224
 50
352.7428542638915019
 51
184.6427762147403087
  0
CIRCLE
  5
EE5D
  8
0
 10
4297.339309312331352
 20
111.2928058682798991
 30
0.0
 40
0.0947674677291647
  0
CIRCLE
  5
EE5E
  8
0
 10
4298.0806789827965986
 20
110.3999005140889977
 30
0.0
 40
0.024881955890729
  0
CIRCLE
  5
EE5F
  8
0
 10
4298.0822009536477708
 20
110.4048860862892951
 30
0.0
 40
0.0685304788790694
  0
ARC
  5
EE60
  8
0
 10
4298.0823961906107797
 20
110.4134421171318934
 30
0.0
 40
0.068886925685224
 50
352.7428542638915019
 51
184.6427762147403087
  0
CIRCLE
  5
EE61
  8
0
 10
4298.0802402480458113
 20
110.4160413295486052
 30
0.0
 40
0.0947674677291647
  0
CIRCLE
  5
EE62
  8
0
 10
4297.3800694608089543
 20
110.8613005847124953
 30
0.0
 40
0.024881955890729
  0
CIRCLE
  5
EE63
  8
0
 10
4297.3815914316601265
 20
110.8662861569129063
 30
0.0
 40
0.0685304788790694
  0
ARC
  5
EE64
  8
0
 10
4297.381786668624045
 20
110.8748421877554051
 30
0.0
 40
0.068886925685224
 50
352.7428542638915019
 51
184.6427762147403087
  0
CIRCLE
  5
EE65
  8
0
 10
4297.3796307260590766
 20
110.8774414001722022
 30
0.0
 40
0.0947674677291647
  0
CIRCLE
  5
EE66
  8
0
 10
4297.3398769414916387
 20
110.450724331923297
 30
0.0
 40
0.024881955890729
  0
CIRCLE
  5
EE67
  8
0
 10
4297.3413989123428109
 20
110.4557099041235944
 30
0.0
 40
0.0685304788790694
  0
ARC
  5
EE68
  8
0
 10
4297.3415941493058199
 20
110.4642659349662068
 30
0.0
 40
0.068886925685224
 50
352.7428542638915019
 51
184.6427762147403087
  0
CIRCLE
  5
EE69
  8
0
 10
4297.339438206741761
 20
110.4668651473829044
 30
0.0
 40
0.0947674677291647
  0
CIRCLE
  5
EE6A
  8
0
 10
4297.7207188047759701
 20
110.6337097148286972
 30
0.0
 40
0.024881955890729
  0
CIRCLE
  5
EE6B
  8
0
 10
4297.7222407756253233
 20
110.6386952870289946
 30
0.0
 40
0.0685304788790694
  0
ARC
  5
EE6C
  8
0
 10
4297.7224360125901512
 20
110.6472513178714934
 30
0.0
 40
0.068886925685224
 50
352.7428542638915019
 51
184.6427762147403087
  0
CIRCLE
  5
EE6D
  8
0
 10
4297.7202800700251828
 20
110.6498505302883046
 30
0.0
 40
0.0947674677291647
  0
CIRCLE
  5
EE6E
  8
0
 10
4297.6790084153908538
 20
110.1770286508439938
 30
0.0
 40
0.024881955890729
  0
CIRCLE
  5
EE6F
  8
0
 10
4297.6805303862411165
 20
110.1820142230443054
 30
0.0
 40
0.0685304788790694
  0
ARC
  5
EE70
  8
0
 10
4297.6807256232041254
 20
110.1905702538869036
 30
0.0
 40
0.068886925685224
 50
352.7428542638915019
 51
184.6427762147403087
  0
CIRCLE
  5
EE71
  8
0
 10
4297.6785696806400665
 20
110.1931694663036012
 30
0.0
 40
0.0947674677291647
  0
CIRCLE
  5
EE72
  8
0
 10
4297.2050684126306805
 20
110.0529899369612963
 30
0.0
 40
0.024881955890729
  0
CIRCLE
  5
EE73
  8
0
 10
4297.2065903834800338
 20
110.0579755091615937
 30
0.0
 40
0.0685304788790694
  0
ARC
  5
EE74
  8
0
 10
4297.2067856204448617
 20
110.0665315400042061
 30
0.0
 40
0.068886925685224
 50
352.7428542638915019
 51
184.6427762147403087
  0
CIRCLE
  5
EE75
  8
0
 10
4297.2046296778798933
 20
110.0691307524209037
 30
0.0
 40
0.0947674677291647
  0
CIRCLE
  5
EE76
  8
0
 10
4296.9004320087997257
 20
109.756314213775795
 30
0.0
 40
0.024881955890729
  0
CIRCLE
  5
EE77
  8
0
 10
4296.901953979650898
 20
109.7612997859759929
 30
0.0
 40
0.0685304788790694
  0
ARC
  5
EE78
  8
0
 10
4296.9021492166148164
 20
109.7698558168185059
 30
0.0
 40
0.068886925685224
 50
352.7428542638915019
 51
184.6427762147403087
  0
CIRCLE
  5
EE79
  8
0
 10
4296.899993274049848
 20
109.772455029235303
 30
0.0
 40
0.0947674677291647
  0
CIRCLE
  5
EE7A
  8
0
 10
4296.4895387695569298
 20
109.6223954186387033
 30
0.0
 40
0.024881955890729
  0
CIRCLE
  5
EE7B
  8
0
 10
4296.491060740406283
 20
109.6273809908390007
 30
0.0
 40
0.0685304788790694
  0
ARC
  5
EE7C
  8
0
 10
4296.4912559773711109
 20
109.6359370216814995
 30
0.0
 40
0.068886925685224
 50
352.7428542638915019
 51
184.6427762147403087
  0
CIRCLE
  5
EE7D
  8
0
 10
4296.4891000348061425
 20
109.6385362340982965
 30
0.0
 40
0.0947674677291647
  0
CIRCLE
  5
EE7E
  8
0
 10
4296.3370404713095922
 20
109.2628989177754022
 30
0.0
 40
0.024881955890729
  0
CIRCLE
  5
EE7F
  8
0
 10
4296.3385624421607645
 20
109.2678844899756996
 30
0.0
 40
0.0685304788790694
  0
ARC
  5
EE80
  8
0
 10
4296.3387576791246829
 20
109.2764405208181984
 30
0.0
 40
0.068886925685224
 50
352.7428542638915019
 51
184.6427762147403087
  0
CIRCLE
  5
EE81
  8
0
 10
4296.336601736560624
 20
109.2790397332349954
 30
0.0
 40
0.0947674677291647
  0
CIRCLE
  5
EE82
  8
0
 10
4296.0618829308450586
 20
109.582693297602404
 30
0.0
 40
0.024881955890729
  0
CIRCLE
  5
EE83
  8
0
 10
4296.0614441960942713
 20
109.5988341130619972
 30
0.0
 40
0.0947674677291647
  0
CIRCLE
  5
EE84
  8
0
 10
4296.8228083154499473
 20
109.3132181629279955
 30
0.0
 40
0.024881955890729
  0
CIRCLE
  5
EE85
  8
0
 10
4296.82433028630021
 20
109.3182037351281934
 30
0.0
 40
0.0685304788790694
  0
ARC
  5
EE86
  8
0
 10
4296.8245255232641284
 20
109.3267597659708059
 30
0.0
 40
0.068886925685224
 50
352.7428542638915019
 51
184.6427762147403087
  0
CIRCLE
  5
EE87
  8
0
 10
4296.8223695807000695
 20
109.3293589783875035
 30
0.0
 40
0.0947674677291647
  0
CIRCLE
  5
EE88
  8
0
 10
4297.2911734372655701
 20
109.4153912719047952
 30
0.0
 40
0.024881955890729
  0
CIRCLE
  5
EE89
  8
0
 10
4297.2926954081158328
 20
109.4203768441052063
 30
0.0
 40
0.0685304788790694
  0
ARC
  5
EE8A
  8
0
 10
4297.2928906450797513
 20
109.4289328749478045
 30
0.0
 40
0.068886925685224
 50
352.7428542638915019
 51
184.6427762147403087
  0
CIRCLE
  5
EE8B
  8
0
 10
4297.2907347025156923
 20
109.4315320873645021
 30
0.0
 40
0.0947674677291647
  0
CIRCLE
  5
EE8C
  8
0
 10
4297.1852495131834075
 20
108.9796871418311071
 30
0.0
 40
0.024881955890729
  0
CIRCLE
  5
EE8D
  8
0
 10
4297.1867714840327608
 20
108.9846727140314044
 30
0.0
 40
0.0685304788790694
  0
ARC
  5
EE8E
  8
0
 10
4297.1869667209975887
 20
108.9932287448739032
 30
0.0
 40
0.068886925685224
 50
352.7428542638915019
 51
184.6427762147403087
  0
CIRCLE
  5
EE8F
  8
0
 10
4297.1848107784317108
 20
108.9958279572906008
 30
0.0
 40
0.0947674677291647
  0
CIRCLE
  5
EE90
  8
0
 10
4297.6542092889676496
 20
109.0893097468938038
 30
0.0
 40
0.024881955890729
  0
CIRCLE
  5
EE91
  8
0
 10
4297.6557312598160934
 20
109.0942953190941012
 30
0.0
 40
0.0685304788790694
  0
ARC
  5
EE92
  8
0
 10
4297.6559264967818308
 20
109.1028513499366994
 30
0.0
 40
0.068886925685224
 50
352.7428542638915019
 51
184.6427762147403087
  0
CIRCLE
  5
EE93
  8
0
 10
4297.6537705542168624
 20
109.105450562353397
 30
0.0
 40
0.0947674677291647
  0
CIRCLE
  5
EE94
  8
0
 10
4297.9702662911004154
 20
109.4115386554040015
 30
0.0
 40
0.024881955890729
  0
CIRCLE
  5
EE95
  8
0
 10
4297.9717882619506781
 20
109.4165242276041994
 30
0.0
 40
0.0685304788790694
  0
ARC
  5
EE96
  8
0
 10
4297.9719834989136871
 20
109.4250802584466982
 30
0.0
 40
0.068886925685224
 50
352.7428542638915019
 51
184.6427762147403087
  0
CIRCLE
  5
EE97
  8
0
 10
4297.9698275563487186
 20
109.4276794708634952
 30
0.0
 40
0.0947674677291647
  0
CIRCLE
  5
EE98
  8
0
 10
4297.5822193884232547
 20
109.7327607846595043
 30
0.0
 40
0.024881955890729
  0
CIRCLE
  5
EE99
  8
0
 10
4297.583741359272608
 20
109.7377463568598017
 30
0.0
 40
0.0685304788790694
  0
ARC
  5
EE9A
  8
0
 10
4297.5839365962374359
 20
109.7463023877023005
 30
0.0
 40
0.068886925685224
 50
352.7428542638915019
 51
184.6427762147403087
  0
CIRCLE
  5
EE9B
  8
0
 10
4297.5817806536733769
 20
109.7489016001190976
 30
0.0
 40
0.0947674677291647
  0
CIRCLE
  5
EE9C
  8
0
 10
4298.0542311149883972
 20
109.9014467867744997
 30
0.0
 40
0.024881955890729
  0
CIRCLE
  5
EE9D
  8
0
 10
4298.0557530858377504
 20
109.9064323589747971
 30
0.0
 40
0.0685304788790694
  0
ARC
  5
EE9E
  8
0
 10
4298.0559483228025783
 20
109.9149883898173954
 30
0.0
 40
0.068886925685224
 50
352.7428542638915019
 51
184.6427762147403087
  0
CIRCLE
  5
EE9F
  8
0
 10
4298.0537923802376099
 20
109.917587602234093
 30
0.0
 40
0.0947674677291647
  0
CIRCLE
  5
EEA0
  8
0
 10
4296.5927595000193833
 20
111.4609310429190003
 30
0.0
 40
0.0712347942688798
  0
CIRCLE
  5
EEA1
  8
0
 10
4296.5907625440668198
 20
111.4666935556785035
 30
0.0
 40
0.1287741863770954
  0
CIRCLE
  5
EEA2
  8
0
 10
4296.5911911879184117
 20
111.4779258604172014
 30
0.0
 40
0.1688836336931854
  0
ARC
  5
EEA3
  8
0
 10
4296.5949528857099722
 20
111.5375797101286963
 30
0.0
 40
0.0848939267061581
 50
216.343588102910104
 51
320.3781433790751976
  0
CIRCLE
  5
EEA4
  8
0
 10
4296.8749532519241257
 20
110.9896301875899951
 30
0.0
 40
0.0712347942688798
  0
CIRCLE
  5
EEA5
  8
0
 10
4296.8729562959706527
 20
110.9953927003494982
 30
0.0
 40
0.1287741863770954
  0
CIRCLE
  5
EEA6
  8
0
 10
4296.8733849398231541
 20
111.0066250050881962
 30
0.0
 40
0.1688836336931854
  0
ARC
  5
EEA7
  8
0
 10
4296.8771466376138051
 20
111.0662788547997053
 30
0.0
 40
0.0848939267061581
 50
216.343588102910104
 51
320.3781433790751976
  0
CIRCLE
  5
EEA8
  8
0
 10
4296.7760283734060067
 20
110.4519528847249035
 30
0.0
 40
0.0712347942688798
  0
CIRCLE
  5
EEA9
  8
0
 10
4296.7740314174534433
 20
110.4577153974844066
 30
0.0
 40
0.1287741863770954
  0
CIRCLE
  5
EEAA
  8
0
 10
4296.7744600613050352
 20
110.4689477022233035
 30
0.0
 40
0.1688836336931854
  0
ARC
  5
EEAB
  8
0
 10
4296.7782217590956861
 20
110.5286015519346989
 30
0.0
 40
0.0848939267061581
 50
216.343588102910104
 51
320.3781433790751976
  0
CIRCLE
  5
EEAC
  8
0
 10
4296.3448932456158218
 20
110.097643560939801
 30
0.0
 40
0.0712347942688798
  0
CIRCLE
  5
EEAD
  8
0
 10
4296.3428962896632584
 20
110.1034060736992046
 30
0.0
 40
0.1287741863770954
  0
CIRCLE
  5
EEAE
  8
0
 10
4296.3433249335148503
 20
110.1146383784380021
 30
0.0
 40
0.1688836336931854
  0
ARC
  5
EEAF
  8
0
 10
4296.3470866313064107
 20
110.174292228149497
 30
0.0
 40
0.0848939267061581
 50
216.343588102910104
 51
320.3781433790751976
  0
ARC
  5
EEB0
  8
0
 10
4296.0630210004756009
 20
107.8392819867937931
 30
0.0
 40
0.4789504226553062
 50
270.0454720324764253
 51
302.7864283751551966
  0
ARC
  5
EEB1
  8
0
 10
4296.0259199550982885
 20
107.896235533983301
 30
0.0
 40
0.5469216441716512
 50
302.8230731279089127
 51
326.1320394116124248
  0
ARC
  5
EEB2
  8
0
 10
4295.745347253446198
 20
108.0849947383472056
 30
0.0
 40
0.8850798792340793
 50
326.1078606841633132
 51
338.3988136315684869
  0
ARC
  5
EEB3
  8
0
 10
4298.4533883341437104
 20
107.062376764191697
 30
0.0
 40
2.0097728105841108
 50
153.1879942146711073
 51
159.7146060532834042
  0
ARC
  5
EEB4
  8
0
 10
4297.3183433719013919
 20
107.5920981448407048
 30
0.0
 40
0.7588300241061477
 50
123.8806642577856962
 51
150.2263477040793873
  0
ARC
  5
EEB5
  8
0
 10
4297.8235889036450317
 20
109.2446317549675001
 30
0.0
 40
0.5884085943271947
 50
297.3392140636768772
 51
316.4112071869002989
  0
ARC
  5
EEB6
  8
0
 10
4296.9286457351472563
 20
111.1848020011110947
 30
0.0
 40
2.72457116905343
 50
286.6704086093714068
 51
295.318781665578399
  0
ARC
  5
EEB7
  8
0
 10
4297.8661197517049004
 20
106.7893295640483018
 30
0.0
 40
1.730670194757143
 50
114.2655533220591053
 51
124.1206459323782951
  0
ARC
  5
EEB8
  8
0
 10
4299.2475236647342172
 20
103.6167002628154989
 30
0.0
 40
5.1909004797067251
 50
107.2265839953098947
 51
113.7745197542809024
  0
ARC
  5
EEB9
  8
0
 10
4297.8507226313540741
 20
109.1977323189963016
 30
0.0
 40
0.5366363841773635
 50
318.0408690916390242
 51
347.7506793828350737
  0
ARC
  5
EEBA
  8
0
 10
4295.2579873212853272
 20
109.8405483401457019
 30
0.0
 40
3.2076789637653502
 50
346.3556760745162819
 51
354.1674676704180911
  0
ARC
  5
EEBB
  8
0
 10
4285.9461745297321613
 20
110.7003274524186054
 30
0.0
 40
12.5589871546359593
 50
354.5823934105446824
 51
358.6731419881758143
  0
ARC
  5
EEBC
  8
0
 10
4277.7941383905463226
 20
110.9469135954813055
 30
0.0
 40
20.7146278906779386
 50
358.5134030055684207
 51
0.7620109758198736
  0
ARC
  5
EEBD
  8
0
 10
4277.7734289742757028
 20
110.9022291874778006
 30
0.0
 40
20.7359772883094315
 50
0.8847070580006176
 51
2.512260154173743
  0
ARC
  5
EEBE
  8
0
 10
4290.0496644721806661
 20
111.4703150201309967
 30
0.0
 40
8.4466911936235842
 50
2.3126051356126598
 51
5.6299301185331201
  0
ARC
  5
EEBF
  8
0
 10
4295.3758650222252982
 20
112.0535272742703938
 30
0.0
 40
3.089511878972063
 50
4.5563958936996114
 51
14.7285232533106303
  0
ARC
  5
EEC0
  8
0
 10
4297.6984026609616194
 20
112.6422067234944961
 30
0.0
 40
0.693935020232579
 50
16.4433657789287189
 51
28.2938279235130388
  0
ARC
  5
EEC1
  8
0
 10
4297.9842138372760019
 20
112.7967138140616044
 30
0.0
 40
0.369035270745693
 50
28.2045101706476409
 51
46.8564007542701475
  0
ARC
  5
EEC2
  8
0
 10
4297.9436062645709171
 20
112.7226615598104047
 30
0.0
 40
0.4513248555763856
 50
49.5246010805234533
 51
70.6871495433404817
  0
ARC
  5
EEC3
  8
0
 10
4297.6362881890809149
 20
111.811782536746307
 30
0.0
 40
1.4126285130955569
 50
71.1425232560806933
 51
81.9970958771760792
  0
ARC
  5
EEC4
  8
0
 10
4296.8700736641440017
 20
106.8267489303711955
 30
0.0
 40
6.4561122536217788
 50
81.4227222734789535
 51
87.0599239374604252
  0
ARC
  5
EEC5
  8
0
 10
4296.0908665931383439
 20
93.080549701393565
 30
0.0
 40
20.2243165746378111
 50
86.8527781087638857
 51
90.0698696685402922
  0
ARC
  5
EEC6
  8
0
 10
4297.4414513028468718
 20
107.5829740712753022
 30
0.0
 40
0.7590759033150988
 50
153.5939472604814
 51
169.074766552800412
  0
ARC
  5
EEC7
  8
0
 10
4298.3522613771201577
 20
107.3867079764650043
 30
0.0
 40
1.690695056943526
 50
168.394094533692396
 51
175.1879197379720097
  0
ARC
  5
EEC8
  8
0
 10
4304.4469513833519159
 20
106.9468942123566961
 30
0.0
 40
7.8011391679517219
 50
175.7241340619727907
 51
180.2763574670383093
  0
ARC
  5
EEC9
  8
0
 10
4075.1656795636358765
 20
110.3395259395896062
 30
0.0
 40
221.5067855261521004
 50
358.3366044635902767
 51
359.1126807692460261
  0
ARC
  5
EECA
  8
0
 10
4250.8624354679986936
 20
105.9118006275877946
 30
0.0
 40
45.7777475844843593
 50
357.4930344223579937
 51
358.2852376954039073
  0
ARC
  5
EECB
  8
0
 10
3757.307569457344016
 20
117.8394333313563038
 30
0.0
 40
539.4760223589197494
 50
358.5875805580749898
 51
358.8313155155597087
  0
ARC
  5
EECC
  8
0
 10
4337.4226666993072286
 20
105.8746621687897971
 30
0.0
 40
40.762640937166303
 50
177.7994824943210119
 51
178.6482116513186043
  0
ARC
  5
EECD
  8
0
 10
4298.6187024939590628
 20
107.3987082619968021
 30
0.0
 40
1.9290552255037501
 50
164.3047426093393142
 51
178.7788714645236894
  0
ARC
  5
EECE
  8
0
 10
4297.3103789575461633
 20
107.6535319289689028
 30
0.0
 40
0.6103195433244352
 50
123.799193858713906
 51
154.0543700799620979
  0
ARC
  5
EECF
  8
0
 10
4298.0670334185679167
 20
106.5225536959980985
 30
0.0
 40
1.9710684893912971
 50
112.8530113734985036
 51
123.7884100391729021
  0
ARC
  5
EED0
  8
0
 10
4299.1458026315058305
 20
104.0978501221333943
 30
0.0
 40
4.6246998871548142
 50
108.1414323924517049
 51
113.5023649347808998
  0
ARC
  5
EED1
  8
0
 10
4295.4942319795572985
 20
115.261066421328195
 30
0.0
 40
7.1205709893982423
 50
288.0950344970058836
 51
291.422790801154008
  0
ARC
  5
EED2
  8
0
 10
4297.323132195027938
 20
109.3994803089374983
 30
0.0
 40
1.1920773937731599
 50
337.5723494308616068
 51
351.4488195106570743
  0
ARC
  5
EED3
  8
0
 10
4297.8892268295021495
 20
109.1883790364103959
 30
0.0
 40
0.5886314335711541
 50
312.1444393329252875
 51
335.5433727073167915
  0
ARC
  5
EED4
  8
0
 10
4297.8050429657378118
 20
109.3011308195707016
 30
0.0
 40
0.7288396430969774
 50
293.442821161523284
 51
311.1037072895173878
  0
ARC
  5
EED5
  8
0
 10
4289.7533142032116302
 20
110.594081502537307
 30
0.0
 40
8.8568167159826476
 50
351.1054244227242975
 51
358.5926434840936281
  0
ARC
  5
EED6
  8
0
 10
4278.1797578031391822
 20
111.0792754103399034
 30
0.0
 40
20.4397864662149011
 50
358.02977649418699
 51
1.567113287151892
  0
ARC
  5
EED7
  8
0
 10
4286.6093224777068826
 20
111.3826752180871011
 30
0.0
 40
12.0053471812093608
 50
1.2198832705675611
 51
4.7239921650987728
  0
ARC
  5
EED8
  8
0
 10
4293.8663150322172442
 20
111.9901408958236004
 30
0.0
 40
4.7229847242969907
 50
4.6300182042944202
 51
10.0826845886355105
  0
ARC
  5
EED9
  8
0
 10
4297.2605528462945585
 20
112.6209266912066056
 30
0.0
 40
1.2710188566502489
 50
8.8736963415607306
 51
23.0342448615387099
  0
ARC
  5
EEDA
  8
0
 10
4297.9618530539255516
 20
112.9102467319340946
 30
0.0
 40
0.5124918539050638
 50
23.9457446007795589
 51
47.8783126235256375
  0
ARC
  5
EEDB
  8
0
 10
4297.9772616594773353
 20
112.9107610691030033
 30
0.0
 40
0.5018980964826379
 50
49.1437371724289918
 51
70.7309236102085066
  0
ARC
  5
EEDC
  8
0
 10
4297.288569498173274
 20
111.0569441733826039
 30
0.0
 40
2.4794309955599232
 50
69.8448573914618862
 51
72.9410451355130789
  0
ARC
  5
EEDD
  8
0
 10
4296.9368413715192219
 20
108.1918424730548054
 30
0.0
 40
5.3454950062696422
 50
78.3537997254910721
 51
87.7861198827237246
  0
ARC
  5
EEDE
  8
0
 10
4296.0875834694297737
 20
92.3480554763127657
 30
0.0
 40
21.2115821096058106
 50
87.1470663025654488
 51
90.0605027338903454
  0
ARC
  5
EEDF
  8
0
 10
4296.0620300302052783
 20
107.8383769256503939
 30
0.0
 40
0.4501594079091295
 50
270.1596037128151124
 51
291.3207848725091935
  0
ARC
  5
EEE0
  8
0
 10
4296.0555275941424043
 20
107.857551484010898
 30
0.0
 40
0.4703867517865711
 50
291.2094231310064174
 51
306.8529383373988253
  0
ARC
  5
EEE1
  8
0
 10
4296.0306104675992174
 20
107.8853166313205065
 30
0.0
 40
0.507558809254345
 50
307.2238373296320901
 51
325.7732340968300946
  0
ARC
  5
EEE2
  8
0
 10
4295.6133556127460906
 20
108.1499967123110935
 30
0.0
 40
1.001552557130831
 50
326.6800582991539272
 51
339.8254747315959889
  0
ARC
  5
EEE3
  8
0
 10
4298.2308524941354335
 20
107.1715206468292934
 30
0.0
 40
1.792878218028215
 50
154.0423519325553059
 51
159.3231477937441127
  0
ARC
  5
EEE4
  8
0
 10
4297.224781869898834
 20
107.6561472692563939
 30
0.0
 40
0.6761937103576767
 50
136.6169599070748006
 51
153.6502590368635879
  0
ARC
  5
EEE5
  8
0
 10
4297.3388038729381151
 20
107.5615657228320998
 30
0.0
 40
0.8240835224591997
 50
125.0219030266495963
 51
137.2829554598251889
  0
ARC
  5
EEE6
  8
0
 10
4297.8694499370249105
 20
106.7815416853411961
 30
0.0
 40
1.767451383887773
 50
113.8565142793171958
 51
124.5977459545990058
  0
ARC
  5
EEE7
  8
0
 10
4298.5417853466997258
 20
105.3554008880670949
 30
0.0
 40
3.3438858039893189
 50
108.8215532945118014
 51
114.5092269404075012
  0
ARC
  5
EEE8
  8
0
 10
4352.2110295232450881
 20
-51.8854736146695927
 30
0.0
 40
169.4916522286144982
 50
108.6944144924657962
 51
108.8452535408814015
  0
ARC
  5
EEE9
  8
0
 10
4297.3519154324631018
 20
110.1932256809447068
 30
0.0
 40
1.619573405988989
 50
289.2343142126835005
 51
295.9921482815660738
  0
ARC
  5
EEEA
  8
0
 10
4297.8123358892280521
 20
109.2559238110692945
 30
0.0
 40
0.5753056800796014
 50
295.6853863069678141
 51
317.4673481778631867
  0
ARC
  5
EEEB
  8
0
 10
4297.897361023879057
 20
109.1592766206747029
 30
0.0
 40
0.447527822396905
 50
319.2268092453975896
 51
340.1535583442712891
  0
ARC
  5
EEEC
  8
0
 10
4296.983908597010668
 20
109.4880042363951986
 30
0.0
 40
1.418330025565937
 50
340.1904961002588266
 51
352.6807660937254241
  0
ARC
  5
EEED
  8
0
 10
4293.2589003371531362
 20
110.1121742364180989
 30
0.0
 40
5.1945146425102653
 50
351.0864188382805082
 51
353.0516871955903753
  0
ARC
  5
EEEE
  8
0
 10
4287.7514139738977974
 20
110.6171406401956006
 30
0.0
 40
10.7239095655763705
 50
353.9333084786866266
 51
356.0349688150512861
  0
ARC
  5
EEEF
  8
0
 10
4288.8436405833208482
 20
110.4881619277419986
 30
0.0
 40
9.6255254114179802
 50
356.3513158407085939
 51
358.2340652711033044
  0
ARC
  5
EEF0
  8
0
 10
4276.5959700119401532
 20
110.9865361874427947
 30
0.0
 40
21.8830701241792411
 50
357.9180194734407223
 51
359.575845040317688
  0
ARC
  5
EEF1
  8
0
 10
4734.3870664365667835
 20
111.0330699442447013
 30
0.0
 40
435.9086758044870749
 50
179.9858469293621965
 51
180.0274092188028021
  0
ARC
  5
EEF2
  8
0
 10
4278.8812965314318717
 20
110.957378760711407
 30
0.0
 40
19.5979652612734512
 50
0.5360956987025555
 51
1.664245849454401
  0
ARC
  5
EEF3
  8
0
 10
4277.2207287566752711
 20
110.9292984656761973
 30
0.0
 40
21.2586576513610908
 50
1.6099150024434881
 51
2.2757907531554258
  0
ARC
  5
EEF4
  8
0
 10
4287.0624031382340036
 20
111.3344040952399041
 30
0.0
 40
11.4086677441760909
 50
2.205595603643375
 51
3.7327005245254838
  0
LINE
  5
EEF5
  8
0
 10
4298.4469586831601191
 20
112.0896720182742001
 30
0.0
 11
4298.4468688210654364
 21
112.0771293562964956
 31
0.0
  0
ARC
  5
EEF6
  8
0
 10
4291.4308273979777368
 20
111.6366916645342968
 30
0.0
 40
7.0307388951505914
 50
3.694043029929496
 51
5.7070166080944
  0
ARC
  5
EEF7
  8
0
 10
4256.8223366512247594
 20
106.0965446318795955
 30
0.0
 40
42.0696247549130717
 50
8.5289309728171325
 51
8.9546230453129763
  0
ARC
  5
EEF8
  8
0
 10
4296.8285992536239064
 20
112.3873541002530061
 30
0.0
 40
1.571836427714626
 50
9.4257916146915317
 51
16.5080869753627013
  0
ARC
  5
EEF9
  8
0
 10
4297.8225945875883554
 20
112.6938964353400934
 30
0.0
 40
0.5318332603692049
 50
15.2731489784057803
 51
38.2419037444652332
  0
ARC
  5
EEFA
  8
0
 10
4297.9677989385636465
 20
112.7690148089317006
 30
0.0
 40
0.3725741055184182
 50
42.9963056286559322
 51
71.8034932896267719
  0
ARC
  5
EEFB
  8
0
 10
4297.7351909329472619
 20
112.1494294512274053
 30
0.0
 40
1.034178320620327
 50
70.2801250839473113
 51
78.4436080996129732
  0
ARC
  5
EEFC
  8
0
 10
4297.27161995291317
 20
109.7387001856878044
 30
0.0
 40
3.489024189557735
 50
78.9161234030147654
 51
83.773943659310234
  0
ARC
  5
EEFD
  8
0
 10
4296.5798386011692855
 20
103.2252649558653985
 30
0.0
 40
10.0390836185080303
 50
83.8806153033300461
 51
88.197133377230557
  0
ARC
  5
EEFE
  8
0
 10
4296.0701685063449986
 20
90.5185600470343843
 30
0.0
 40
22.7557973656277284
 50
87.9210366875898757
 51
90.010004288737278
  0
CIRCLE
  5
EEFF
  8
0
 10
4296.0640447552714249
 20
107.998479804346502
 30
0.0
 40
0.2840505158532122
  0
ARC
  5
EF00
  8
0
 10
4300.2213715181596854
 20
117.702214813312807
 30
0.0
 40
0.0118110236
 50
179.999999999980389
 51
270.0
  0
ARC
  5
EF01
  8
0
 10
4300.3316077386607503
 20
117.702214813312807
 30
0.0
 40
0.0118110236000035
 50
270.0
 51
359.9999999999805027
  0
LINE
  5
EF02
  8
0
 10
4300.2095604945598097
 20
117.7494589078127945
 30
0.0
 11
4300.2095604945598097
 21
117.702214813312807
 31
0.0
  0
LINE
  5
EF03
  8
0
 10
4300.343418762260626
 20
117.7494589078127945
 30
0.0
 11
4300.343418762260626
 21
117.702214813312807
 31
0.0
  0
LINE
  5
EF04
  8
0
 10
4300.2213715181596854
 20
117.6904037897128035
 30
0.0
 11
4300.3316077386607503
 21
117.6904037897128035
 31
0.0
  0
ARC
  5
EF05
  8
0
 10
4299.8544423843113691
 20
117.702214813312807
 30
0.0
 40
0.0118110236
 50
179.999999999980389
 51
270.0
  0
ARC
  5
EF06
  8
0
 10
4299.9646786048106151
 20
117.702214813312807
 30
0.0
 40
0.0118110236000035
 50
270.0
 51
359.9999999999805027
  0
LINE
  5
EF07
  8
0
 10
4299.8426313607096745
 20
117.7494589078127945
 30
0.0
 11
4299.8426313607096745
 21
117.702214813312807
 31
0.0
  0
LINE
  5
EF08
  8
0
 10
4299.9764896284095812
 20
117.7494589078127945
 30
0.0
 11
4299.9764896284095812
 21
117.702214813312807
 31
0.0
  0
LINE
  5
EF09
  8
0
 10
4299.8544423843113691
 20
117.6904037897128035
 30
0.0
 11
4299.9646786048106151
 21
117.6904037897128035
 31
0.0
  0
ARC
  5
EF0A
  8
0
 10
4299.4875132504603243
 20
117.702214813312807
 30
0.0
 40
0.0118110236
 50
179.999999999980389
 51
270.0
  0
ARC
  5
EF0B
  8
0
 10
4299.5977494709613893
 20
117.702214813312807
 30
0.0
 40
0.0118110236000035
 50
270.0
 51
359.9999999999805027
  0
LINE
  5
EF0C
  8
0
 10
4299.4757022268604487
 20
117.7494589078127945
 30
0.0
 11
4299.4757022268604487
 21
117.702214813312807
 31
0.0
  0
LINE
  5
EF0D
  8
0
 10
4299.6095604945603554
 20
117.7494589078127945
 30
0.0
 11
4299.6095604945603554
 21
117.702214813312807
 31
0.0
  0
LINE
  5
EF0E
  8
0
 10
4299.4875132504603243
 20
117.6904037897128035
 30
0.0
 11
4299.5977494709613893
 21
117.6904037897128035
 31
0.0
  0
ARC
  5
EF0F
  8
0
 10
4299.1205841166101891
 20
117.702214813312807
 30
0.0
 40
0.0118110236
 50
179.999999999980389
 51
270.0
  0
ARC
  5
EF10
  8
0
 10
4299.2308203371103446
 20
117.702214813312807
 30
0.0
 40
0.0118110236000035
 50
270.0
 51
359.9999999999805027
  0
LINE
  5
EF11
  8
0
 10
4299.1087730930103135
 20
117.7494589078127945
 30
0.0
 11
4299.1087730930103135
 21
117.702214813312807
 31
0.0
  0
LINE
  5
EF12
  8
0
 10
4299.2426313607102202
 20
117.7494589078127945
 30
0.0
 11
4299.2426313607102202
 21
117.702214813312807
 31
0.0
  0
LINE
  5
EF13
  8
0
 10
4299.1205841166101891
 20
117.6904037897128035
 30
0.0
 11
4299.2308203371103446
 21
117.6904037897128035
 31
0.0
  0
ARC
  5
EF14
  8
0
 10
4298.7536549827600538
 20
117.702214813312807
 30
0.0
 40
0.0118110236
 50
179.999999999980389
 51
270.0
  0
ARC
  5
EF15
  8
0
 10
4298.8638912032602093
 20
117.702214813312807
 30
0.0
 40
0.0118110236000035
 50
270.0
 51
359.9999999999805027
  0
LINE
  5
EF16
  8
0
 10
4298.7418439591601782
 20
117.7494589078127945
 30
0.0
 11
4298.7418439591601782
 21
117.702214813312807
 31
0.0
  0
LINE
  5
EF17
  8
0
 10
4298.8757022268600849
 20
117.7494589078127945
 30
0.0
 11
4298.8757022268600849
 21
117.702214813312807
 31
0.0
  0
LINE
  5
EF18
  8
0
 10
4298.7536549827600538
 20
117.6904037897128035
 30
0.0
 11
4298.8638912032602093
 21
117.6904037897128035
 31
0.0
  0
ARC
  5
EF19
  8
0
 10
4298.3867258488598964
 20
117.702214813312807
 30
0.0
 40
0.0118110236
 50
179.999999999980389
 51
270.0
  0
ARC
  5
EF1A
  8
0
 10
4298.4969620693600518
 20
117.702214813312807
 30
0.0
 40
0.0118110236000035
 50
270.0
 51
359.9999999999805027
  0
LINE
  5
EF1B
  8
0
 10
4298.3749148252609302
 20
117.7494589078127945
 30
0.0
 11
4298.3749148252609302
 21
117.702214813312807
 31
0.0
  0
LINE
  5
EF1C
  8
0
 10
4298.5087730929608369
 20
117.7494589078127945
 30
0.0
 11
4298.5087730929608369
 21
117.702214813312807
 31
0.0
  0
LINE
  5
EF1D
  8
0
 10
4298.3867258488598964
 20
117.6904037897128035
 30
0.0
 11
4298.4969620693600518
 21
117.6904037897128035
 31
0.0
  0
ARC
  5
EF1E
  8
0
 10
4298.0197967150606928
 20
117.702214813312807
 30
0.0
 40
0.0118110236
 50
179.999999999980389
 51
270.0
  0
ARC
  5
EF1F
  8
0
 10
4298.1300329355608483
 20
117.702214813312807
 30
0.0
 40
0.0118110236000035
 50
270.0
 51
359.9999999999805027
  0
LINE
  5
EF20
  8
0
 10
4298.0079856914608172
 20
117.7494589078127945
 30
0.0
 11
4298.0079856914608172
 21
117.702214813312807
 31
0.0
  0
LINE
  5
EF21
  8
0
 10
4298.1418439591598144
 20
117.7494589078127945
 30
0.0
 11
4298.1418439591598144
 21
117.702214813312807
 31
0.0
  0
LINE
  5
EF22
  8
0
 10
4298.0197967150606928
 20
117.6904037897128035
 30
0.0
 11
4298.1300329355608483
 21
117.6904037897128035
 31
0.0
  0
ARC
  5
EF23
  8
0
 10
4297.6528675811596258
 20
117.702214813312807
 30
0.0
 40
0.0118110236
 50
179.999999999980389
 51
270.0
  0
ARC
  5
EF24
  8
0
 10
4297.7631038016606908
 20
117.702214813312807
 30
0.0
 40
0.0118110236000035
 50
270.0
 51
359.9999999999805027
  0
LINE
  5
EF25
  8
0
 10
4297.6410565575597502
 20
117.7494589078127945
 30
0.0
 11
4297.6410565575597502
 21
117.702214813312807
 31
0.0
  0
LINE
  5
EF26
  8
0
 10
4297.7749148252596569
 20
117.7494589078127945
 30
0.0
 11
4297.7749148252596569
 21
117.702214813312807
 31
0.0
  0
LINE
  5
EF27
  8
0
 10
4297.6528675811596258
 20
117.6904037897128035
 30
0.0
 11
4297.7631038016606908
 21
117.6904037897128035
 31
0.0
  0
ARC
  5
EF28
  8
0
 10
4297.2859384473104001
 20
117.702214813312807
 30
0.0
 40
0.0118110236
 50
179.999999999980389
 51
270.0
  0
ARC
  5
EF29
  8
0
 10
4297.3961746678096461
 20
117.702214813312807
 30
0.0
 40
0.0118110236000035
 50
270.0
 51
359.9999999999805027
  0
LINE
  5
EF2A
  8
0
 10
4297.2741274237114339
 20
117.7494589078127945
 30
0.0
 11
4297.2741274237114339
 21
117.702214813312807
 31
0.0
  0
LINE
  5
EF2B
  8
0
 10
4297.4079856914104312
 20
117.7494589078127945
 30
0.0
 11
4297.4079856914104312
 21
117.702214813312807
 31
0.0
  0
LINE
  5
EF2C
  8
0
 10
4297.2859384473104001
 20
117.6904037897128035
 30
0.0
 11
4297.3961746678096461
 21
117.6904037897128035
 31
0.0
  0
ARC
  5
EF2D
  8
0
 10
4296.9190093134611743
 20
117.702214813312807
 30
0.0
 40
0.0118110236
 50
179.999999999980389
 51
270.0
  0
ARC
  5
EF2E
  8
0
 10
4297.0292455339604203
 20
117.702214813312807
 30
0.0
 40
0.0118110236000035
 50
270.0
 51
359.9999999999805027
  0
LINE
  5
EF2F
  8
0
 10
4296.9071982898612987
 20
117.7494589078127945
 30
0.0
 11
4296.9071982898612987
 21
117.702214813312807
 31
0.0
  0
LINE
  5
EF30
  8
0
 10
4297.0410565575602959
 20
117.7494589078127945
 30
0.0
 11
4297.0410565575602959
 21
117.702214813312807
 31
0.0
  0
LINE
  5
EF31
  8
0
 10
4296.9190093134611743
 20
117.6904037897128035
 30
0.0
 11
4297.0292455339604203
 21
117.6904037897128035
 31
0.0
  0
ARC
  5
EF32
  8
0
 10
4296.5520801795601074
 20
117.702214813312807
 30
0.0
 40
0.0118110236
 50
179.999999999980389
 51
270.0
  0
ARC
  5
EF33
  8
0
 10
4296.6623164000602628
 20
117.702214813312807
 30
0.0
 40
0.0118110236000035
 50
270.0
 51
359.9999999999805027
  0
LINE
  5
EF34
  8
0
 10
4296.5402691559602317
 20
117.7494589078127945
 30
0.0
 11
4296.5402691559602317
 21
117.702214813312807
 31
0.0
  0
LINE
  5
EF35
  8
0
 10
4296.6741274236601384
 20
117.7494589078127945
 30
0.0
 11
4296.6741274236601384
 21
117.702214813312807
 31
0.0
  0
LINE
  5
EF36
  8
0
 10
4296.5520801795601074
 20
117.6904037897128035
 30
0.0
 11
4296.6623164000602628
 21
117.6904037897128035
 31
0.0
  0
ARC
  5
EF37
  8
0
 10
4296.1851510457609038
 20
117.702214813312807
 30
0.0
 40
0.0118110236
 50
179.999999999980389
 51
270.0
  0
ARC
  5
EF38
  8
0
 10
4296.2953872662601498
 20
117.702214813312807
 30
0.0
 40
0.0118110236000035
 50
270.0
 51
359.9999999999805027
  0
LINE
  5
EF39
  8
0
 10
4296.1733400221601187
 20
117.7494589078127945
 30
0.0
 11
4296.1733400221601187
 21
117.702214813312807
 31
0.0
  0
LINE
  5
EF3A
  8
0
 10
4296.3071982898609349
 20
117.7494589078127945
 30
0.0
 11
4296.3071982898609349
 21
117.702214813312807
 31
0.0
  0
LINE
  5
EF3B
  8
0
 10
4296.1851510457609038
 20
117.6904037897128035
 30
0.0
 11
4296.2953872662601498
 21
117.6904037897128035
 31
0.0
  0
ARC
  5
EF3C
  8
0
 10
4292.5158597071613258
 20
117.702214813312807
 30
0.0
 40
0.0118110236
 50
179.999999999980389
 51
270.0
  0
ARC
  5
EF3D
  8
0
 10
4292.6260959276596623
 20
117.702214813312807
 30
0.0
 40
0.0118110236000035
 50
270.0
 51
359.9999999999805027
  0
LINE
  5
EF3E
  8
0
 10
4292.5040486835596312
 20
117.7494589078127945
 30
0.0
 11
4292.5040486835596312
 21
117.702214813312807
 31
0.0
  0
LINE
  5
EF3F
  8
0
 10
4292.6379069512604474
 20
117.7494589078127945
 30
0.0
 11
4292.6379069512604474
 21
117.702214813312807
 31
0.0
  0
LINE
  5
EF40
  8
0
 10
4292.5158597071613258
 20
117.6904037897128035
 30
0.0
 11
4292.6260959276596623
 21
117.6904037897128035
 31
0.0
  0
ARC
  5
EF41
  8
0
 10
4292.8827888410096421
 20
117.702214813312807
 30
0.0
 40
0.0118110236
 50
179.999999999980389
 51
270.0
  0
ARC
  5
EF42
  8
0
 10
4292.993025061510707
 20
117.702214813312807
 30
0.0
 40
0.0118110236000035
 50
270.0
 51
359.9999999999805027
  0
LINE
  5
EF43
  8
0
 10
4292.8709778174097664
 20
117.7494589078127945
 30
0.0
 11
4292.8709778174097664
 21
117.702214813312807
 31
0.0
  0
LINE
  5
EF44
  8
0
 10
4293.0048360851105826
 20
117.7494589078127945
 30
0.0
 11
4293.0048360851105826
 21
117.702214813312807
 31
0.0
  0
LINE
  5
EF45
  8
0
 10
4292.8827888410096421
 20
117.6904037897128035
 30
0.0
 11
4292.993025061510707
 21
117.6904037897128035
 31
0.0
  0
ARC
  5
EF46
  8
0
 10
4293.2497179748606868
 20
117.702214813312807
 30
0.0
 40
0.0118110236
 50
179.999999999980389
 51
270.0
  0
ARC
  5
EF47
  8
0
 10
4293.3599541953608423
 20
117.702214813312807
 30
0.0
 40
0.0118110236000035
 50
270.0
 51
359.9999999999805027
  0
LINE
  5
EF48
  8
0
 10
4293.2379069512608112
 20
117.7494589078127945
 30
0.0
 11
4293.2379069512608112
 21
117.702214813312807
 31
0.0
  0
LINE
  5
EF49
  8
0
 10
4293.3717652189598084
 20
117.7494589078127945
 30
0.0
 11
4293.3717652189598084
 21
117.702214813312807
 31
0.0
  0
LINE
  5
EF4A
  8
0
 10
4293.2497179748606868
 20
117.6904037897128035
 30
0.0
 11
4293.3599541953608423
 21
117.6904037897128035
 31
0.0
  0
ARC
  5
EF4B
  8
0
 10
4293.6166471087608443
 20
117.702214813312807
 30
0.0
 40
0.0118110236
 50
179.999999999980389
 51
270.0
  0
ARC
  5
EF4C
  8
0
 10
4293.7268833292591808
 20
117.702214813312807
 30
0.0
 40
0.0118110236000035
 50
270.0
 51
359.9999999999805027
  0
LINE
  5
EF4D
  8
0
 10
4293.6048360851609687
 20
117.7494589078127945
 30
0.0
 11
4293.6048360851609687
 21
117.702214813312807
 31
0.0
  0
LINE
  5
EF4E
  8
0
 10
4293.7386943528599659
 20
117.7494589078127945
 30
0.0
 11
4293.7386943528599659
 21
117.702214813312807
 31
0.0
  0
LINE
  5
EF4F
  8
0
 10
4293.6166471087608443
 20
117.6904037897128035
 30
0.0
 11
4293.7268833292591808
 21
117.6904037897128035
 31
0.0
  0
ARC
  5
EF50
  8
0
 10
4293.9835762425600478
 20
117.702214813312807
 30
0.0
 40
0.0118110236
 50
179.999999999980389
 51
270.0
  0
ARC
  5
EF51
  8
0
 10
4294.0938124630602033
 20
117.702214813312807
 30
0.0
 40
0.0118110236000035
 50
270.0
 51
359.9999999999805027
  0
LINE
  5
EF52
  8
0
 10
4293.9717652189601722
 20
117.7494589078127945
 30
0.0
 11
4293.9717652189601722
 21
117.702214813312807
 31
0.0
  0
LINE
  5
EF53
  8
0
 10
4294.1056234866600789
 20
117.7494589078127945
 30
0.0
 11
4294.1056234866600789
 21
117.702214813312807
 31
0.0
  0
LINE
  5
EF54
  8
0
 10
4293.9835762425600478
 20
117.6904037897128035
 30
0.0
 11
4294.0938124630602033
 21
117.6904037897128035
 31
0.0
  0
ARC
  5
EF55
  8
0
 10
4294.3505053764602053
 20
117.702214813312807
 30
0.0
 40
0.0118110236
 50
179.999999999980389
 51
270.0
  0
ARC
  5
EF56
  8
0
 10
4294.4607415969603608
 20
117.702214813312807
 30
0.0
 40
0.0118110236000035
 50
270.0
 51
359.9999999999805027
  0
LINE
  5
EF57
  8
0
 10
4294.3386943528603297
 20
117.7494589078127945
 30
0.0
 11
4294.3386943528603297
 21
117.702214813312807
 31
0.0
  0
LINE
  5
EF58
  8
0
 10
4294.4725526205602364
 20
117.7494589078127945
 30
0.0
 11
4294.4725526205602364
 21
117.702214813312807
 31
0.0
  0
LINE
  5
EF59
  8
0
 10
4294.3505053764602053
 20
117.6904037897128035
 30
0.0
 11
4294.4607415969603608
 21
117.6904037897128035
 31
0.0
  0
ARC
  5
EF5A
  8
0
 10
4294.7174345103103406
 20
117.702214813312807
 30
0.0
 40
0.0118110236
 50
179.999999999980389
 51
270.0
  0
ARC
  5
EF5B
  8
0
 10
4294.8276707308095865
 20
117.702214813312807
 30
0.0
 40
0.0118110236000035
 50
270.0
 51
359.9999999999805027
  0
LINE
  5
EF5C
  8
0
 10
4294.7056234867095554
 20
117.7494589078127945
 30
0.0
 11
4294.7056234867095554
 21
117.702214813312807
 31
0.0
  0
LINE
  5
EF5D
  8
0
 10
4294.8394817544112811
 20
117.7494589078127945
 30
0.0
 11
4294.8394817544112811
 21
117.702214813312807
 31
0.0
  0
LINE
  5
EF5E
  8
0
 10
4294.7174345103103406
 20
117.6904037897128035
 30
0.0
 11
4294.8276707308095865
 21
117.6904037897128035
 31
0.0
  0
ARC
  5
EF5F
  8
0
 10
4295.0843636441595663
 20
117.702214813312807
 30
0.0
 40
0.0118110236
 50
179.999999999980389
 51
270.0
  0
ARC
  5
EF60
  8
0
 10
4295.1945998646597218
 20
117.702214813312807
 30
0.0
 40
0.0118110236000035
 50
270.0
 51
359.9999999999805027
  0
LINE
  5
EF61
  8
0
 10
4295.0725526205606002
 20
117.7494589078127945
 30
0.0
 11
4295.0725526205606002
 21
117.702214813312807
 31
0.0
  0
LINE
  5
EF62
  8
0
 10
4295.2064108882595974
 20
117.7494589078127945
 30
0.0
 11
4295.2064108882595974
 21
117.702214813312807
 31
0.0
  0
LINE
  5
EF63
  8
0
 10
4295.0843636441595663
 20
117.6904037897128035
 30
0.0
 11
4295.1945998646597218
 21
117.6904037897128035
 31
0.0
  0
ARC
  5
EF64
  8
0
 10
4295.4512927780097016
 20
117.702214813312807
 30
0.0
 40
0.0118110236
 50
179.999999999980389
 51
270.0
  0
ARC
  5
EF65
  8
0
 10
4295.561528998509857
 20
117.702214813312807
 30
0.0
 40
0.0118110236000035
 50
270.0
 51
359.9999999999805027
  0
LINE
  5
EF66
  8
0
 10
4295.439481754409826
 20
117.7494589078127945
 30
0.0
 11
4295.439481754409826
 21
117.702214813312807
 31
0.0
  0
LINE
  5
EF67
  8
0
 10
4295.5733400221097327
 20
117.7494589078127945
 30
0.0
 11
4295.5733400221097327
 21
117.702214813312807
 31
0.0
  0
LINE
  5
EF68
  8
0
 10
4295.4512927780097016
 20
117.6904037897128035
 30
0.0
 11
4295.561528998509857
 21
117.6904037897128035
 31
0.0
  0
ARC
  5
EF69
  8
0
 10
4295.8182219118607463
 20
117.702214813312807
 30
0.0
 40
0.0118110236
 50
179.999999999980389
 51
270.0
  0
ARC
  5
EF6A
  8
0
 10
4295.9284581323609018
 20
117.702214813312807
 30
0.0
 40
0.0118110236000035
 50
270.0
 51
359.9999999999805027
  0
LINE
  5
EF6B
  8
0
 10
4295.8064108882599612
 20
117.7494589078127945
 30
0.0
 11
4295.8064108882599612
 21
117.702214813312807
 31
0.0
  0
LINE
  5
EF6C
  8
0
 10
4295.9402691559607774
 20
117.7494589078127945
 30
0.0
 11
4295.9402691559607774
 21
117.702214813312807
 31
0.0
  0
LINE
  5
EF6D
  8
0
 10
4295.8182219118607463
 20
117.6904037897128035
 30
0.0
 11
4295.9284581323609018
 21
117.6904037897128035
 31
0.0
  0
LINE
  5
EF6E
  8
0
 10
4301.062316400059899
 20
117.1167588854035984
 30
0.0
 11
4301.062316400059899
 21
118.1825297740128065
 31
0.0
  0
LINE
  5
EF6F
  8
0
 10
4301.062316400059899
 20
118.1825297740128065
 30
0.0
 11
4283.3457809670608185
 21
118.1825297740128065
 31
0.0
  0
LINE
  5
EF70
  8
0
 10
4296.1410565575597502
 20
118.1825297740128065
 30
0.0
 11
4296.1410565575597502
 21
119.4344982779127946
 31
0.0
  0
LINE
  5
EF71
  8
0
 10
4296.1016864788607563
 20
119.4738683566127975
 30
0.0
 11
4288.3064108882599612
 21
119.4738683566127975
 31
0.0
  0
LINE
  5
EF72
  8
0
 10
4293.1095604945603554
 20
119.4738683566127975
 30
0.0
 11
4293.1095604945603554
 21
120.3400100889740969
 31
0.0
  0
LINE
  5
EF73
  8
0
 10
4293.1095604945603554
 20
120.3400100889740969
 30
0.0
 11
4291.2985368725603621
 21
120.3400100889740969
 31
0.0
  0
LINE
  5
EF74
  8
0
 10
4293.1095604945603554
 20
120.3596951283740992
 30
0.0
 11
4293.1095604945603554
 21
121.1077266243741946
 31
0.0
  0
LINE
  5
EF75
  8
0
 10
4293.0898754551599268
 20
121.1274116637741969
 30
0.0
 11
4291.3182219118598368
 21
121.1274116637741969
 31
0.0
  0
ARC
  5
EF76
  8
0
 10
4293.0898754551599268
 20
121.1077266243741946
 30
0.0
 40
0.0196850394000023
 50
0.0000000000195413
 51
90.0
  0
ARC
  5
EF77
  8
0
 10
4293.0898754551599268
 20
120.3596951283740992
 30
0.0
 40
0.0196850394000023
 50
270.0
 51
0.0
  0
ARC
  5
EF78
  8
0
 10
4291.3182219117888963
 20
121.1077266245447959
 30
0.0
 40
0.019685039229286
 50
89.9999997941646797
 51
180.0000004968447058
  0
ARC
  5
EF79
  8
0
 10
4293.0308203370614137
 20
121.0486715062741041
 30
0.0
 40
0.0334645669000011
 50
0.0
 51
90.0
  0
ARC
  5
EF7A
  8
0
 10
4293.0308203370614137
 20
121.0486715062741041
 30
0.0
 40
0.0255905512000041
 50
0.0000000000130276
 51
90.0
  0
ARC
  5
EF7B
  8
0
 10
4293.0308203370614137
 20
121.0486715062741041
 30
0.0
 40
0.0196850394000094
 50
0.0000000000195413
 51
90.0
  0
ARC
  5
EF7C
  8
0
 10
4293.0268833292602721
 20
121.0447344983740976
 30
0.0
 40
0.0196850394000023
 50
0.0
 51
90.0
  0
ARC
  5
EF7D
  8
0
 10
4293.0308203370614137
 20
121.0486715062741041
 30
0.0
 40
0.0137795276000006
 50
0.0
 51
90.0
  0
LINE
  5
EF7E
  8
0
 10
4293.0465683685597469
 20
120.9108762306741056
 30
0.0
 11
4293.0505053764609329
 21
120.9108762306741056
 31
0.0
  0
ARC
  5
EF7F
  8
0
 10
4293.0308203370614137
 20
121.0486715062742036
 30
0.0
 40
0.0059055117999947
 50
359.9999999999283204
 51
90.0
  0
LINE
  5
EF80
  8
0
 10
4293.0367258488604421
 20
121.0486715062741041
 30
0.0
 11
4293.0367258488604421
 21
120.4187502464741044
 31
0.0
  0
LINE
  5
EF81
  8
0
 10
4293.0445998646600856
 20
120.4187502464741044
 30
0.0
 11
4293.0445998646600856
 21
121.0486715062741041
 31
0.0
  0
LINE
  5
EF82
  8
0
 10
4293.0465683686597913
 20
121.0447344983740976
 30
0.0
 11
4293.0465683686597913
 21
120.4226872542740949
 31
0.0
  0
LINE
  5
EF83
  8
0
 10
4293.0505053764609329
 20
120.4187502464741044
 30
0.0
 11
4293.0505053764609329
 21
121.0486715062741041
 31
0.0
  0
LINE
  5
EF84
  8
0
 10
4293.0564108882608707
 20
121.0486715062741041
 30
0.0
 11
4293.0564108882608707
 21
120.4187502464741044
 31
0.0
  0
LINE
  5
EF85
  8
0
 10
4293.0642849039613793
 20
120.4187502464741044
 30
0.0
 11
4293.0642849040614237
 21
121.0486715062741041
 31
0.0
  0
ARC
  5
EF86
  8
0
 10
4293.0308203370614137
 20
120.4187502464741044
 30
0.0
 40
0.0334645669000011
 50
270.0
 51
0.0
  0
ARC
  5
EF87
  8
0
 10
4293.0308203370614137
 20
120.4187502464741044
 30
0.0
 40
0.0255905512000041
 50
270.0
 51
359.9999999999805027
  0
ARC
  5
EF88
  8
0
 10
4293.0308203370614137
 20
120.4187502464741044
 30
0.0
 40
0.0196850394000094
 50
270.0
 51
359.9999999999805027
  0
ARC
  5
EF89
  8
0
 10
4293.0268833292602721
 20
120.4226872543741962
 30
0.0
 40
0.0196850394000023
 50
270.0
 51
0.0
  0
ARC
  5
EF8A
  8
0
 10
4293.0308203370614137
 20
120.4187502464741044
 30
0.0
 40
0.0137795276000006
 50
270.0
 51
0.0
  0
ARC
  5
EF8B
  8
0
 10
4293.0308203370614137
 20
120.4187502464741044
 30
0.0
 40
0.0059055117999947
 50
270.0
 51
0.0000000000716515
  0
ARC
  5
EF8C
  8
0
 10
4291.3772770299601689
 20
121.0486715062741041
 30
0.0
 40
0.0334645669000011
 50
90.0
 51
180.0
  0
ARC
  5
EF8D
  8
0
 10
4291.3772770299601689
 20
121.0486715062741041
 30
0.0
 40
0.0255905512000041
 50
90.0
 51
179.999999999980389
  0
ARC
  5
EF8E
  8
0
 10
4291.3772770299601689
 20
121.0486715062741041
 30
0.0
 40
0.0196850394000094
 50
90.0
 51
179.999999999980389
  0
ARC
  5
EF8F
  8
0
 10
4291.3812140377613105
 20
121.0447344983740976
 30
0.0
 40
0.0196850394000023
 50
90.0
 51
180.0
  0
ARC
  5
EF90
  8
0
 10
4291.3772770299601689
 20
121.0486715062741041
 30
0.0
 40
0.0137795276000006
 50
90.0
 51
180.0
  0
ARC
  5
EF91
  8
0
 10
4291.3772770299601689
 20
121.0486715062742036
 30
0.0
 40
0.0059055117999947
 50
90.0
 51
180.0000000000715943
  0
LINE
  5
EF92
  8
0
 10
4291.3713715181602311
 20
121.0486715062741041
 30
0.0
 11
4291.3713715181602311
 21
120.4187502464741044
 31
0.0
  0
LINE
  5
EF93
  8
0
 10
4291.363497502359678
 20
120.4187502464741044
 30
0.0
 11
4291.363497502359678
 21
121.0486715062741041
 31
0.0
  0
LINE
  5
EF94
  8
0
 10
4291.3615289983599723
 20
121.0447344983740976
 30
0.0
 11
4291.3615289983599723
 21
120.4226872542740949
 31
0.0
  0
LINE
  5
EF95
  8
0
 10
4291.3575919905597402
 20
120.4187502464741044
 30
0.0
 11
4291.3575919905597402
 21
121.0486715062741041
 31
0.0
  0
LINE
  5
EF96
  8
0
 10
4291.3516864787607119
 20
121.0486715062741041
 30
0.0
 11
4291.3516864787607119
 21
120.4187502464741044
 31
0.0
  0
LINE
  5
EF97
  8
0
 10
4291.3438124630602033
 20
120.4187502464741044
 30
0.0
 11
4291.3438124629601589
 21
121.0486715062741041
 31
0.0
  0
ARC
  5
EF98
  8
0
 10
4291.3772770299601689
 20
120.4187502464741044
 30
0.0
 40
0.0334645669000011
 50
180.0
 51
270.0
  0
ARC
  5
EF99
  8
0
 10
4291.3772770299601689
 20
120.4187502464741044
 30
0.0
 40
0.0255905512000041
 50
180.0000000000129887
 51
270.0
  0
ARC
  5
EF9A
  8
0
 10
4291.3772770299601689
 20
120.4187502464741044
 30
0.0
 40
0.0196850394000094
 50
180.0000000000194973
 51
270.0
  0
ARC
  5
EF9B
  8
0
 10
4291.3812140377613105
 20
120.4226872543741962
 30
0.0
 40
0.0196850394000023
 50
180.0
 51
270.0
  0
ARC
  5
EF9C
  8
0
 10
4291.3772770299601689
 20
120.4187502464741044
 30
0.0
 40
0.0137795276000006
 50
180.0
 51
270.0
  0
ARC
  5
EF9D
  8
0
 10
4291.3772770299601689
 20
120.4187502464741044
 30
0.0
 40
0.0059055117999947
 50
179.999999999928292
 51
270.0
  0
LINE
  5
EF9E
  8
0
 10
4292.7257022268604487
 20
121.0683565456742059
 30
0.0
 11
4292.7257022268604487
 21
121.0644195377740999
 31
0.0
  0
LINE
  5
EF9F
  8
0
 10
4291.6823951402602688
 20
121.0683565456742059
 30
0.0
 11
4291.6823951402602688
 21
121.0644195377740999
 31
0.0
  0
LINE
  5
EFA0
  8
0
 10
4291.3772770299601689
 20
121.0821360731741976
 30
0.0
 11
4293.0308203370614137
 21
121.0821360731741976
 31
0.0
  0
LINE
  5
EFA1
  8
0
 10
4293.0308203370614137
 20
121.0742620574741011
 30
0.0
 11
4291.3772770299601689
 21
121.0742620574741011
 31
0.0
  0
LINE
  5
EFA2
  8
0
 10
4291.3772770299601689
 20
121.0683565456742059
 30
0.0
 11
4293.0308203370614137
 21
121.0683565456742059
 31
0.0
  0
LINE
  5
EFA3
  8
0
 10
4293.0268833292602721
 20
121.0644195377740999
 30
0.0
 11
4291.3812140378604454
 21
121.0644195377740999
 31
0.0
  0
LINE
  5
EFA4
  8
0
 10
4291.3772770299601689
 20
121.0624510338740976
 30
0.0
 11
4293.0308203370614137
 21
121.0624510338740976
 31
0.0
  0
LINE
  5
EFA5
  8
0
 10
4293.0308203370614137
 20
121.0545770180740988
 30
0.0
 11
4291.3772770299601689
 21
121.0545770180740988
 31
0.0
  0
LINE
  5
EFA6
  8
0
 10
4292.7257022268604487
 20
120.3990652070741021
 30
0.0
 11
4292.7257022268604487
 21
120.4030022149741939
 31
0.0
  0
LINE
  5
EFA7
  8
0
 10
4291.6823951402602688
 20
120.3990652070741021
 30
0.0
 11
4291.6823951402602688
 21
120.4030022149741939
 31
0.0
  0
LINE
  5
EFA8
  8
0
 10
4291.3772770299601689
 20
120.3852856795740962
 30
0.0
 11
4293.0308203370614137
 21
120.3852856795740962
 31
0.0
  0
LINE
  5
EFA9
  8
0
 10
4293.0308203370614137
 20
120.3931596952740932
 30
0.0
 11
4291.3772770299601689
 21
120.3931596952740932
 31
0.0
  0
LINE
  5
EFAA
  8
0
 10
4291.3772770299601689
 20
120.3990652070741021
 30
0.0
 11
4293.0308203370614137
 21
120.3990652070741021
 31
0.0
  0
LINE
  5
EFAB
  8
0
 10
4293.0268833292602721
 20
120.4030022149741939
 30
0.0
 11
4291.3812140378604454
 21
120.4030022149741939
 31
0.0
  0
LINE
  5
EFAC
  8
0
 10
4291.3772770299601689
 20
120.4049707188741962
 30
0.0
 11
4293.0308203370614137
 21
120.4049707188741962
 31
0.0
  0
LINE
  5
EFAD
  8
0
 10
4293.0308203370614137
 20
120.412844734674195
 30
0.0
 11
4291.3772770299601689
 21
120.412844734674195
 31
0.0
  0
CIRCLE
  5
EFAE
  8
0
 10
4292.2040486835612683
 20
119.8675691440128048
 30
0.0
 40
0.0787401575
  0
ARC
  5
EFAF
  8
0
 10
4292.2040486835612683
 20
119.8675691439492965
 30
0.0
 40
0.0905511811406273
 50
39.7918194359729824
 51
140.2081805640270034
  0
ARC
  5
EFB0
  8
0
 10
4292.2040486835885531
 20
119.8675691439483018
 30
0.0
 40
0.0905511810800875
 50
219.7918194727033949
 51
320.2081806636048782
  0
ARC
  5
EFB1
  8
0
 10
4292.2038986252628092
 20
119.8675357123669016
 30
0.0
 40
0.0982757464272932
 50
158.8452807428230074
 51
206.1326239474730073
  0
ARC
  5
EFB2
  8
0
 10
4292.2796761352110479
 20
119.9305612702384991
 30
0.0
 40
0.0078740159256765
 50
219.791821810090795
 51
269.9999959960600791
  0
ARC
  5
EFB3
  8
0
 10
4292.2796761351601162
 20
119.8045770180126937
 30
0.0
 40
0.0078740156999982
 50
90.0
 51
140.2081786585731038
  0
ARC
  5
EFB4
  8
0
 10
4292.1284212319096696
 20
119.8045770177871958
 30
0.0
 40
0.0078740159256015
 50
39.7918205427466631
 51
89.9999967239354532
  0
ARC
  5
EFB5
  8
0
 10
4292.1284212319096696
 20
119.9305612702384991
 30
0.0
 40
0.0078740159256867
 50
270.0000003656572858
 51
310.5447529860683176
  0
ARC
  5
EFB6
  8
0
 10
4292.204196605942343
 20
119.8675966936097979
 30
0.0
 40
0.0982772783805947
 50
333.835963394604903
 51
21.1162574847527793
  0
LINE
  5
EFB7
  8
0
 10
4292.2796761351601162
 20
119.8124510337128044
 30
0.0
 11
4292.3078822356601449
 21
119.8124510338127067
 31
0.0
  0
LINE
  5
EFB8
  8
0
 10
4292.3377186529596656
 20
119.8183565456128008
 30
0.0
 11
4292.9816077386603865
 21
119.8183565456128008
 31
0.0
  0
LINE
  5
EFB9
  8
0
 10
4292.9816077386603865
 20
119.916781742512697
 30
0.0
 11
4292.3377186529596656
 21
119.9167817425127964
 31
0.0
  0
ARC
  5
EFBA
  8
0
 10
4292.3376323929232967
 20
119.9946699524738989
 30
0.0
 40
0.0778882577269081
 50
247.5448906364271124
 51
270.0634541996901135
  0
ARC
  5
EFBB
  8
0
 10
4292.3370142944895633
 20
119.9945637265651044
 30
0.0
 40
0.0775558129035868
 50
228.4568033448751123
 51
247.936928245253597
  0
ARC
  5
EFBC
  8
0
 10
4292.0695647414268024
 20
119.9969494244290047
 30
0.0
 40
0.0803728817901778
 50
293.2598886200632933
 51
317.7367259303825904
  0
ARC
  5
EFBD
  8
0
 10
4292.2040486835612683
 20
119.8675691440088968
 30
0.0
 40
0.1062992126038793
 50
90.0000000006253345
 51
134.8767254721657878
  0
ARC
  5
EFBE
  8
0
 10
4292.2036521363806969
 20
119.8653426374363988
 30
0.0
 40
0.1085264436549854
 50
40.981973309098862
 51
89.790645214451061
  0
ARC
  5
EFBF
  8
0
 10
4292.3370142944895633
 20
119.7405745614604058
 30
0.0
 40
0.0775558129035868
 50
112.063071754746602
 51
131.5431966551248024
  0
ARC
  5
EFC0
  8
0
 10
4292.0696009767561918
 20
119.7382296513071935
 30
0.0
 40
0.0803186343014175
 50
42.2591253321320721
 51
67.5310391045877623
  0
ARC
  5
EFC1
  8
0
 10
4292.2040486835612683
 20
119.8675691440166986
 30
0.0
 40
0.1062992126038793
 50
225.1232745278342122
 51
269.9999999993746087
  0
ARC
  5
EFC2
  8
0
 10
4292.2036521363806969
 20
119.8697956505890971
 30
0.0
 40
0.1085264436549854
 50
270.2093547855488964
 51
319.0180266909011948
  0
ARC
  5
EFC3
  8
0
 10
4292.3376349148466034
 20
119.7404555941348008
 30
0.0
 40
0.0779009964843503
 50
89.9384110398820837
 51
112.453244124105197
  0
LINE
  5
EFC4
  8
0
 10
4292.1002151314596631
 20
119.9226872543128053
 30
0.0
 11
4292.1284212319096696
 21
119.9226872543128053
 31
0.0
  0
LINE
  5
EFC5
  8
0
 10
4292.1002973836311867
 20
119.8124510338127067
 30
0.0
 11
4292.1284212323598695
 21
119.8124510326222065
 31
0.0
  0
LINE
  5
EFC6
  8
0
 10
4292.2796761352110479
 20
119.9226872543128053
 30
0.0
 11
4292.3078822356601449
 21
119.9226872543128053
 31
0.0
  0
LINE
  5
EFC7
  8
0
 10
4292.1122457500596283
 20
119.903002214912803
 30
0.0
 11
4292.134471428083998
 21
119.9255218999358021
 31
0.0
  0
LINE
  5
EFC8
  8
0
 10
4292.2924284398668533
 20
119.8242501174774048
 30
0.0
 11
4292.2762766005689627
 21
119.8116793618374061
 31
0.0
  0
LINE
  5
EFC9
  8
0
 10
4292.1156689272538642
 20
119.8242501174774048
 30
0.0
 11
4292.1317618940829561
 21
119.8117072424010985
 31
0.0
  0
LINE
  5
EFCA
  8
0
 10
4292.2958516170601797
 20
119.903002214912803
 30
0.0
 11
4292.2745576954712305
 21
119.9245778179662949
 31
0.0
  0
CIRCLE
  5
EFCB
  8
0
 10
4292.2040486835612683
 20
119.8675691440128048
 30
0.0
 40
0.0568258139000051
  0
LINE
  5
EFCC
  8
0
 10
4292.2958746976928524
 20
119.903002214912803
 30
0.0
 11
4292.9875132504603243
 21
119.903002214912803
 31
0.0
  0
LINE
  5
EFCD
  8
0
 10
4292.9875132504603243
 20
119.903002214912803
 30
0.0
 11
4292.9875132504603243
 21
119.8242620574127955
 31
0.0
  0
LINE
  5
EFCE
  8
0
 10
4292.9875132504603243
 20
119.8242620574127955
 30
0.0
 11
4292.2924342911846907
 21
119.8242620574127955
 31
0.0
  0
LINE
  5
EFCF
  8
0
 10
4292.312316400059899
 20
119.903002214912803
 30
0.0
 11
4292.312316400059899
 21
119.8242620574127955
 31
0.0
  0
ARC
  5
EFD0
  8
0
 10
4292.9816070837077859
 20
119.8675691440128048
 30
0.0
 40
0.0492125984043552
 50
270.0007625279426975
 51
89.9992374720573167
  0
LINE
  5
EFD1
  8
0
 10
4292.0703787141601424
 20
119.8183565456128008
 30
0.0
 11
4291.426489628460331
 21
119.8183565456128008
 31
0.0
  0
LINE
  5
EFD2
  8
0
 10
4291.426489628460331
 20
119.916781742512697
 30
0.0
 11
4292.0703787141601424
 21
119.9167817425127964
 31
0.0
  0
ARC
  5
EFD3
  8
0
 10
4292.0704649741974208
 20
119.9946699524738989
 30
0.0
 40
0.0778882577269081
 50
269.9365458003098865
 51
292.4551093635728876
  0
ARC
  5
EFD4
  8
0
 10
4292.0704624522732047
 20
119.7404555941348008
 30
0.0
 40
0.0779009964843503
 50
67.5467558758948456
 51
90.061588960117902
  0
LINE
  5
EFD5
  8
0
 10
4292.1122226694287747
 20
119.903002214912803
 30
0.0
 11
4291.4205841166603932
 21
119.903002214912803
 31
0.0
  0
LINE
  5
EFD6
  8
0
 10
4291.4205841166603932
 20
119.903002214912803
 30
0.0
 11
4291.4205841166603932
 21
119.8242620574127955
 31
0.0
  0
LINE
  5
EFD7
  8
0
 10
4291.4205841166603932
 20
119.8242620574127955
 30
0.0
 11
4292.1156630759369364
 21
119.8242620574127955
 31
0.0
  0
LINE
  5
EFD8
  8
0
 10
4292.0957809670608185
 20
119.903002214912803
 30
0.0
 11
4292.0957809670608185
 21
119.8242620574127955
 31
0.0
  0
ARC
  5
EFD9
  8
0
 10
4291.4264902834120221
 20
119.8675691440128048
 30
0.0
 40
0.0492125984043552
 50
90.0007625279426975
 51
269.9992374720573025
  0
LINE
  5
EFDA
  8
0
 10
4283.3457809670608185
 20
117.1167588854035984
 30
0.0
 11
4283.3457809670608185
 21
118.1825297740128065
 31
0.0
  0
LINE
  5
EFDB
  8
0
 10
4291.2985368725603621
 20
119.4738683566127975
 30
0.0
 11
4291.2985368725603621
 21
120.3400100889740969
 31
0.0
  0
LINE
  5
EFDC
  8
0
 10
4291.2985368725603621
 20
120.3596951283740992
 30
0.0
 11
4291.2985368725603621
 21
121.1077266243741946
 31
0.0
  0
ARC
  5
EFDD
  8
0
 10
4291.3182219119607907
 20
120.3596951283740992
 30
0.0
 40
0.0196850394000023
 50
180.0
 51
270.0
  0
ARC
  5
EFDE
  8
0
 10
4296.1016864788607563
 20
119.4344982779127946
 30
0.0
 40
0.0393700787000029
 50
0.0000000000130276
 51
90.0
  0
ARC
  5
EFDF
  8
0
 10
4288.3064108882599612
 20
119.4344982779127946
 30
0.0
 40
0.0393700786999959
 50
90.0
 51
180.0000000000129887
  0
LINE
  5
EFE0
  8
0
 10
4288.2670408095609673
 20
119.4344982779127946
 30
0.0
 11
4288.2670408095609673
 21
118.1825297740128065
 31
0.0
  0
ARC
  5
EFE1
  8
0
 10
4283.3851510457598124
 20
117.1167588854126933
 30
0.0
 40
0.0393700787000189
 50
180.0000000000065086
 51
269.9999999999478746
  0
ARC
  5
EFE2
  8
0
 10
4301.0229463213609051
 20
117.1167588854126933
 30
0.0
 40
0.0393700787000189
 50
270.0000000000521254
 51
359.9999999999935199
  0
LINE
  5
EFE3
  8
0
 10
4283.3851510457598124
 20
117.0773888067128041
 30
0.0
 11
4301.0229463213609051
 21
117.0773888067127046
 31
0.0
  0
LINE
  5
EFE4
  8
0
 10
4301.0229463213609051
 20
117.7494589079127962
 30
0.0
 11
4283.3851510457598124
 21
117.7494589078127945
 31
0.0
  0
ARC
  5
EFE5
  8
0
 10
4283.3851510457598124
 20
117.7888289866127991
 30
0.0
 40
0.0393700786999967
 50
180.0
 51
270.0
  0
ARC
  5
EFE6
  8
0
 10
4301.0229463213609051
 20
117.7888289866127991
 30
0.0
 40
0.0393700786999958
 50
270.0000000003126956
 51
0.0000000000065138
  0
ARC
  5
EFE7
  8
0
 10
4293.8609836742980406
 20
117.0268322400994947
 30
0.0
 40
0.3579793993034727
 50
78.5946863006798395
 51
90.543370795751045
  0
ARC
  5
EFE8
  8
0
 10
4293.8602215010068903
 20
117.1671900318249016
 30
0.0
 40
0.1761597748085251
 50
75.3477675185441313
 51
90.8573596262632037
  0
ARC
  5
EFE9
  8
0
 10
4293.8926043096025751
 20
117.2835142523002929
 30
0.0
 40
0.0554599967266534
 50
52.2715496281174126
 51
77.31652933686388
  0
ARC
  5
EFEA
  8
0
 10
4293.9186507227032052
 20
117.3175186579578053
 30
0.0
 40
0.012628624829893
 50
5.2508020617508979
 51
51.3307766369457781
  0
ARC
  5
EFEB
  8
0
 10
4293.8594607497916513
 20
117.477758684177104
 30
0.0
 40
0.1835976780620572
 50
269.414802022170818
 51
283.7044892439745922
  0
ARC
  5
EFEC
  8
0
 10
4293.8887616256897672
 20
117.3624696787062049
 30
0.0
 40
0.0646593728601427
 50
282.6826657899313204
 51
304.7699002906790042
  0
ARC
  5
EFED
  8
0
 10
4293.9178786842803675
 20
117.320345347581295
 30
0.0
 40
0.0134518557778138
 50
305.2153283049838137
 51
352.864352768294907
  0
LINE
  5
EFEE
  8
0
 10
4293.9317734745463895
 20
117.3777425626986002
 30
0.0
 11
4293.9312266232609545
 21
117.3186743734128044
 31
0.0
  0
LINE
  5
EFEF
  8
0
 10
4293.9560171874600201
 20
117.3643323497126971
 30
0.0
 11
4293.9560171874600201
 21
117.3405944008127051
 31
0.0
  0
ARC
  5
EFF0
  8
0
 10
4293.909149589107983
 20
117.4249956789496991
 30
0.0
 40
0.100433945488393
 50
282.8477820438740196
 51
291.227073277743898
  0
ARC
  5
EFF1
  8
0
 10
4293.9501659789675614
 20
117.3408725580048042
 30
0.0
 40
0.0058578163375386
 50
313.1779561715172804
 51
357.2782983389108722
  0
ARC
  5
EFF2
  8
0
 10
4293.9351062830992305
 20
117.3584177157658957
 30
0.0
 40
0.0289752368748588
 50
291.0490062316071089
 51
311.15355407480331
  0
ARC
  5
EFF3
  8
0
 10
4293.9113874807217144
 20
117.2864011702748002
 30
0.0
 40
0.0935886676581334
 50
68.471529585309554
 51
77.418656648748069
  0
ARC
  5
EFF4
  8
0
 10
4293.9336358516056862
 20
117.3432659022006987
 30
0.0
 40
0.0325271941234113
 50
54.0009427122384409
 51
68.1702092072209354
  0
ARC
  5
EFF5
  8
0
 10
4293.9476273376712925
 20
117.362266861436197
 30
0.0
 40
0.0089323892193468
 50
28.7682036950316409
 51
54.9711942225254475
  0
ARC
  5
EFF6
  8
0
 10
4293.9511774129023252
 20
117.364305810329995
 30
0.0
 40
0.0048398473223366
 50
0.3141839275887305
 51
27.8358423212834794
  0
ARC
  5
EFF7
  8
0
 10
4293.8954195398009688
 20
117.3187030414580931
 30
0.0
 40
0.0054797415363355
 50
0.494488427932523
 51
28.1732835969270887
  0
ARC
  5
EFF8
  8
0
 10
4293.8882596708699566
 20
117.3137237960948056
 30
0.0
 40
0.0141781744380479
 50
32.2536773888930881
 51
45.113047959139422
  0
ARC
  5
EFF9
  8
0
 10
4293.8955342967537945
 20
117.3188153470843957
 30
0.0
 40
0.0053651744276775
 50
331.2643720397836091
 51
359.3056899666062236
  0
ARC
  5
EFFA
  8
0
 10
4293.892104324752836
 20
117.3207646880024981
 30
0.0
 40
0.00931011371331
 50
311.1844327701833208
 51
330.8935766797462747
  0
ARC
  5
EFFB
  8
0
 10
4293.8836437584132
 20
117.3306936365187028
 30
0.0
 40
0.0223543870406743
 50
288.9192133466904124
 51
310.7469296143038946
  0
ARC
  5
EFFC
  8
0
 10
4293.8640546185506537
 20
117.3805625332318954
 30
0.0
 40
0.0759174206535167
 50
278.3237813414415882
 51
290.7018624684694146
  0
ARC
  5
EFFD
  8
0
 10
4293.8530009444530151
 20
117.4875529529178948
 30
0.0
 40
0.1834374603567228
 50
271.2188137773816266
 51
276.9020159305317179
  0
ARC
  5
EFFE
  8
0
 10
4293.8720714086648513
 20
117.2853964861686933
 30
0.0
 40
0.0464604746480032
 50
55.6816999037827074
 51
76.3735808034505084
  0
ARC
  5
EFFF
  8
0
 10
4293.8462229259930609
 20
117.1098344792249009
 30
0.0
 40
0.2237605885263652
 50
80.5355740964730131
 51
87.0464569101495158
  0
ARC
  5
F000
  8
0
 10
4293.8541939024507883
 20
117.0268322400994947
 30
0.0
 40
0.3579793993034727
 50
89.456629204248955
 51
101.4053136993201036
  0
ARC
  5
F001
  8
0
 10
4293.854955095742298
 20
117.167195181192298
 30
0.0
 40
0.1761545450119094
 50
89.1443777144666853
 51
104.6523477568341036
  0
ARC
  5
F002
  8
0
 10
4293.8225732671453443
 20
117.2835142523002929
 30
0.0
 40
0.0554599967266534
 50
102.6834706631361058
 51
127.7284503718826016
  0
ARC
  5
F003
  8
0
 10
4293.7965268540456236
 20
117.3175186579578053
 30
0.0
 40
0.012628624829893
 50
128.6692233630541864
 51
174.7491979382490968
  0
ARC
  5
F004
  8
0
 10
4293.855716084965934
 20
117.4777545323405974
 30
0.0
 40
0.1835934686382473
 50
256.2954287528930877
 51
270.5834424301611989
  0
ARC
  5
F005
  8
0
 10
4293.8264159510581521
 20
117.3624696787062049
 30
0.0
 40
0.0646593728601427
 50
235.2300997093209105
 51
257.3173342100686227
  0
ARC
  5
F006
  8
0
 10
4293.7972988924675519
 20
117.320345347581295
 30
0.0
 40
0.0134518557778138
 50
187.135647231705093
 51
234.7846716950161863
  0
LINE
  5
F007
  8
0
 10
4293.7834041022033489
 20
117.3777425626986002
 30
0.0
 11
4293.7839509534878744
 21
117.3186743734128044
 31
0.0
  0
LINE
  5
F008
  8
0
 10
4293.7591603892888088
 20
117.3643323497126971
 30
0.0
 11
4293.7591603892888088
 21
117.3405944008127051
 31
0.0
  0
ARC
  5
F009
  8
0
 10
4293.8060279876408458
 20
117.4249956789496991
 30
0.0
 40
0.100433945488393
 50
248.7729267222559884
 51
257.1522179561259804
  0
ARC
  5
F00A
  8
0
 10
4293.765011597780358
 20
117.3408725580048042
 30
0.0
 40
0.0058578163375386
 50
182.7217016610890141
 51
226.8220438284826912
  0
ARC
  5
F00B
  8
0
 10
4293.7800712936495984
 20
117.3584177157658957
 30
0.0
 40
0.0289752368748588
 50
228.8464459251966048
 51
248.9509937683928911
  0
ARC
  5
F00C
  8
0
 10
4293.803790096026205
 20
117.2864011702748002
 30
0.0
 40
0.0935886676581334
 50
102.5813433512519026
 51
111.5284704146904033
  0
ARC
  5
F00D
  8
0
 10
4293.7815417251431427
 20
117.3432659022006987
 30
0.0
 40
0.0325271941234113
 50
111.8297907927790931
 51
125.9990572877615023
  0
ARC
  5
F00E
  8
0
 10
4293.7675502390766269
 20
117.362266861436197
 30
0.0
 40
0.0089323892193468
 50
125.0288057774745027
 51
151.2317963049682987
  0
ARC
  5
F00F
  8
0
 10
4293.7640001638455942
 20
117.364305810329995
 30
0.0
 40
0.0048398473223366
 50
152.1641576787164922
 51
179.6858160724111997
  0
ARC
  5
F010
  8
0
 10
4293.8197580369478601
 20
117.3187030414580931
 30
0.0
 40
0.0054797415363355
 50
151.8267164030729077
 51
179.5055115720674905
  0
ARC
  5
F011
  8
0
 10
4293.8269179058788723
 20
117.3137237960948056
 30
0.0
 40
0.0141781744380479
 50
134.8869520408605069
 51
147.7463226111069048
  0
ARC
  5
F012
  8
0
 10
4293.8196432799941249
 20
117.3188153470843957
 30
0.0
 40
0.0053651744276775
 50
180.6943100333938048
 51
208.7356279602163909
  0
ARC
  5
F013
  8
0
 10
4293.8230732519950834
 20
117.3207646880024981
 30
0.0
 40
0.00931011371331
 50
209.1064233202536968
 51
228.8155672298167076
  0
ARC
  5
F014
  8
0
 10
4293.8315338183356289
 20
117.3306936365187028
 30
0.0
 40
0.0223543870406743
 50
229.2530703856961907
 51
251.0807866533095876
  0
ARC
  5
F015
  8
0
 10
4293.8511229581981752
 20
117.3805625332318954
 30
0.0
 40
0.0759174206535167
 50
249.2981375315306138
 51
261.6762186585585255
  0
ARC
  5
F016
  8
0
 10
4293.8640560245012239
 20
117.5071384899311937
 30
0.0
 40
0.2031074990143816
 50
263.2356063914890001
 51
267.981684754754383
  0
ARC
  5
F017
  8
0
 10
4293.843106168083068
 20
117.2853964861686933
 30
0.0
 40
0.0464604746480032
 50
103.6264191965495058
 51
124.3183000962172997
  0
ARC
  5
F018
  8
0
 10
4293.8683016087470605
 20
117.1145612039463941
 30
0.0
 40
0.2189908618603538
 50
92.7610990525196968
 51
99.4992462436756995
  0
ARC
  5
F019
  8
0
 10
4293.8609836742980406
 20
117.1417443537462049
 30
0.0
 40
0.3579793993034727
 50
78.5946863006798395
 51
90.543370795751045
  0
ARC
  5
F01A
  8
0
 10
4293.8602215010068903
 20
117.2821021454715975
 30
0.0
 40
0.1761597748085251
 50
75.3477675185441313
 51
90.8573596262632037
  0
ARC
  5
F01B
  8
0
 10
4293.8926043096025751
 20
117.3984263659470031
 30
0.0
 40
0.0554599967266534
 50
52.2715496281174126
 51
77.31652933686388
  0
ARC
  5
F01C
  8
0
 10
4293.9186507227032052
 20
117.4324307716045013
 30
0.0
 40
0.012628624829893
 50
5.2508020617508979
 51
51.3307766369457781
  0
ARC
  5
F01D
  8
0
 10
4293.8594607497916513
 20
117.5926707978237999
 30
0.0
 40
0.1835976780620572
 50
269.414802022170818
 51
283.7044892439745922
  0
ARC
  5
F01E
  8
0
 10
4293.8887616256897672
 20
117.4773817923529009
 30
0.0
 40
0.0646593728601427
 50
282.6826657899313204
 51
304.7699002906790042
  0
ARC
  5
F01F
  8
0
 10
4293.9178786842803675
 20
117.4352574612281046
 30
0.0
 40
0.0134518557778138
 50
305.2153283049838137
 51
352.864352768294907
  0
LINE
  5
F020
  8
0
 10
4293.9317734745463895
 20
117.4926546763452961
 30
0.0
 11
4293.9312266232609545
 21
117.4335864870595003
 31
0.0
  0
LINE
  5
F021
  8
0
 10
4293.9560171874600201
 20
117.4792444633596062
 30
0.0
 11
4293.9560171874600201
 21
117.4555065144595005
 31
0.0
  0
ARC
  5
F022
  8
0
 10
4293.909149589107983
 20
117.5399077925964946
 30
0.0
 40
0.100433945488393
 50
282.8477820438740196
 51
291.227073277743898
  0
ARC
  5
F023
  8
0
 10
4293.9501659789675614
 20
117.4557846716515996
 30
0.0
 40
0.0058578163375386
 50
313.1779561715172804
 51
357.2782983389108722
  0
ARC
  5
F024
  8
0
 10
4293.9351062830992305
 20
117.4733298294126058
 30
0.0
 40
0.0289752368748588
 50
291.0490062316071089
 51
311.15355407480331
  0
ARC
  5
F025
  8
0
 10
4293.9113874807217144
 20
117.4013132839216951
 30
0.0
 40
0.0935886676581334
 50
68.471529585309554
 51
77.418656648748069
  0
ARC
  5
F026
  8
0
 10
4293.9336358516056862
 20
117.4581780158475937
 30
0.0
 40
0.0325271941234113
 50
54.0009427122384409
 51
68.1702092072209354
  0
ARC
  5
F027
  8
0
 10
4293.9476273376712925
 20
117.4771789750830067
 30
0.0
 40
0.0089323892193468
 50
28.7682036950316409
 51
54.9711942225254475
  0
ARC
  5
F028
  8
0
 10
4293.9511774129023252
 20
117.4792179239769041
 30
0.0
 40
0.0048398473223366
 50
0.3141839275887305
 51
27.8358423212834794
  0
ARC
  5
F029
  8
0
 10
4293.8954195398009688
 20
117.4336151551049028
 30
0.0
 40
0.0054797415363355
 50
0.494488427932523
 51
28.1732835969270887
  0
ARC
  5
F02A
  8
0
 10
4293.8882596708699566
 20
117.4286359097415016
 30
0.0
 40
0.0141781744380479
 50
32.2536773888930881
 51
45.113047959139422
  0
ARC
  5
F02B
  8
0
 10
4293.8955342967537945
 20
117.4337274607312054
 30
0.0
 40
0.0053651744276775
 50
331.2643720397836091
 51
359.3056899666062236
  0
ARC
  5
F02C
  8
0
 10
4293.892104324752836
 20
117.435676801649393
 30
0.0
 40
0.00931011371331
 50
311.1844327701833208
 51
330.8935766797462747
  0
ARC
  5
F02D
  8
0
 10
4293.8836437584132
 20
117.4456057501653987
 30
0.0
 40
0.0223543870406743
 50
288.9192133466904124
 51
310.7469296143038946
  0
ARC
  5
F02E
  8
0
 10
4293.8640546185506537
 20
117.495474646878705
 30
0.0
 40
0.0759174206535167
 50
278.3237813414415882
 51
290.7018624684694146
  0
ARC
  5
F02F
  8
0
 10
4293.8530009444530151
 20
117.602465066564605
 30
0.0
 40
0.1834374603567228
 50
271.2188137773816266
 51
276.9020159305317179
  0
ARC
  5
F030
  8
0
 10
4293.8720714086648513
 20
117.4003085998154035
 30
0.0
 40
0.0464604746480032
 50
55.6816999037827074
 51
76.3735808034505084
  0
ARC
  5
F031
  8
0
 10
4293.8462229259930609
 20
117.2247465928716963
 30
0.0
 40
0.2237605885263652
 50
80.5355740964730131
 51
87.0464569101495158
  0
ARC
  5
F032
  8
0
 10
4293.8541939024507883
 20
117.1417443537462049
 30
0.0
 40
0.3579793993034727
 50
89.456629204248955
 51
101.4053136993201036
  0
ARC
  5
F033
  8
0
 10
4293.854955095742298
 20
117.2821072948391929
 30
0.0
 40
0.1761545450119094
 50
89.1443777144666853
 51
104.6523477568341036
  0
ARC
  5
F034
  8
0
 10
4293.8225732671453443
 20
117.3984263659470031
 30
0.0
 40
0.0554599967266534
 50
102.6834706631361058
 51
127.7284503718826016
  0
ARC
  5
F035
  8
0
 10
4293.7965268540456236
 20
117.4324307716045013
 30
0.0
 40
0.012628624829893
 50
128.6692233630541864
 51
174.7491979382490968
  0
ARC
  5
F036
  8
0
 10
4293.855716084965934
 20
117.5926666459872934
 30
0.0
 40
0.1835934686382473
 50
256.2954287528930877
 51
270.5834424301611989
  0
ARC
  5
F037
  8
0
 10
4293.8264159510581521
 20
117.4773817923529009
 30
0.0
 40
0.0646593728601427
 50
235.2300997093209105
 51
257.3173342100686227
  0
ARC
  5
F038
  8
0
 10
4293.7972988924675519
 20
117.4352574612281046
 30
0.0
 40
0.0134518557778138
 50
187.135647231705093
 51
234.7846716950161863
  0
LINE
  5
F039
  8
0
 10
4293.7834041022033489
 20
117.4926546763452961
 30
0.0
 11
4293.7839509534878744
 21
117.4335864870595003
 31
0.0
  0
LINE
  5
F03A
  8
0
 10
4293.7591603892888088
 20
117.4792444633596062
 30
0.0
 11
4293.7591603892888088
 21
117.4555065144595005
 31
0.0
  0
ARC
  5
F03B
  8
0
 10
4293.8060279876408458
 20
117.5399077925964946
 30
0.0
 40
0.100433945488393
 50
248.7729267222559884
 51
257.1522179561259804
  0
ARC
  5
F03C
  8
0
 10
4293.765011597780358
 20
117.4557846716515996
 30
0.0
 40
0.0058578163375386
 50
182.7217016610890141
 51
226.8220438284826912
  0
ARC
  5
F03D
  8
0
 10
4293.7800712936495984
 20
117.4733298294126058
 30
0.0
 40
0.0289752368748588
 50
228.8464459251966048
 51
248.9509937683928911
  0
ARC
  5
F03E
  8
0
 10
4293.803790096026205
 20
117.4013132839216951
 30
0.0
 40
0.0935886676581334
 50
102.5813433512519026
 51
111.5284704146904033
  0
ARC
  5
F03F
  8
0
 10
4293.7815417251431427
 20
117.4581780158475937
 30
0.0
 40
0.0325271941234113
 50
111.8297907927790931
 51
125.9990572877615023
  0
ARC
  5
F040
  8
0
 10
4293.7675502390766269
 20
117.4771789750830067
 30
0.0
 40
0.0089323892193468
 50
125.0288057774745027
 51
151.2317963049682987
  0
ARC
  5
F041
  8
0
 10
4293.7640001638455942
 20
117.4792179239769041
 30
0.0
 40
0.0048398473223366
 50
152.1641576787164922
 51
179.6858160724111997
  0
ARC
  5
F042
  8
0
 10
4293.8197580369478601
 20
117.4336151551049028
 30
0.0
 40
0.0054797415363355
 50
151.8267164030729077
 51
179.5055115720674905
  0
ARC
  5
F043
  8
0
 10
4293.8269179058788723
 20
117.4286359097415016
 30
0.0
 40
0.0141781744380479
 50
134.8869520408605069
 51
147.7463226111069048
  0
ARC
  5
F044
  8
0
 10
4293.8196432799941249
 20
117.4337274607312054
 30
0.0
 40
0.0053651744276775
 50
180.6943100333938048
 51
208.7356279602163909
  0
ARC
  5
F045
  8
0
 10
4293.8230732519950834
 20
117.435676801649393
 30
0.0
 40
0.00931011371331
 50
209.1064233202536968
 51
228.8155672298167076
  0
ARC
  5
F046
  8
0
 10
4293.8315338183356289
 20
117.4456057501653987
 30
0.0
 40
0.0223543870406743
 50
229.2530703856961907
 51
251.0807866533095876
  0
ARC
  5
F047
  8
0
 10
4293.8511229581981752
 20
117.495474646878705
 30
0.0
 40
0.0759174206535167
 50
249.2981375315306138
 51
261.6762186585585255
  0
ARC
  5
F048
  8
0
 10
4293.8640560245012239
 20
117.6220506035779039
 30
0.0
 40
0.2031074990143816
 50
263.2356063914890001
 51
267.981684754754383
  0
ARC
  5
F049
  8
0
 10
4293.843106168083068
 20
117.4003085998154035
 30
0.0
 40
0.0464604746480032
 50
103.6264191965495058
 51
124.3183000962172997
  0
ARC
  5
F04A
  8
0
 10
4293.8683016087470605
 20
117.2294733175931043
 30
0.0
 40
0.2189908618603538
 50
92.7610990525196968
 51
99.4992462436756995
  0
ARC
  5
F04B
  8
0
 10
4293.3098025719018551
 20
117.1414292350171991
 30
0.0
 40
0.3579793993034727
 50
78.5946863006798395
 51
90.543370795751045
  0
ARC
  5
F04C
  8
0
 10
4293.3090403986097954
 20
117.2817870267425064
 30
0.0
 40
0.1761597748085251
 50
75.3477675185441313
 51
90.8573596262632037
  0
ARC
  5
F04D
  8
0
 10
4293.3414232072072991
 20
117.3981112472178978
 30
0.0
 40
0.0554599967266534
 50
52.2715496281174126
 51
77.31652933686388
  0
ARC
  5
F04E
  8
0
 10
4293.3674696203070198
 20
117.4321156528754955
 30
0.0
 40
0.012628624829893
 50
5.2508020617508979
 51
51.3307766369457781
  0
ARC
  5
F04F
  8
0
 10
4293.3082796473963754
 20
117.5923556790947941
 30
0.0
 40
0.1835976780620572
 50
269.414802022170818
 51
283.7044892439745922
  0
ARC
  5
F050
  8
0
 10
4293.3375805232954008
 20
117.4770666736237956
 30
0.0
 40
0.0646593728601427
 50
282.6826657899313204
 51
304.7699002906790042
  0
ARC
  5
F051
  8
0
 10
4293.3666975818850915
 20
117.4349423424989993
 30
0.0
 40
0.0134518557778138
 50
305.2153283049838137
 51
352.864352768294907
  0
LINE
  5
F052
  8
0
 10
4293.3805923721492945
 20
117.4923395576162051
 30
0.0
 11
4293.3800455208647691
 21
117.433271368330395
 31
0.0
  0
LINE
  5
F053
  8
0
 10
4293.4048360850638346
 20
117.478929344630501
 30
0.0
 11
4293.4048360850638346
 21
117.4551913957304947
 31
0.0
  0
ARC
  5
F054
  8
0
 10
4293.3579684867117976
 20
117.5395926738674035
 30
0.0
 40
0.100433945488393
 50
282.8477820438740196
 51
291.227073277743898
  0
ARC
  5
F055
  8
0
 10
4293.3989848765731949
 20
117.4554695529224944
 30
0.0
 40
0.0058578163375386
 50
313.1779561715172804
 51
357.2782983389108722
  0
ARC
  5
F056
  8
0
 10
4293.383925180703045
 20
117.4730147106835005
 30
0.0
 40
0.0289752368748588
 50
291.0490062316071089
 51
311.15355407480331
  0
ARC
  5
F057
  8
0
 10
4293.3602063783264384
 20
117.400998165192604
 30
0.0
 40
0.0935886676581334
 50
68.471529585309554
 51
77.418656648748069
  0
ARC
  5
F058
  8
0
 10
4293.3824547492085912
 20
117.4578628971185026
 30
0.0
 40
0.0325271941234113
 50
54.0009427122384409
 51
68.1702092072209354
  0
ARC
  5
F059
  8
0
 10
4293.3964462352760165
 20
117.4768638563539014
 30
0.0
 40
0.0089323892193468
 50
28.7682036950316409
 51
54.9711942225254475
  0
ARC
  5
F05A
  8
0
 10
4293.3999963105070492
 20
117.4789028052477988
 30
0.0
 40
0.0048398473223366
 50
0.3141839275887305
 51
27.8358423212834794
  0
ARC
  5
F05B
  8
0
 10
4293.3442384374056928
 20
117.433300036375698
 30
0.0
 40
0.0054797415363355
 50
0.494488427932523
 51
28.1732835969270887
  0
ARC
  5
F05C
  8
0
 10
4293.3370785684728617
 20
117.4283207910123963
 30
0.0
 40
0.0141781744380479
 50
32.2536773888930881
 51
45.113047959139422
  0
ARC
  5
F05D
  8
0
 10
4293.344353194359428
 20
117.4334123420020006
 30
0.0
 40
0.0053651744276775
 50
331.2643720397836091
 51
359.3056899666062236
  0
ARC
  5
F05E
  8
0
 10
4293.3409232223566505
 20
117.435361682920302
 30
0.0
 40
0.00931011371331
 50
311.1844327701833208
 51
330.8935766797462747
  0
ARC
  5
F05F
  8
0
 10
4293.332462656016105
 20
117.4452906314362934
 30
0.0
 40
0.0223543870406743
 50
288.9192133466904124
 51
310.7469296143038946
  0
ARC
  5
F060
  8
0
 10
4293.3128735161535587
 20
117.4951595281495003
 30
0.0
 40
0.0759174206535167
 50
278.3237813414415882
 51
290.7018624684694146
  0
ARC
  5
F061
  8
0
 10
4293.3018198420559202
 20
117.6021499478354997
 30
0.0
 40
0.1834374603567228
 50
271.2188137773816266
 51
276.9020159305317179
  0
ARC
  5
F062
  8
0
 10
4293.3208903062695754
 20
117.3999934810862982
 30
0.0
 40
0.0464604746480032
 50
55.6816999037827074
 51
76.3735808034505084
  0
ARC
  5
F063
  8
0
 10
4293.295041823595966
 20
117.2244314741426052
 30
0.0
 40
0.2237605885263652
 50
80.5355740964730131
 51
87.0464569101495158
  0
ARC
  5
F064
  8
0
 10
4293.3030128000546028
 20
117.1414292350171991
 30
0.0
 40
0.3579793993034727
 50
89.456629204248955
 51
101.4053136993201036
  0
ARC
  5
F065
  8
0
 10
4293.3037739933461125
 20
117.2817921761100024
 30
0.0
 40
0.1761545450119094
 50
89.1443777144666853
 51
104.6523477568341036
  0
ARC
  5
F066
  8
0
 10
4293.2713921647500683
 20
117.3981112472178978
 30
0.0
 40
0.0554599967266534
 50
102.6834706631361058
 51
127.7284503718826016
  0
ARC
  5
F067
  8
0
 10
4293.2453457516494382
 20
117.4321156528754955
 30
0.0
 40
0.012628624829893
 50
128.6692233630541864
 51
174.7491979382490968
  0
ARC
  5
F068
  8
0
 10
4293.3045349825697485
 20
117.5923515272583018
 30
0.0
 40
0.1835934686382473
 50
256.2954287528930877
 51
270.5834424301611989
  0
ARC
  5
F069
  8
0
 10
4293.2752348486628762
 20
117.4770666736237956
 30
0.0
 40
0.0646593728601427
 50
235.2300997093209105
 51
257.3173342100686227
  0
ARC
  5
F06A
  8
0
 10
4293.246117790072276
 20
117.4349423424989993
 30
0.0
 40
0.0134518557778138
 50
187.135647231705093
 51
234.7846716950161863
  0
LINE
  5
F06B
  8
0
 10
4293.2322229998071634
 20
117.4923395576162051
 30
0.0
 11
4293.2327698510916889
 21
117.433271368330395
 31
0.0
  0
LINE
  5
F06C
  8
0
 10
4293.2079792868926233
 20
117.478929344630501
 30
0.0
 11
4293.2079792868926233
 21
117.4551913957304947
 31
0.0
  0
ARC
  5
F06D
  8
0
 10
4293.2548468852437509
 20
117.5395926738674035
 30
0.0
 40
0.100433945488393
 50
248.7729267222559884
 51
257.1522179561259804
  0
ARC
  5
F06E
  8
0
 10
4293.213830495385082
 20
117.4554695529224944
 30
0.0
 40
0.0058578163375386
 50
182.7217016610890141
 51
226.8220438284826912
  0
ARC
  5
F06F
  8
0
 10
4293.2288901912543224
 20
117.4730147106835005
 30
0.0
 40
0.0289752368748588
 50
228.8464459251966048
 51
248.9509937683928911
  0
ARC
  5
F070
  8
0
 10
4293.2526089936300195
 20
117.400998165192604
 30
0.0
 40
0.0935886676581334
 50
102.5813433512519026
 51
111.5284704146904033
  0
ARC
  5
F071
  8
0
 10
4293.2303606227469572
 20
117.4578628971185026
 30
0.0
 40
0.0325271941234113
 50
111.8297907927790931
 51
125.9990572877615023
  0
ARC
  5
F072
  8
0
 10
4293.2163691366822604
 20
117.4768638563539014
 30
0.0
 40
0.0089323892193468
 50
125.0288057774745027
 51
151.2317963049682987
  0
ARC
  5
F073
  8
0
 10
4293.2128190614494088
 20
117.4789028052477988
 30
0.0
 40
0.0048398473223366
 50
152.1641576787164922
 51
179.6858160724111997
  0
ARC
  5
F074
  8
0
 10
4293.2685769345507651
 20
117.433300036375698
 30
0.0
 40
0.0054797415363355
 50
151.8267164030729077
 51
179.5055115720674905
  0
ARC
  5
F075
  8
0
 10
4293.2757368034817773
 20
117.4283207910123963
 30
0.0
 40
0.0141781744380479
 50
134.8869520408605069
 51
147.7463226111069048
  0
ARC
  5
F076
  8
0
 10
4293.2684621775979394
 20
117.4334123420020006
 30
0.0
 40
0.0053651744276775
 50
180.6943100333938048
 51
208.7356279602163909
  0
ARC
  5
F077
  8
0
 10
4293.271892149598898
 20
117.435361682920302
 30
0.0
 40
0.00931011371331
 50
209.1064233202536968
 51
228.8155672298167076
  0
ARC
  5
F078
  8
0
 10
4293.2803527159412624
 20
117.4452906314362934
 30
0.0
 40
0.0223543870406743
 50
229.2530703856961907
 51
251.0807866533095876
  0
ARC
  5
F079
  8
0
 10
4293.2999418558028992
 20
117.4951595281495003
 30
0.0
 40
0.0759174206535167
 50
249.2981375315306138
 51
261.6762186585585255
  0
ARC
  5
F07A
  8
0
 10
4293.3128749221041289
 20
117.6217354848487986
 30
0.0
 40
0.2031074990143816
 50
263.2356063914890001
 51
267.981684754754383
  0
ARC
  5
F07B
  8
0
 10
4293.2919250656877921
 20
117.3999934810862982
 30
0.0
 40
0.0464604746480032
 50
103.6264191965495058
 51
124.3183000962172997
  0
ARC
  5
F07C
  8
0
 10
4293.3171205063499656
 20
117.2291581988640985
 30
0.0
 40
0.2189908618603538
 50
92.7610990525196968
 51
99.4992462436756995
  0
ARC
  5
F07D
  8
0
 10
4293.3098076137366661
 20
117.0268322401258985
 30
0.0
 40
0.3579793993034727
 50
78.5946863006798395
 51
90.543370795751045
  0
ARC
  5
F07E
  8
0
 10
4293.3090454404464253
 20
117.1671900318513053
 30
0.0
 40
0.1761597748085251
 50
75.3477675185441313
 51
90.8573596262632037
  0
ARC
  5
F07F
  8
0
 10
4293.3414282490421101
 20
117.2835142523265972
 30
0.0
 40
0.0554599967266534
 50
52.2715496281174126
 51
77.31652933686388
  0
ARC
  5
F080
  8
0
 10
4293.3674746621427403
 20
117.3175186579841949
 30
0.0
 40
0.012628624829893
 50
5.2508020617508979
 51
51.3307766369457781
  0
ARC
  5
F081
  8
0
 10
4293.3082846892311863
 20
117.4777586842034935
 30
0.0
 40
0.1835976780620572
 50
269.414802022170818
 51
283.7044892439745922
  0
ARC
  5
F082
  8
0
 10
4293.3375855651293023
 20
117.3624696787325945
 30
0.0
 40
0.0646593728601427
 50
282.6826657899313204
 51
304.7699002906790042
  0
ARC
  5
F083
  8
0
 10
4293.3667026237199025
 20
117.3203453476077982
 30
0.0
 40
0.0134518557778138
 50
305.2153283049838137
 51
352.864352768294907
  0
LINE
  5
F084
  8
0
 10
4293.3805974139841055
 20
117.3777425627249045
 30
0.0
 11
4293.3800505626986705
 21
117.3186743734391939
 31
0.0
  0
LINE
  5
F085
  8
0
 10
4293.4048411268986456
 20
117.3643323497392004
 30
0.0
 11
4293.4048411268986456
 21
117.3405944008391941
 31
0.0
  0
ARC
  5
F086
  8
0
 10
4293.3579735285466086
 20
117.4249956789761029
 30
0.0
 40
0.100433945488393
 50
282.8477820438740196
 51
291.227073277743898
  0
ARC
  5
F087
  8
0
 10
4293.3989899184070964
 20
117.3408725580311938
 30
0.0
 40
0.0058578163375386
 50
313.1779561715172804
 51
357.2782983389108722
  0
ARC
  5
F088
  8
0
 10
4293.383930222537856
 20
117.3584177157921999
 30
0.0
 40
0.0289752368748588
 50
291.0490062316071089
 51
311.15355407480331
  0
ARC
  5
F089
  8
0
 10
4293.3602114201621589
 20
117.2864011703013034
 30
0.0
 40
0.0935886676581334
 50
68.471529585309554
 51
77.418656648748069
  0
ARC
  5
F08A
  8
0
 10
4293.3824597910452212
 20
117.3432659022271025
 30
0.0
 40
0.0325271941234113
 50
54.0009427122384409
 51
68.1702092072209354
  0
ARC
  5
F08B
  8
0
 10
4293.3964512771108275
 20
117.3622668614625013
 30
0.0
 40
0.0089323892193468
 50
28.7682036950316409
 51
54.9711942225254475
  0
ARC
  5
F08C
  8
0
 10
4293.4000013523427697
 20
117.3643058103563988
 30
0.0
 40
0.0048398473223366
 50
0.3141839275887305
 51
27.8358423212834794
  0
ARC
  5
F08D
  8
0
 10
4293.3442434792395943
 20
117.3187030414843974
 30
0.0
 40
0.0054797415363355
 50
0.494488427932523
 51
28.1732835969270887
  0
ARC
  5
F08E
  8
0
 10
4293.3370836103085821
 20
117.3137237961210957
 30
0.0
 40
0.0141781744380479
 50
32.2536773888930881
 51
45.113047959139422
  0
ARC
  5
F08F
  8
0
 10
4293.344358236194239
 20
117.3188153471107995
 30
0.0
 40
0.0053651744276775
 50
331.2643720397836091
 51
359.3056899666062236
  0
ARC
  5
F090
  8
0
 10
4293.3409282641932805
 20
117.3207646880289019
 30
0.0
 40
0.00931011371331
 50
311.1844327701833208
 51
330.8935766797462747
  0
ARC
  5
F091
  8
0
 10
4293.332467697852735
 20
117.3306936365451065
 30
0.0
 40
0.0223543870406743
 50
288.9192133466904124
 51
310.7469296143038946
  0
ARC
  5
F092
  8
0
 10
4293.3128785579901887
 20
117.3805625332582991
 30
0.0
 40
0.0759174206535167
 50
278.3237813414415882
 51
290.7018624684694146
  0
ARC
  5
F093
  8
0
 10
4293.3018248838925501
 20
117.4875529529441991
 30
0.0
 40
0.1834374603567228
 50
271.2188137773816266
 51
276.9020159305317179
  0
ARC
  5
F094
  8
0
 10
4293.3208953481043864
 20
117.2853964861949976
 30
0.0
 40
0.0464604746480032
 50
55.6816999037827074
 51
76.3735808034505084
  0
ARC
  5
F095
  8
0
 10
4293.2950468654316865
 20
117.1098344792512052
 30
0.0
 40
0.2237605885263652
 50
80.5355740964730131
 51
87.0464569101495158
  0
ARC
  5
F096
  8
0
 10
4293.3030178418903233
 20
117.0268322401258985
 30
0.0
 40
0.3579793993034727
 50
89.456629204248955
 51
101.4053136993201036
  0
ARC
  5
F097
  8
0
 10
4293.303779035181833
 20
117.1671951812187018
 30
0.0
 40
0.1761545450119094
 50
89.1443777144666853
 51
104.6523477568341036
  0
ARC
  5
F098
  8
0
 10
4293.2713972065839698
 20
117.2835142523265972
 30
0.0
 40
0.0554599967266534
 50
102.6834706631361058
 51
127.7284503718826016
  0
ARC
  5
F099
  8
0
 10
4293.2453507934842492
 20
117.3175186579841949
 30
0.0
 40
0.012628624829893
 50
128.6692233630541864
 51
174.7491979382490968
  0
ARC
  5
F09A
  8
0
 10
4293.3045400244045595
 20
117.4777545323670012
 30
0.0
 40
0.1835934686382473
 50
256.2954287528930877
 51
270.5834424301611989
  0
ARC
  5
F09B
  8
0
 10
4293.2752398904976872
 20
117.3624696787325945
 30
0.0
 40
0.0646593728601427
 50
235.2300997093209105
 51
257.3173342100686227
  0
ARC
  5
F09C
  8
0
 10
4293.2461228319070869
 20
117.3203453476077982
 30
0.0
 40
0.0134518557778138
 50
187.135647231705093
 51
234.7846716950161863
  0
LINE
  5
F09D
  8
0
 10
4293.2322280416428839
 20
117.3777425627249045
 30
0.0
 11
4293.2327748929274094
 21
117.3186743734391939
 31
0.0
  0
LINE
  5
F09E
  8
0
 10
4293.2079843287274343
 20
117.3643323497392004
 30
0.0
 11
4293.2079843287274343
 21
117.3405944008391941
 31
0.0
  0
ARC
  5
F09F
  8
0
 10
4293.2548519270803808
 20
117.4249956789761029
 30
0.0
 40
0.100433945488393
 50
248.7729267222559884
 51
257.1522179561259804
  0
ARC
  5
F0A0
  8
0
 10
4293.213835537219893
 20
117.3408725580311938
 30
0.0
 40
0.0058578163375386
 50
182.7217016610890141
 51
226.8220438284826912
  0
ARC
  5
F0A1
  8
0
 10
4293.2288952330891334
 20
117.3584177157921999
 30
0.0
 40
0.0289752368748588
 50
228.8464459251966048
 51
248.9509937683928911
  0
ARC
  5
F0A2
  8
0
 10
4293.2526140354648305
 20
117.2864011703013034
 30
0.0
 40
0.0935886676581334
 50
102.5813433512519026
 51
111.5284704146904033
  0
ARC
  5
F0A3
  8
0
 10
4293.2303656645826777
 20
117.3432659022271025
 30
0.0
 40
0.0325271941234113
 50
111.8297907927790931
 51
125.9990572877615023
  0
ARC
  5
F0A4
  8
0
 10
4293.2163741785152524
 20
117.3622668614625013
 30
0.0
 40
0.0089323892193468
 50
125.0288057774745027
 51
151.2317963049682987
  0
ARC
  5
F0A5
  8
0
 10
4293.2128241032842197
 20
117.3643058103563988
 30
0.0
 40
0.0048398473223366
 50
152.1641576787164922
 51
179.6858160724111997
  0
ARC
  5
F0A6
  8
0
 10
4293.2685819763873951
 20
117.3187030414843974
 30
0.0
 40
0.0054797415363355
 50
151.8267164030729077
 51
179.5055115720674905
  0
ARC
  5
F0A7
  8
0
 10
4293.2757418453184073
 20
117.3137237961210957
 30
0.0
 40
0.0141781744380479
 50
134.8869520408605069
 51
147.7463226111069048
  0
ARC
  5
F0A8
  8
0
 10
4293.2684672194327504
 20
117.3188153471107995
 30
0.0
 40
0.0053651744276775
 50
180.6943100333938048
 51
208.7356279602163909
  0
ARC
  5
F0A9
  8
0
 10
4293.2718971914337089
 20
117.3207646880289019
 30
0.0
 40
0.00931011371331
 50
209.1064233202536968
 51
228.8155672298167076
  0
ARC
  5
F0AA
  8
0
 10
4293.2803577577751639
 20
117.3306936365451065
 30
0.0
 40
0.0223543870406743
 50
229.2530703856961907
 51
251.0807866533095876
  0
ARC
  5
F0AB
  8
0
 10
4293.2999468976368007
 20
117.3805625332582991
 30
0.0
 40
0.0759174206535167
 50
249.2981375315306138
 51
261.6762186585585255
  0
ARC
  5
F0AC
  8
0
 10
4293.3128799639398494
 20
117.5071384899575975
 30
0.0
 40
0.2031074990143816
 50
263.2356063914890001
 51
267.981684754754383
  0
ARC
  5
F0AD
  8
0
 10
4293.2919301075216936
 20
117.2853964861949976
 30
0.0
 40
0.0464604746480032
 50
103.6264191965495058
 51
124.3183000962172997
  0
ARC
  5
F0AE
  8
0
 10
4293.3171255481865956
 20
117.1145612039727979
 30
0.0
 40
0.2189908618603538
 50
92.7610990525196968
 51
99.4992462436756995
  0
ARC
  5
F0AF
  8
0
 10
4292.7586214696011666
 20
117.1414292350171991
 30
0.0
 40
0.3579793993034727
 50
78.5946863006798395
 51
90.543370795751045
  0
ARC
  5
F0B0
  8
0
 10
4292.7578592963109259
 20
117.2817870267425064
 30
0.0
 40
0.1761597748085251
 50
75.3477675185441313
 51
90.8573596262632037
  0
ARC
  5
F0B1
  8
0
 10
4292.7902421049057011
 20
117.3981112472178978
 30
0.0
 40
0.0554599967266534
 50
52.2715496281174126
 51
77.31652933686388
  0
ARC
  5
F0B2
  8
0
 10
4292.8162885180072408
 20
117.4321156528754955
 30
0.0
 40
0.012628624829893
 50
5.2508020617508979
 51
51.3307766369457781
  0
ARC
  5
F0B3
  8
0
 10
4292.7570985450965964
 20
117.5923556790947941
 30
0.0
 40
0.1835976780620572
 50
269.414802022170818
 51
283.7044892439745922
  0
ARC
  5
F0B4
  8
0
 10
4292.7863994209928933
 20
117.4770666736237956
 30
0.0
 40
0.0646593728601427
 50
282.6826657899313204
 51
304.7699002906790042
  0
ARC
  5
F0B5
  8
0
 10
4292.815516479584403
 20
117.4349423424989993
 30
0.0
 40
0.0134518557778138
 50
305.2153283049838137
 51
352.864352768294907
  0
LINE
  5
F0B6
  8
0
 10
4292.8294112698476965
 20
117.4923395576162051
 30
0.0
 11
4292.8288644185640806
 21
117.433271368330395
 31
0.0
  0
LINE
  5
F0B7
  8
0
 10
4292.8536549827640556
 20
117.478929344630501
 30
0.0
 11
4292.8536549827640556
 21
117.4551913957304947
 31
0.0
  0
ARC
  5
F0B8
  8
0
 10
4292.8067873844111091
 20
117.5395926738674035
 30
0.0
 40
0.100433945488393
 50
282.8477820438740196
 51
291.227073277743898
  0
ARC
  5
F0B9
  8
0
 10
4292.8478037742706874
 20
117.4554695529224944
 30
0.0
 40
0.0058578163375386
 50
313.1779561715172804
 51
357.2782983389108722
  0
ARC
  5
F0BA
  8
0
 10
4292.8327440784023565
 20
117.4730147106835005
 30
0.0
 40
0.0289752368748588
 50
291.0490062316071089
 51
311.15355407480331
  0
ARC
  5
F0BB
  8
0
 10
4292.8090252760266594
 20
117.400998165192604
 30
0.0
 40
0.0935886676581334
 50
68.471529585309554
 51
77.418656648748069
  0
ARC
  5
F0BC
  8
0
 10
4292.8312736469088122
 20
117.4578628971185026
 30
0.0
 40
0.0325271941234113
 50
54.0009427122384409
 51
68.1702092072209354
  0
ARC
  5
F0BD
  8
0
 10
4292.845265132975328
 20
117.4768638563539014
 30
0.0
 40
0.0089323892193468
 50
28.7682036950316409
 51
54.9711942225254475
  0
ARC
  5
F0BE
  8
0
 10
4292.8488152082063607
 20
117.4789028052477988
 30
0.0
 40
0.0048398473223366
 50
0.3141839275887305
 51
27.8358423212834794
  0
ARC
  5
F0BF
  8
0
 10
4292.7930573351050043
 20
117.433300036375698
 30
0.0
 40
0.0054797415363355
 50
0.494488427932523
 51
28.1732835969270887
  0
ARC
  5
F0C0
  8
0
 10
4292.7858974661730826
 20
117.4283207910123963
 30
0.0
 40
0.0141781744380479
 50
32.2536773888930881
 51
45.113047959139422
  0
ARC
  5
F0C1
  8
0
 10
4292.7931720920569205
 20
117.4334123420020006
 30
0.0
 40
0.0053651744276775
 50
331.2643720397836091
 51
359.3056899666062236
  0
ARC
  5
F0C2
  8
0
 10
4292.789742120055962
 20
117.435361682920302
 30
0.0
 40
0.00931011371331
 50
311.1844327701833208
 51
330.8935766797462747
  0
ARC
  5
F0C3
  8
0
 10
4292.781281553716326
 20
117.4452906314362934
 30
0.0
 40
0.0223543870406743
 50
288.9192133466904124
 51
310.7469296143038946
  0
ARC
  5
F0C4
  8
0
 10
4292.7616924138528702
 20
117.4951595281495003
 30
0.0
 40
0.0759174206535167
 50
278.3237813414415882
 51
290.7018624684694146
  0
ARC
  5
F0C5
  8
0
 10
4292.7506387397561411
 20
117.6021499478354997
 30
0.0
 40
0.1834374603567228
 50
271.2188137773816266
 51
276.9020159305317179
  0
ARC
  5
F0C6
  8
0
 10
4292.7697092039688869
 20
117.3999934810862982
 30
0.0
 40
0.0464604746480032
 50
55.6816999037827074
 51
76.3735808034505084
  0
ARC
  5
F0C7
  8
0
 10
4292.743860721296187
 20
117.2244314741426052
 30
0.0
 40
0.2237605885263652
 50
80.5355740964730131
 51
87.0464569101495158
  0
ARC
  5
F0C8
  8
0
 10
4292.7518316977548238
 20
117.1414292350171991
 30
0.0
 40
0.3579793993034727
 50
89.456629204248955
 51
101.4053136993201036
  0
ARC
  5
F0C9
  8
0
 10
4292.7525928910463335
 20
117.2817921761100024
 30
0.0
 40
0.1761545450119094
 50
89.1443777144666853
 51
104.6523477568341036
  0
ARC
  5
F0CA
  8
0
 10
4292.7202110624493798
 20
117.3981112472178978
 30
0.0
 40
0.0554599967266534
 50
102.6834706631361058
 51
127.7284503718826016
  0
ARC
  5
F0CB
  8
0
 10
4292.6941646493487497
 20
117.4321156528754955
 30
0.0
 40
0.012628624829893
 50
128.6692233630541864
 51
174.7491979382490968
  0
ARC
  5
F0CC
  8
0
 10
4292.7533538802699695
 20
117.5923515272583018
 30
0.0
 40
0.1835934686382473
 50
256.2954287528930877
 51
270.5834424301611989
  0
ARC
  5
F0CD
  8
0
 10
4292.7240537463621877
 20
117.4770666736237956
 30
0.0
 40
0.0646593728601427
 50
235.2300997093209105
 51
257.3173342100686227
  0
ARC
  5
F0CE
  8
0
 10
4292.694936687770678
 20
117.4349423424989993
 30
0.0
 40
0.0134518557778138
 50
187.135647231705093
 51
234.7846716950161863
  0
LINE
  5
F0CF
  8
0
 10
4292.6810418975055654
 20
117.4923395576162051
 30
0.0
 11
4292.6815887487910004
 21
117.433271368330395
 31
0.0
  0
LINE
  5
F0D0
  8
0
 10
4292.6567981845919348
 20
117.478929344630501
 30
0.0
 11
4292.6567981845919348
 21
117.4551913957304947
 31
0.0
  0
ARC
  5
F0D1
  8
0
 10
4292.7036657829439719
 20
117.5395926738674035
 30
0.0
 40
0.100433945488393
 50
248.7729267222559884
 51
257.1522179561259804
  0
ARC
  5
F0D2
  8
0
 10
4292.662649393085303
 20
117.4554695529224944
 30
0.0
 40
0.0058578163375386
 50
182.7217016610890141
 51
226.8220438284826912
  0
ARC
  5
F0D3
  8
0
 10
4292.6777090889536339
 20
117.4730147106835005
 30
0.0
 40
0.0289752368748588
 50
228.8464459251966048
 51
248.9509937683928911
  0
ARC
  5
F0D4
  8
0
 10
4292.701427891329331
 20
117.400998165192604
 30
0.0
 40
0.0935886676581334
 50
102.5813433512519026
 51
111.5284704146904033
  0
ARC
  5
F0D5
  8
0
 10
4292.6791795204471782
 20
117.4578628971185026
 30
0.0
 40
0.0325271941234113
 50
111.8297907927790931
 51
125.9990572877615023
  0
ARC
  5
F0D6
  8
0
 10
4292.6651880343797529
 20
117.4768638563539014
 30
0.0
 40
0.0089323892193468
 50
125.0288057774745027
 51
151.2317963049682987
  0
ARC
  5
F0D7
  8
0
 10
4292.6616379591478108
 20
117.4789028052477988
 30
0.0
 40
0.0048398473223366
 50
152.1641576787164922
 51
179.6858160724111997
  0
ARC
  5
F0D8
  8
0
 10
4292.7173958322509861
 20
117.433300036375698
 30
0.0
 40
0.0054797415363355
 50
151.8267164030729077
 51
179.5055115720674905
  0
ARC
  5
F0D9
  8
0
 10
4292.7245557011819983
 20
117.4283207910123963
 30
0.0
 40
0.0141781744380479
 50
134.8869520408605069
 51
147.7463226111069048
  0
ARC
  5
F0DA
  8
0
 10
4292.7172810752963414
 20
117.4334123420020006
 30
0.0
 40
0.0053651744276775
 50
180.6943100333938048
 51
208.7356279602163909
  0
ARC
  5
F0DB
  8
0
 10
4292.7207110472982095
 20
117.435361682920302
 30
0.0
 40
0.00931011371331
 50
209.1064233202536968
 51
228.8155672298167076
  0
ARC
  5
F0DC
  8
0
 10
4292.7291716136387549
 20
117.4452906314362934
 30
0.0
 40
0.0223543870406743
 50
229.2530703856961907
 51
251.0807866533095876
  0
ARC
  5
F0DD
  8
0
 10
4292.7487607535022107
 20
117.4951595281495003
 30
0.0
 40
0.0759174206535167
 50
249.2981375315306138
 51
261.6762186585585255
  0
ARC
  5
F0DE
  8
0
 10
4292.7616938198043499
 20
117.6217354848487986
 30
0.0
 40
0.2031074990143816
 50
263.2356063914890001
 51
267.981684754754383
  0
ARC
  5
F0DF
  8
0
 10
4292.7407439633880131
 20
117.3999934810862982
 30
0.0
 40
0.0464604746480032
 50
103.6264191965495058
 51
124.3183000962172997
  0
ARC
  5
F0E0
  8
0
 10
4292.7659394040501866
 20
117.2291581988640985
 30
0.0
 40
0.2189908618603538
 50
92.7610990525196968
 51
99.4992462436756995
  0
ARC
  5
F0E1
  8
0
 10
4292.7586214695966191
 20
117.0268322400994947
 30
0.0
 40
0.3579793993034727
 50
78.5946863006798395
 51
90.543370795751045
  0
ARC
  5
F0E2
  8
0
 10
4292.7578592963072879
 20
117.1671900318249016
 30
0.0
 40
0.1761597748085251
 50
75.3477675185441313
 51
90.8573596262632037
  0
ARC
  5
F0E3
  8
0
 10
4292.7902421049029726
 20
117.2835142523002929
 30
0.0
 40
0.0554599967266534
 50
52.2715496281174126
 51
77.31652933686388
  0
ARC
  5
F0E4
  8
0
 10
4292.8162885180026933
 20
117.3175186579578053
 30
0.0
 40
0.012628624829893
 50
5.2508020617508979
 51
51.3307766369457781
  0
ARC
  5
F0E5
  8
0
 10
4292.7570985450920489
 20
117.477758684177104
 30
0.0
 40
0.1835976780620572
 50
269.414802022170818
 51
283.7044892439745922
  0
ARC
  5
F0E6
  8
0
 10
4292.7863994209901648
 20
117.3624696787062049
 30
0.0
 40
0.0646593728601427
 50
282.6826657899313204
 51
304.7699002906790042
  0
ARC
  5
F0E7
  8
0
 10
4292.8155164795798555
 20
117.320345347581295
 30
0.0
 40
0.0134518557778138
 50
305.2153283049838137
 51
352.864352768294907
  0
LINE
  5
F0E8
  8
0
 10
4292.829411269844968
 20
117.3777425626986002
 30
0.0
 11
4292.8288644185604426
 21
117.3186743734128044
 31
0.0
  0
LINE
  5
F0E9
  8
0
 10
4292.8536549827604176
 20
117.3643323497126971
 30
0.0
 11
4292.8536549827604176
 21
117.3405944008127051
 31
0.0
  0
ARC
  5
F0EA
  8
0
 10
4292.8067873844083806
 20
117.4249956789496991
 30
0.0
 40
0.100433945488393
 50
282.8477820438740196
 51
291.227073277743898
  0
ARC
  5
F0EB
  8
0
 10
4292.8478037742670494
 20
117.3408725580048042
 30
0.0
 40
0.0058578163375386
 50
313.1779561715172804
 51
357.2782983389108722
  0
ARC
  5
F0EC
  8
0
 10
4292.8327440783978091
 20
117.3584177157658957
 30
0.0
 40
0.0289752368748588
 50
291.0490062316071089
 51
311.15355407480331
  0
ARC
  5
F0ED
  8
0
 10
4292.8090252760230214
 20
117.2864011702748002
 30
0.0
 40
0.0935886676581334
 50
68.471529585309554
 51
77.418656648748069
  0
ARC
  5
F0EE
  8
0
 10
4292.8312736469051742
 20
117.3432659022006987
 30
0.0
 40
0.0325271941234113
 50
54.0009427122384409
 51
68.1702092072209354
  0
ARC
  5
F0EF
  8
0
 10
4292.84526513297169
 20
117.362266861436197
 30
0.0
 40
0.0089323892193468
 50
28.7682036950316409
 51
54.9711942225254475
  0
ARC
  5
F0F0
  8
0
 10
4292.8488152082036322
 20
117.364305810329995
 30
0.0
 40
0.0048398473223366
 50
0.3141839275887305
 51
27.8358423212834794
  0
ARC
  5
F0F1
  8
0
 10
4292.7930573351013663
 20
117.3187030414580931
 30
0.0
 40
0.0054797415363355
 50
0.494488427932523
 51
28.1732835969270887
  0
ARC
  5
F0F2
  8
0
 10
4292.7858974661703542
 20
117.3137237960948056
 30
0.0
 40
0.0141781744380479
 50
32.2536773888930881
 51
45.113047959139422
  0
ARC
  5
F0F3
  8
0
 10
4292.7931720920551015
 20
117.3188153470843957
 30
0.0
 40
0.0053651744276775
 50
331.2643720397836091
 51
359.3056899666062236
  0
ARC
  5
F0F4
  8
0
 10
4292.789742120054143
 20
117.3207646880024981
 30
0.0
 40
0.00931011371331
 50
311.1844327701833208
 51
330.8935766797462747
  0
ARC
  5
F0F5
  8
0
 10
4292.781281553712688
 20
117.3306936365187028
 30
0.0
 40
0.0223543870406743
 50
288.9192133466904124
 51
310.7469296143038946
  0
ARC
  5
F0F6
  8
0
 10
4292.7616924138501417
 20
117.3805625332318954
 30
0.0
 40
0.0759174206535167
 50
278.3237813414415882
 51
290.7018624684694146
  0
ARC
  5
F0F7
  8
0
 10
4292.7506387397534127
 20
117.4875529529178948
 30
0.0
 40
0.1834374603567228
 50
271.2188137773816266
 51
276.9020159305317179
  0
ARC
  5
F0F8
  8
0
 10
4292.7697092039652489
 20
117.2853964861686933
 30
0.0
 40
0.0464604746480032
 50
55.6816999037827074
 51
76.3735808034505084
  0
ARC
  5
F0F9
  8
0
 10
4292.743860721292549
 20
117.1098344792249009
 30
0.0
 40
0.2237605885263652
 50
80.5355740964730131
 51
87.0464569101495158
  0
ARC
  5
F0FA
  8
0
 10
4292.7518316977511859
 20
117.0268322400994947
 30
0.0
 40
0.3579793993034727
 50
89.456629204248955
 51
101.4053136993201036
  0
ARC
  5
F0FB
  8
0
 10
4292.7525928910426956
 20
117.167195181192298
 30
0.0
 40
0.1761545450119094
 50
89.1443777144666853
 51
104.6523477568341036
  0
ARC
  5
F0FC
  8
0
 10
4292.7202110624448324
 20
117.2835142523002929
 30
0.0
 40
0.0554599967266534
 50
102.6834706631361058
 51
127.7284503718826016
  0
ARC
  5
F0FD
  8
0
 10
4292.6941646493451117
 20
117.3175186579578053
 30
0.0
 40
0.012628624829893
 50
128.6692233630541864
 51
174.7491979382490968
  0
ARC
  5
F0FE
  8
0
 10
4292.7533538802663315
 20
117.4777545323405974
 30
0.0
 40
0.1835934686382473
 50
256.2954287528930877
 51
270.5834424301611989
  0
ARC
  5
F0FF
  8
0
 10
4292.7240537463585497
 20
117.3624696787062049
 30
0.0
 40
0.0646593728601427
 50
235.2300997093209105
 51
257.3173342100686227
  0
ARC
  5
F100
  8
0
 10
4292.6949366877679495
 20
117.320345347581295
 30
0.0
 40
0.0134518557778138
 50
187.135647231705093
 51
234.7846716950161863
  0
LINE
  5
F101
  8
0
 10
4292.6810418975037464
 20
117.3777425626986002
 30
0.0
 11
4292.6815887487882719
 21
117.3186743734128044
 31
0.0
  0
LINE
  5
F102
  8
0
 10
4292.6567981845882969
 20
117.3643323497126971
 30
0.0
 11
4292.6567981845882969
 21
117.3405944008127051
 31
0.0
  0
ARC
  5
F103
  8
0
 10
4292.7036657829412434
 20
117.4249956789496991
 30
0.0
 40
0.100433945488393
 50
248.7729267222559884
 51
257.1522179561259804
  0
ARC
  5
F104
  8
0
 10
4292.6626493930807555
 20
117.3408725580048042
 30
0.0
 40
0.0058578163375386
 50
182.7217016610890141
 51
226.8220438284826912
  0
ARC
  5
F105
  8
0
 10
4292.6777090889499959
 20
117.3584177157658957
 30
0.0
 40
0.0289752368748588
 50
228.8464459251966048
 51
248.9509937683928911
  0
ARC
  5
F106
  8
0
 10
4292.7014278913256931
 20
117.2864011702748002
 30
0.0
 40
0.0935886676581334
 50
102.5813433512519026
 51
111.5284704146904033
  0
ARC
  5
F107
  8
0
 10
4292.6791795204426307
 20
117.3432659022006987
 30
0.0
 40
0.0325271941234113
 50
111.8297907927790931
 51
125.9990572877615023
  0
ARC
  5
F108
  8
0
 10
4292.665188034376115
 20
117.362266861436197
 30
0.0
 40
0.0089323892193468
 50
125.0288057774745027
 51
151.2317963049682987
  0
ARC
  5
F109
  8
0
 10
4292.6616379591450823
 20
117.364305810329995
 30
0.0
 40
0.0048398473223366
 50
152.1641576787164922
 51
179.6858160724111997
  0
ARC
  5
F10A
  8
0
 10
4292.7173958322473482
 20
117.3187030414580931
 30
0.0
 40
0.0054797415363355
 50
151.8267164030729077
 51
179.5055115720674905
  0
ARC
  5
F10B
  8
0
 10
4292.7245557011792698
 20
117.3137237960948056
 30
0.0
 40
0.0141781744380479
 50
134.8869520408605069
 51
147.7463226111069048
  0
ARC
  5
F10C
  8
0
 10
4292.717281075293613
 20
117.3188153470843957
 30
0.0
 40
0.0053651744276775
 50
180.6943100333938048
 51
208.7356279602163909
  0
ARC
  5
F10D
  8
0
 10
4292.7207110472945715
 20
117.3207646880024981
 30
0.0
 40
0.00931011371331
 50
209.1064233202536968
 51
228.8155672298167076
  0
ARC
  5
F10E
  8
0
 10
4292.729171613635117
 20
117.3306936365187028
 30
0.0
 40
0.0223543870406743
 50
229.2530703856961907
 51
251.0807866533095876
  0
ARC
  5
F10F
  8
0
 10
4292.7487607534976632
 20
117.3805625332318954
 30
0.0
 40
0.0759174206535167
 50
249.2981375315306138
 51
261.6762186585585255
  0
ARC
  5
F110
  8
0
 10
4292.7616938198007119
 20
117.5071384899311937
 30
0.0
 40
0.2031074990143816
 50
263.2356063914890001
 51
267.981684754754383
  0
ARC
  5
F111
  8
0
 10
4292.7407439633825561
 20
117.2853964861686933
 30
0.0
 40
0.0464604746480032
 50
103.6264191965495058
 51
124.3183000962172997
  0
ARC
  5
F112
  8
0
 10
4292.7659394040483676
 20
117.1145612039463941
 30
0.0
 40
0.2189908618603538
 50
92.7610990525196968
 51
99.4992462436756995
  0
ARC
  5
F113
  8
0
 10
4284.1867258489601227
 20
117.702214813312807
 30
0.0
 40
0.0118110236
 50
270.0
 51
0.0000000000195413
  0
ARC
  5
F114
  8
0
 10
4284.0764896284608767
 20
117.702214813312807
 30
0.0
 40
0.0118110236000035
 50
180.0000000000194973
 51
270.0
  0
LINE
  5
F115
  8
0
 10
4284.1985368725609078
 20
117.7494589078127945
 30
0.0
 11
4284.1985368725609078
 21
117.702214813312807
 31
0.0
  0
LINE
  5
F116
  8
0
 10
4284.0646786048600916
 20
117.7494589078127945
 30
0.0
 11
4284.0646786048600916
 21
117.702214813312807
 31
0.0
  0
LINE
  5
F117
  8
0
 10
4284.1867258489601227
 20
117.6904037897128035
 30
0.0
 11
4284.0764896284608767
 21
117.6904037897128035
 31
0.0
  0
ARC
  5
F118
  8
0
 10
4284.5536549828102579
 20
117.702214813312807
 30
0.0
 40
0.0118110236
 50
270.0
 51
0.0000000000195413
  0
ARC
  5
F119
  8
0
 10
4284.4434187623101025
 20
117.702214813312807
 30
0.0
 40
0.0118110236000035
 50
180.0000000000194973
 51
270.0
  0
LINE
  5
F11A
  8
0
 10
4284.5654660064101336
 20
117.7494589078127945
 30
0.0
 11
4284.5654660064101336
 21
117.702214813312807
 31
0.0
  0
LINE
  5
F11B
  8
0
 10
4284.4316077387102268
 20
117.7494589078127945
 30
0.0
 11
4284.4316077387102268
 21
117.702214813312807
 31
0.0
  0
LINE
  5
F11C
  8
0
 10
4284.5536549828102579
 20
117.6904037897128035
 30
0.0
 11
4284.4434187623101025
 21
117.6904037897128035
 31
0.0
  0
ARC
  5
F11D
  8
0
 10
4284.9205841166613027
 20
117.702214813312807
 30
0.0
 40
0.0118110236
 50
270.0
 51
0.0000000000195413
  0
ARC
  5
F11E
  8
0
 10
4284.8103478961602377
 20
117.702214813312807
 30
0.0
 40
0.0118110236000035
 50
180.0000000000194973
 51
270.0
  0
LINE
  5
F11F
  8
0
 10
4284.9323951402602688
 20
117.7494589078127945
 30
0.0
 11
4284.9323951402602688
 21
117.702214813312807
 31
0.0
  0
LINE
  5
F120
  8
0
 10
4284.7985368725603621
 20
117.7494589078127945
 30
0.0
 11
4284.7985368725603621
 21
117.702214813312807
 31
0.0
  0
LINE
  5
F121
  8
0
 10
4284.9205841166613027
 20
117.6904037897128035
 30
0.0
 11
4284.8103478961602377
 21
117.6904037897128035
 31
0.0
  0
ARC
  5
F122
  8
0
 10
4285.287513250509619
 20
117.702214813312807
 30
0.0
 40
0.0118110236
 50
270.0
 51
0.0000000000195413
  0
ARC
  5
F123
  8
0
 10
4285.177277030010373
 20
117.702214813312807
 30
0.0
 40
0.0118110236000035
 50
180.0000000000194973
 51
270.0
  0
LINE
  5
F124
  8
0
 10
4285.2993242741104041
 20
117.7494589078127945
 30
0.0
 11
4285.2993242741104041
 21
117.702214813312807
 31
0.0
  0
LINE
  5
F125
  8
0
 10
4285.1654660064095879
 20
117.7494589078127945
 30
0.0
 11
4285.1654660064095879
 21
117.702214813312807
 31
0.0
  0
LINE
  5
F126
  8
0
 10
4285.287513250509619
 20
117.6904037897128035
 30
0.0
 11
4285.177277030010373
 21
117.6904037897128035
 31
0.0
  0
ARC
  5
F127
  8
0
 10
4285.6544423843606637
 20
117.702214813312807
 30
0.0
 40
0.0118110236
 50
270.0
 51
0.0000000000195413
  0
ARC
  5
F128
  8
0
 10
4285.5442061638595987
 20
117.702214813312807
 30
0.0
 40
0.0118110236000035
 50
180.0000000000194973
 51
270.0
  0
LINE
  5
F129
  8
0
 10
4285.6662534079596298
 20
117.7494589078127945
 30
0.0
 11
4285.6662534079596298
 21
117.702214813312807
 31
0.0
  0
LINE
  5
F12A
  8
0
 10
4285.5323951402597231
 20
117.7494589078127945
 30
0.0
 11
4285.5323951402597231
 21
117.702214813312807
 31
0.0
  0
LINE
  5
F12B
  8
0
 10
4285.6544423843606637
 20
117.6904037897128035
 30
0.0
 11
4285.5442061638595987
 21
117.6904037897128035
 31
0.0
  0
ARC
  5
F12C
  8
0
 10
4286.0213715182608212
 20
117.702214813312807
 30
0.0
 40
0.0118110236
 50
270.0
 51
0.0000000000195413
  0
ARC
  5
F12D
  8
0
 10
4285.9111352977606657
 20
117.702214813312807
 30
0.0
 40
0.0118110236000035
 50
180.0000000000194973
 51
270.0
  0
LINE
  5
F12E
  8
0
 10
4286.0331825418597873
 20
117.7494589078127945
 30
0.0
 11
4286.0331825418597873
 21
117.702214813312807
 31
0.0
  0
LINE
  5
F12F
  8
0
 10
4285.8993242741598806
 20
117.7494589078127945
 30
0.0
 11
4285.8993242741598806
 21
117.702214813312807
 31
0.0
  0
LINE
  5
F130
  8
0
 10
4286.0213715182608212
 20
117.6904037897128035
 30
0.0
 11
4285.9111352977606657
 21
117.6904037897128035
 31
0.0
  0
ARC
  5
F131
  8
0
 10
4286.3883006520609342
 20
117.702214813312807
 30
0.0
 40
0.0118110236
 50
270.0
 51
0.0000000000195413
  0
ARC
  5
F132
  8
0
 10
4286.2780644315598693
 20
117.702214813312807
 30
0.0
 40
0.0118110236000035
 50
180.0000000000194973
 51
270.0
  0
LINE
  5
F133
  8
0
 10
4286.4001116756608099
 20
117.7494589078127945
 30
0.0
 11
4286.4001116756608099
 21
117.702214813312807
 31
0.0
  0
LINE
  5
F134
  8
0
 10
4286.2662534079609031
 20
117.7494589078127945
 30
0.0
 11
4286.2662534079609031
 21
117.702214813312807
 31
0.0
  0
LINE
  5
F135
  8
0
 10
4286.3883006520609342
 20
117.6904037897128035
 30
0.0
 11
4286.2780644315598693
 21
117.6904037897128035
 31
0.0
  0
ARC
  5
F136
  8
0
 10
4286.7552297859601822
 20
117.702214813312807
 30
0.0
 40
0.0118110236
 50
270.0
 51
0.0000000000195413
  0
ARC
  5
F137
  8
0
 10
4286.6449935654600267
 20
117.702214813312807
 30
0.0
 40
0.0118110236000035
 50
180.0000000000194973
 51
270.0
  0
LINE
  5
F138
  8
0
 10
4286.7670408095609673
 20
117.7494589078127945
 30
0.0
 11
4286.7670408095609673
 21
117.702214813312807
 31
0.0
  0
LINE
  5
F139
  8
0
 10
4286.6331825418601511
 20
117.7494589078127945
 30
0.0
 11
4286.6331825418601511
 21
117.702214813312807
 31
0.0
  0
LINE
  5
F13A
  8
0
 10
4286.7552297859601822
 20
117.6904037897128035
 30
0.0
 11
4286.6449935654600267
 21
117.6904037897128035
 31
0.0
  0
ARC
  5
F13B
  8
0
 10
4287.1221589198103175
 20
117.702214813312807
 30
0.0
 40
0.0118110236
 50
270.0
 51
0.0000000000195413
  0
ARC
  5
F13C
  8
0
 10
4287.011922699310162
 20
117.702214813312807
 30
0.0
 40
0.0118110236000035
 50
180.0000000000194973
 51
270.0
  0
LINE
  5
F13D
  8
0
 10
4287.1339699434101931
 20
117.7494589078127945
 30
0.0
 11
4287.1339699434101931
 21
117.702214813312807
 31
0.0
  0
LINE
  5
F13E
  8
0
 10
4287.0001116757102864
 20
117.7494589078127945
 30
0.0
 11
4287.0001116757102864
 21
117.702214813312807
 31
0.0
  0
LINE
  5
F13F
  8
0
 10
4287.1221589198103175
 20
117.6904037897128035
 30
0.0
 11
4287.011922699310162
 21
117.6904037897128035
 31
0.0
  0
ARC
  5
F140
  8
0
 10
4287.4890880536604527
 20
117.702214813312807
 30
0.0
 40
0.0118110236
 50
270.0
 51
0.0000000000195413
  0
ARC
  5
F141
  8
0
 10
4287.3788518331593878
 20
117.702214813312807
 30
0.0
 40
0.0118110236000035
 50
180.0000000000194973
 51
270.0
  0
LINE
  5
F142
  8
0
 10
4287.5008990772612378
 20
117.7494589078127945
 30
0.0
 11
4287.5008990772612378
 21
117.702214813312807
 31
0.0
  0
LINE
  5
F143
  8
0
 10
4287.3670408095604216
 20
117.7494589078127945
 30
0.0
 11
4287.3670408095604216
 21
117.702214813312807
 31
0.0
  0
LINE
  5
F144
  8
0
 10
4287.4890880536604527
 20
117.6904037897128035
 30
0.0
 11
4287.3788518331593878
 21
117.6904037897128035
 31
0.0
  0
ARC
  5
F145
  8
0
 10
4287.8560171875597007
 20
117.702214813312807
 30
0.0
 40
0.0118110236
 50
270.0
 51
0.0000000000195413
  0
ARC
  5
F146
  8
0
 10
4287.7457809670604547
 20
117.702214813312807
 30
0.0
 40
0.0118110236000035
 50
180.0000000000194973
 51
270.0
  0
LINE
  5
F147
  8
0
 10
4287.8678282111613953
 20
117.7494589078127945
 30
0.0
 11
4287.8678282111613953
 21
117.702214813312807
 31
0.0
  0
LINE
  5
F148
  8
0
 10
4287.7339699434596696
 20
117.7494589078127945
 30
0.0
 11
4287.7339699434596696
 21
117.702214813312807
 31
0.0
  0
LINE
  5
F149
  8
0
 10
4287.8560171875597007
 20
117.6904037897128035
 30
0.0
 11
4287.7457809670604547
 21
117.6904037897128035
 31
0.0
  0
ARC
  5
F14A
  8
0
 10
4288.2229463213607232
 20
117.702214813312807
 30
0.0
 40
0.0118110236
 50
270.0
 51
0.0000000000195413
  0
ARC
  5
F14B
  8
0
 10
4288.1127101008596583
 20
117.702214813312807
 30
0.0
 40
0.0118110236000035
 50
180.0000000000194973
 51
270.0
  0
LINE
  5
F14C
  8
0
 10
4288.2347573449605989
 20
117.7494589078127945
 30
0.0
 11
4288.2347573449605989
 21
117.702214813312807
 31
0.0
  0
LINE
  5
F14D
  8
0
 10
4288.1008990772597826
 20
117.7494589078127945
 30
0.0
 11
4288.1008990772597826
 21
117.702214813312807
 31
0.0
  0
LINE
  5
F14E
  8
0
 10
4288.2229463213607232
 20
117.6904037897128035
 30
0.0
 11
4288.1127101008596583
 21
117.6904037897128035
 31
0.0
  0
ARC
  5
F14F
  8
0
 10
4291.8922376599603012
 20
117.702214813312807
 30
0.0
 40
0.0118110236
 50
270.0
 51
0.0000000000195413
  0
ARC
  5
F150
  8
0
 10
4291.7820014394601458
 20
117.702214813312807
 30
0.0
 40
0.0118110236000035
 50
180.0000000000194973
 51
270.0
  0
LINE
  5
F151
  8
0
 10
4291.9040486835601769
 20
117.7494589078127945
 30
0.0
 11
4291.9040486835601769
 21
117.702214813312807
 31
0.0
  0
LINE
  5
F152
  8
0
 10
4291.7701904158602702
 20
117.7494589078127945
 30
0.0
 11
4291.7701904158602702
 21
117.702214813312807
 31
0.0
  0
LINE
  5
F153
  8
0
 10
4291.8922376599603012
 20
117.6904037897128035
 30
0.0
 11
4291.7820014394601458
 21
117.6904037897128035
 31
0.0
  0
ARC
  5
F154
  8
0
 10
4291.525308526110166
 20
117.702214813312807
 30
0.0
 40
0.0118110236
 50
270.0
 51
0.0000000000195413
  0
ARC
  5
F155
  8
0
 10
4291.41507230561092
 20
117.702214813312807
 30
0.0
 40
0.0118110236000035
 50
180.0000000000194973
 51
270.0
  0
LINE
  5
F156
  8
0
 10
4291.5371195497109511
 20
117.7494589078127945
 30
0.0
 11
4291.5371195497109511
 21
117.702214813312807
 31
0.0
  0
LINE
  5
F157
  8
0
 10
4291.4032612820101349
 20
117.7494589078127945
 30
0.0
 11
4291.4032612820101349
 21
117.702214813312807
 31
0.0
  0
LINE
  5
F158
  8
0
 10
4291.525308526110166
 20
117.6904037897128035
 30
0.0
 11
4291.41507230561092
 21
117.6904037897128035
 31
0.0
  0
ARC
  5
F159
  8
0
 10
4291.1583793922600307
 20
117.702214813312807
 30
0.0
 40
0.0118110236
 50
270.0
 51
0.0000000000195413
  0
ARC
  5
F15A
  8
0
 10
4291.0481431717598753
 20
117.702214813312807
 30
0.0
 40
0.0118110236000035
 50
180.0000000000194973
 51
270.0
  0
LINE
  5
F15B
  8
0
 10
4291.1701904158608158
 20
117.7494589078127945
 30
0.0
 11
4291.1701904158608158
 21
117.702214813312807
 31
0.0
  0
LINE
  5
F15C
  8
0
 10
4291.0363321481609091
 20
117.7494589078127945
 30
0.0
 11
4291.0363321481609091
 21
117.702214813312807
 31
0.0
  0
LINE
  5
F15D
  8
0
 10
4291.1583793922600307
 20
117.6904037897128035
 30
0.0
 11
4291.0481431717598753
 21
117.6904037897128035
 31
0.0
  0
ARC
  5
F15E
  8
0
 10
4290.7914502583598733
 20
117.702214813312807
 30
0.0
 40
0.0118110236
 50
270.0
 51
0.0000000000195413
  0
ARC
  5
F15F
  8
0
 10
4290.6812140378597178
 20
117.702214813312807
 30
0.0
 40
0.0118110236000035
 50
180.0000000000194973
 51
270.0
  0
LINE
  5
F160
  8
0
 10
4290.8032612819597489
 20
117.7494589078127945
 30
0.0
 11
4290.8032612819597489
 21
117.702214813312807
 31
0.0
  0
LINE
  5
F161
  8
0
 10
4290.6694030142607517
 20
117.7494589078127945
 30
0.0
 11
4290.6694030142607517
 21
117.702214813312807
 31
0.0
  0
LINE
  5
F162
  8
0
 10
4290.7914502583598733
 20
117.6904037897128035
 30
0.0
 11
4290.6812140378597178
 21
117.6904037897128035
 31
0.0
  0
ARC
  5
F163
  8
0
 10
4290.4245211245606697
 20
117.702214813312807
 30
0.0
 40
0.0118110236
 50
270.0
 51
0.0000000000195413
  0
ARC
  5
F164
  8
0
 10
4290.3142849040596047
 20
117.702214813312807
 30
0.0
 40
0.0118110236000035
 50
180.0000000000194973
 51
270.0
  0
LINE
  5
F165
  8
0
 10
4290.4363321481596358
 20
117.7494589078127945
 30
0.0
 11
4290.4363321481596358
 21
117.702214813312807
 31
0.0
  0
LINE
  5
F166
  8
0
 10
4290.3024738804606386
 20
117.7494589078127945
 30
0.0
 11
4290.3024738804606386
 21
117.702214813312807
 31
0.0
  0
LINE
  5
F167
  8
0
 10
4290.4245211245606697
 20
117.6904037897128035
 30
0.0
 11
4290.3142849040596047
 21
117.6904037897128035
 31
0.0
  0
ARC
  5
F168
  8
0
 10
4290.0575919906596027
 20
117.702214813312807
 30
0.0
 40
0.0118110236
 50
270.0
 51
0.0000000000195413
  0
ARC
  5
F169
  8
0
 10
4289.9473557701603568
 20
117.702214813312807
 30
0.0
 40
0.0118110236000035
 50
180.0000000000194973
 51
270.0
  0
LINE
  5
F16A
  8
0
 10
4290.0694030142603879
 20
117.7494589078127945
 30
0.0
 11
4290.0694030142603879
 21
117.702214813312807
 31
0.0
  0
LINE
  5
F16B
  8
0
 10
4289.9355447465595716
 20
117.7494589078127945
 30
0.0
 11
4289.9355447465595716
 21
117.702214813312807
 31
0.0
  0
LINE
  5
F16C
  8
0
 10
4290.0575919906596027
 20
117.6904037897128035
 30
0.0
 11
4289.9473557701603568
 21
117.6904037897128035
 31
0.0
  0
ARC
  5
F16D
  8
0
 10
4289.690662856810377
 20
117.702214813312807
 30
0.0
 40
0.0118110236
 50
270.0
 51
0.0000000000195413
  0
ARC
  5
F16E
  8
0
 10
4289.5804266363102215
 20
117.702214813312807
 30
0.0
 40
0.0118110236000035
 50
180.0000000000194973
 51
270.0
  0
LINE
  5
F16F
  8
0
 10
4289.7024738804102526
 20
117.7494589078127945
 30
0.0
 11
4289.7024738804102526
 21
117.702214813312807
 31
0.0
  0
LINE
  5
F170
  8
0
 10
4289.5686156127112554
 20
117.7494589078127945
 30
0.0
 11
4289.5686156127112554
 21
117.702214813312807
 31
0.0
  0
LINE
  5
F171
  8
0
 10
4289.690662856810377
 20
117.6904037897128035
 30
0.0
 11
4289.5804266363102215
 21
117.6904037897128035
 31
0.0
  0
ARC
  5
F172
  8
0
 10
4289.3237337229602417
 20
117.702214813312807
 30
0.0
 40
0.0118110236
 50
270.0
 51
0.0000000000195413
  0
ARC
  5
F173
  8
0
 10
4289.2134975024600863
 20
117.702214813312807
 30
0.0
 40
0.0118110236000035
 50
180.0000000000194973
 51
270.0
  0
LINE
  5
F174
  8
0
 10
4289.3355447465601173
 20
117.7494589078127945
 30
0.0
 11
4289.3355447465601173
 21
117.702214813312807
 31
0.0
  0
LINE
  5
F175
  8
0
 10
4289.2016864788602106
 20
117.7494589078127945
 30
0.0
 11
4289.2016864788602106
 21
117.702214813312807
 31
0.0
  0
LINE
  5
F176
  8
0
 10
4289.3237337229602417
 20
117.6904037897128035
 30
0.0
 11
4289.2134975024600863
 21
117.6904037897128035
 31
0.0
  0
ARC
  5
F177
  8
0
 10
4288.9568045891101065
 20
117.702214813312807
 30
0.0
 40
0.0118110236
 50
270.0
 51
0.0000000000195413
  0
ARC
  5
F178
  8
0
 10
4288.8465683686108605
 20
117.702214813312807
 30
0.0
 40
0.0118110236000035
 50
180.0000000000194973
 51
270.0
  0
LINE
  5
F179
  8
0
 10
4288.9686156127108916
 20
117.7494589078127945
 30
0.0
 11
4288.9686156127108916
 21
117.702214813312807
 31
0.0
  0
LINE
  5
F17A
  8
0
 10
4288.8347573450100754
 20
117.7494589078127945
 30
0.0
 11
4288.8347573450100754
 21
117.702214813312807
 31
0.0
  0
LINE
  5
F17B
  8
0
 10
4288.9568045891101065
 20
117.6904037897128035
 30
0.0
 11
4288.8465683686108605
 21
117.6904037897128035
 31
0.0
  0
ARC
  5
F17C
  8
0
 10
4288.5898754552608807
 20
117.702214813312807
 30
0.0
 40
0.0118110236
 50
270.0
 51
0.0000000000195413
  0
ARC
  5
F17D
  8
0
 10
4288.4796392347598157
 20
117.702214813312807
 30
0.0
 40
0.0118110236000035
 50
180.0000000000194973
 51
270.0
  0
LINE
  5
F17E
  8
0
 10
4288.6016864788607563
 20
117.7494589078127945
 30
0.0
 11
4288.6016864788607563
 21
117.702214813312807
 31
0.0
  0
LINE
  5
F17F
  8
0
 10
4288.4678282111599401
 20
117.7494589078127945
 30
0.0
 11
4288.4678282111599401
 21
117.702214813312807
 31
0.0
  0
LINE
  5
F180
  8
0
 10
4288.5898754552608807
 20
117.6904037897128035
 30
0.0
 11
4288.4796392347598157
 21
117.6904037897128035
 31
0.0
  0
ARC
  5
F181
  8
0
 10
4290.547113692822677
 20
117.0268322400994947
 30
0.0
 40
0.3579793993034727
 50
89.456629204248955
 51
101.4053136993201036
  0
ARC
  5
F182
  8
0
 10
4290.5478758661129177
 20
117.1671900318249016
 30
0.0
 40
0.1761597748085251
 50
89.1426403737367821
 51
104.6522324814557976
  0
ARC
  5
F183
  8
0
 10
4290.5154930575181425
 20
117.2835142523002929
 30
0.0
 40
0.0554599967266534
 50
102.6834706631361058
 51
127.7284503718826016
  0
ARC
  5
F184
  8
0
 10
4290.4894466444166028
 20
117.3175186579578053
 30
0.0
 40
0.012628624829893
 50
128.6692233630541864
 51
174.7491979382490968
  0
ARC
  5
F185
  8
0
 10
4290.5486366173281567
 20
117.477758684177104
 30
0.0
 40
0.1835976780620572
 50
256.2955107560254078
 51
270.585197977829182
  0
ARC
  5
F186
  8
0
 10
4290.5193357414309503
 20
117.3624696787062049
 30
0.0
 40
0.0646593728601427
 50
235.2300997093209105
 51
257.3173342100686227
  0
ARC
  5
F187
  8
0
 10
4290.4902186828394406
 20
117.320345347581295
 30
0.0
 40
0.0134518557778138
 50
187.135647231705093
 51
234.7846716950161863
  0
LINE
  5
F188
  8
0
 10
4290.4763238925752376
 20
117.3777425626986002
 30
0.0
 11
4290.476870743859763
 21
117.3186743734128044
 31
0.0
  0
LINE
  5
F189
  8
0
 10
4290.4520801796606975
 20
117.3643323497126971
 30
0.0
 11
4290.4520801796606975
 21
117.3405944008127051
 31
0.0
  0
ARC
  5
F18A
  8
0
 10
4290.4989477780127345
 20
117.4249956789496991
 30
0.0
 40
0.100433945488393
 50
248.7729267222559884
 51
257.1522179561259804
  0
ARC
  5
F18B
  8
0
 10
4290.4579313881531561
 20
117.3408725580048042
 30
0.0
 40
0.0058578163375386
 50
182.7217016610890141
 51
226.8220438284826912
  0
ARC
  5
F18C
  8
0
 10
4290.4729910840223965
 20
117.3584177157658957
 30
0.0
 40
0.0289752368748588
 50
228.8464459251966048
 51
248.9509937683928911
  0
ARC
  5
F18D
  8
0
 10
4290.4967098863980937
 20
117.2864011702748002
 30
0.0
 40
0.0935886676581334
 50
102.5813433512519026
 51
111.5284704146904033
  0
ARC
  5
F18E
  8
0
 10
4290.4744615155150314
 20
117.3432659022006987
 30
0.0
 40
0.0325271941234113
 50
111.8297907927790931
 51
125.9990572877615023
  0
ARC
  5
F18F
  8
0
 10
4290.4604700294494251
 20
117.362266861436197
 30
0.0
 40
0.0089323892193468
 50
125.0288057774745027
 51
151.2317963049682987
  0
ARC
  5
F190
  8
0
 10
4290.4569199542165734
 20
117.364305810329995
 30
0.0
 40
0.0048398473223366
 50
152.1641576787164922
 51
179.6858160724111997
  0
ARC
  5
F191
  8
0
 10
4290.5126778273197488
 20
117.3187030414580931
 30
0.0
 40
0.0054797415363355
 50
151.8267164030729077
 51
179.5055115720674905
  0
ARC
  5
F192
  8
0
 10
4290.5198376962498514
 20
117.3137237960948056
 30
0.0
 40
0.0141781744380479
 50
134.8869520408605069
 51
147.7463226111069048
  0
ARC
  5
F193
  8
0
 10
4290.5125630703651041
 20
117.3188153470843957
 30
0.0
 40
0.0053651744276775
 50
180.6943100333938048
 51
208.7356279602163909
  0
ARC
  5
F194
  8
0
 10
4290.5159930423669721
 20
117.3207646880024981
 30
0.0
 40
0.00931011371331
 50
209.1064233202536968
 51
228.8155672298167076
  0
ARC
  5
F195
  8
0
 10
4290.5244536087084271
 20
117.3306936365187028
 30
0.0
 40
0.0223543870406743
 50
229.2530703856961907
 51
251.0807866533095876
  0
ARC
  5
F196
  8
0
 10
4290.5440427485700638
 20
117.3805625332318954
 30
0.0
 40
0.0759174206535167
 50
249.2981375315306138
 51
261.6762186585585255
  0
ARC
  5
F197
  8
0
 10
4290.5550964226667929
 20
117.4875529529178948
 30
0.0
 40
0.1834374603567228
 50
263.0979840694682821
 51
268.7811862226183734
  0
ARC
  5
F198
  8
0
 10
4290.5360259584558662
 20
117.2853964861686933
 30
0.0
 40
0.0464604746480032
 50
103.6264191965495058
 51
124.3183000962172997
  0
ARC
  5
F199
  8
0
 10
4290.5618744411267471
 20
117.1098344792249009
 30
0.0
 40
0.2237605885263652
 50
92.9535430898504842
 51
99.4644259035269727
  0
ARC
  5
F19A
  8
0
 10
4290.5539034646699292
 20
117.0268322400994947
 30
0.0
 40
0.3579793993034727
 50
78.5946863006798395
 51
90.543370795751045
  0
ARC
  5
F19B
  8
0
 10
4290.5531422713784195
 20
117.167195181192298
 30
0.0
 40
0.1761545450119094
 50
75.3476522431659106
 51
90.8556222855333289
  0
ARC
  5
F19C
  8
0
 10
4290.5855240999753732
 20
117.2835142523002929
 30
0.0
 40
0.0554599967266534
 50
52.2715496281174126
 51
77.31652933686388
  0
ARC
  5
F19D
  8
0
 10
4290.6115705130760034
 20
117.3175186579578053
 30
0.0
 40
0.012628624829893
 50
5.2508020617508979
 51
51.3307766369457781
  0
ARC
  5
F19E
  8
0
 10
4290.5523812821547835
 20
117.4777545323405974
 30
0.0
 40
0.1835934686382473
 50
269.4165575698388011
 51
283.704571247106685
  0
ARC
  5
F19F
  8
0
 10
4290.5816814160616559
 20
117.3624696787062049
 30
0.0
 40
0.0646593728601427
 50
282.6826657899313204
 51
304.7699002906790042
  0
ARC
  5
F1A0
  8
0
 10
4290.6107984746531656
 20
117.320345347581295
 30
0.0
 40
0.0134518557778138
 50
305.2153283049838137
 51
352.864352768294907
  0
LINE
  5
F1A1
  8
0
 10
4290.6246932649173687
 20
117.3777425626986002
 30
0.0
 11
4290.6241464136328432
 21
117.3186743734128044
 31
0.0
  0
LINE
  5
F1A2
  8
0
 10
4290.6489369778328182
 20
117.3643323497126971
 30
0.0
 11
4290.6489369778328182
 21
117.3405944008127051
 31
0.0
  0
ARC
  5
F1A3
  8
0
 10
4290.6020693794798717
 20
117.4249956789496991
 30
0.0
 40
0.100433945488393
 50
282.8477820438740196
 51
291.227073277743898
  0
ARC
  5
F1A4
  8
0
 10
4290.6430857693403595
 20
117.3408725580048042
 30
0.0
 40
0.0058578163375386
 50
313.1779561715172804
 51
357.2782983389108722
  0
ARC
  5
F1A5
  8
0
 10
4290.6280260734711192
 20
117.3584177157658957
 30
0.0
 40
0.0289752368748588
 50
291.0490062316071089
 51
311.15355407480331
  0
ARC
  5
F1A6
  8
0
 10
4290.604307271095422
 20
117.2864011702748002
 30
0.0
 40
0.0935886676581334
 50
68.471529585309554
 51
77.418656648748069
  0
ARC
  5
F1A7
  8
0
 10
4290.6265556419766654
 20
117.3432659022006987
 30
0.0
 40
0.0325271941234113
 50
54.0009427122384409
 51
68.1702092072209354
  0
ARC
  5
F1A8
  8
0
 10
4290.6405471280440906
 20
117.362266861436197
 30
0.0
 40
0.0089323892193468
 50
28.7682036950316409
 51
54.9711942225254475
  0
ARC
  5
F1A9
  8
0
 10
4290.6440972032751233
 20
117.364305810329995
 30
0.0
 40
0.0048398473223366
 50
0.3141839275887305
 51
27.8358423212834794
  0
ARC
  5
F1AA
  8
0
 10
4290.5883393301728574
 20
117.3187030414580931
 30
0.0
 40
0.0054797415363355
 50
0.494488427932523
 51
28.1732835969270887
  0
ARC
  5
F1AB
  8
0
 10
4290.5811794612409358
 20
117.3137237960948056
 30
0.0
 40
0.0141781744380479
 50
32.2536773888930881
 51
45.113047959139422
  0
ARC
  5
F1AC
  8
0
 10
4290.5884540871265926
 20
117.3188153470843957
 30
0.0
 40
0.0053651744276775
 50
331.2643720397836091
 51
359.3056899666062236
  0
ARC
  5
F1AD
  8
0
 10
4290.5850241151247246
 20
117.3207646880024981
 30
0.0
 40
0.00931011371331
 50
311.1844327701833208
 51
330.8935766797462747
  0
ARC
  5
F1AE
  8
0
 10
4290.5765635487850886
 20
117.3306936365187028
 30
0.0
 40
0.0223543870406743
 50
288.9192133466904124
 51
310.7469296143038946
  0
ARC
  5
F1AF
  8
0
 10
4290.5569744089216329
 20
117.3805625332318954
 30
0.0
 40
0.0759174206535167
 50
278.3237813414415882
 51
290.7018624684694146
  0
ARC
  5
F1B0
  8
0
 10
4290.5440413426204032
 20
117.5071384899311937
 30
0.0
 40
0.2031074990143816
 50
272.018315245245617
 51
276.7643936085108862
  0
ARC
  5
F1B1
  8
0
 10
4290.5649911990376495
 20
117.2853964861686933
 30
0.0
 40
0.0464604746480032
 50
55.6816999037827074
 51
76.3735808034505084
  0
ARC
  5
F1B2
  8
0
 10
4290.5397957583727475
 20
117.1145612039463941
 30
0.0
 40
0.2189908618603538
 50
80.5007537563242863
 51
87.2389009474803458
  0
ARC
  5
F1B3
  8
0
 10
4290.547113692822677
 20
117.1417443537462049
 30
0.0
 40
0.3579793993034727
 50
89.456629204248955
 51
101.4053136993201036
  0
ARC
  5
F1B4
  8
0
 10
4290.5478758661129177
 20
117.2821021454715975
 30
0.0
 40
0.1761597748085251
 50
89.1426403737367821
 51
104.6522324814557976
  0
ARC
  5
F1B5
  8
0
 10
4290.5154930575181425
 20
117.3984263659470031
 30
0.0
 40
0.0554599967266534
 50
102.6834706631361058
 51
127.7284503718826016
  0
ARC
  5
F1B6
  8
0
 10
4290.4894466444166028
 20
117.4324307716045013
 30
0.0
 40
0.012628624829893
 50
128.6692233630541864
 51
174.7491979382490968
  0
ARC
  5
F1B7
  8
0
 10
4290.5486366173281567
 20
117.5926707978237999
 30
0.0
 40
0.1835976780620572
 50
256.2955107560254078
 51
270.585197977829182
  0
ARC
  5
F1B8
  8
0
 10
4290.5193357414309503
 20
117.4773817923529009
 30
0.0
 40
0.0646593728601427
 50
235.2300997093209105
 51
257.3173342100686227
  0
ARC
  5
F1B9
  8
0
 10
4290.4902186828394406
 20
117.4352574612281046
 30
0.0
 40
0.0134518557778138
 50
187.135647231705093
 51
234.7846716950161863
  0
LINE
  5
F1BA
  8
0
 10
4290.4763238925752376
 20
117.4926546763452961
 30
0.0
 11
4290.476870743859763
 21
117.4335864870595003
 31
0.0
  0
LINE
  5
F1BB
  8
0
 10
4290.4520801796606975
 20
117.4792444633596062
 30
0.0
 11
4290.4520801796606975
 21
117.4555065144595005
 31
0.0
  0
ARC
  5
F1BC
  8
0
 10
4290.4989477780127345
 20
117.5399077925964946
 30
0.0
 40
0.100433945488393
 50
248.7729267222559884
 51
257.1522179561259804
  0
ARC
  5
F1BD
  8
0
 10
4290.4579313881531561
 20
117.4557846716515996
 30
0.0
 40
0.0058578163375386
 50
182.7217016610890141
 51
226.8220438284826912
  0
ARC
  5
F1BE
  8
0
 10
4290.4729910840223965
 20
117.4733298294126058
 30
0.0
 40
0.0289752368748588
 50
228.8464459251966048
 51
248.9509937683928911
  0
ARC
  5
F1BF
  8
0
 10
4290.4967098863980937
 20
117.4013132839216951
 30
0.0
 40
0.0935886676581334
 50
102.5813433512519026
 51
111.5284704146904033
  0
ARC
  5
F1C0
  8
0
 10
4290.4744615155150314
 20
117.4581780158475937
 30
0.0
 40
0.0325271941234113
 50
111.8297907927790931
 51
125.9990572877615023
  0
ARC
  5
F1C1
  8
0
 10
4290.4604700294494251
 20
117.4771789750830067
 30
0.0
 40
0.0089323892193468
 50
125.0288057774745027
 51
151.2317963049682987
  0
ARC
  5
F1C2
  8
0
 10
4290.4569199542165734
 20
117.4792179239769041
 30
0.0
 40
0.0048398473223366
 50
152.1641576787164922
 51
179.6858160724111997
  0
ARC
  5
F1C3
  8
0
 10
4290.5126778273197488
 20
117.4336151551049028
 30
0.0
 40
0.0054797415363355
 50
151.8267164030729077
 51
179.5055115720674905
  0
ARC
  5
F1C4
  8
0
 10
4290.5198376962498514
 20
117.4286359097415016
 30
0.0
 40
0.0141781744380479
 50
134.8869520408605069
 51
147.7463226111069048
  0
ARC
  5
F1C5
  8
0
 10
4290.5125630703651041
 20
117.4337274607312054
 30
0.0
 40
0.0053651744276775
 50
180.6943100333938048
 51
208.7356279602163909
  0
ARC
  5
F1C6
  8
0
 10
4290.5159930423669721
 20
117.435676801649393
 30
0.0
 40
0.00931011371331
 50
209.1064233202536968
 51
228.8155672298167076
  0
ARC
  5
F1C7
  8
0
 10
4290.5244536087084271
 20
117.4456057501653987
 30
0.0
 40
0.0223543870406743
 50
229.2530703856961907
 51
251.0807866533095876
  0
ARC
  5
F1C8
  8
0
 10
4290.5440427485700638
 20
117.495474646878705
 30
0.0
 40
0.0759174206535167
 50
249.2981375315306138
 51
261.6762186585585255
  0
ARC
  5
F1C9
  8
0
 10
4290.5550964226667929
 20
117.602465066564605
 30
0.0
 40
0.1834374603567228
 50
263.0979840694682821
 51
268.7811862226183734
  0
ARC
  5
F1CA
  8
0
 10
4290.5360259584558662
 20
117.4003085998154035
 30
0.0
 40
0.0464604746480032
 50
103.6264191965495058
 51
124.3183000962172997
  0
ARC
  5
F1CB
  8
0
 10
4290.5618744411267471
 20
117.2247465928716963
 30
0.0
 40
0.2237605885263652
 50
92.9535430898504842
 51
99.4644259035269727
  0
ARC
  5
F1CC
  8
0
 10
4290.5539034646699292
 20
117.1417443537462049
 30
0.0
 40
0.3579793993034727
 50
78.5946863006798395
 51
90.543370795751045
  0
ARC
  5
F1CD
  8
0
 10
4290.5531422713784195
 20
117.2821072948391929
 30
0.0
 40
0.1761545450119094
 50
75.3476522431659106
 51
90.8556222855333289
  0
ARC
  5
F1CE
  8
0
 10
4290.5855240999753732
 20
117.3984263659470031
 30
0.0
 40
0.0554599967266534
 50
52.2715496281174126
 51
77.31652933686388
  0
ARC
  5
F1CF
  8
0
 10
4290.6115705130760034
 20
117.4324307716045013
 30
0.0
 40
0.012628624829893
 50
5.2508020617508979
 51
51.3307766369457781
  0
ARC
  5
F1D0
  8
0
 10
4290.5523812821547835
 20
117.5926666459872934
 30
0.0
 40
0.1835934686382473
 50
269.4165575698388011
 51
283.704571247106685
  0
ARC
  5
F1D1
  8
0
 10
4290.5816814160616559
 20
117.4773817923529009
 30
0.0
 40
0.0646593728601427
 50
282.6826657899313204
 51
304.7699002906790042
  0
ARC
  5
F1D2
  8
0
 10
4290.6107984746531656
 20
117.4352574612281046
 30
0.0
 40
0.0134518557778138
 50
305.2153283049838137
 51
352.864352768294907
  0
LINE
  5
F1D3
  8
0
 10
4290.6246932649173687
 20
117.4926546763452961
 30
0.0
 11
4290.6241464136328432
 21
117.4335864870595003
 31
0.0
  0
LINE
  5
F1D4
  8
0
 10
4290.6489369778328182
 20
117.4792444633596062
 30
0.0
 11
4290.6489369778328182
 21
117.4555065144595005
 31
0.0
  0
ARC
  5
F1D5
  8
0
 10
4290.6020693794798717
 20
117.5399077925964946
 30
0.0
 40
0.100433945488393
 50
282.8477820438740196
 51
291.227073277743898
  0
ARC
  5
F1D6
  8
0
 10
4290.6430857693403595
 20
117.4557846716515996
 30
0.0
 40
0.0058578163375386
 50
313.1779561715172804
 51
357.2782983389108722
  0
ARC
  5
F1D7
  8
0
 10
4290.6280260734711192
 20
117.4733298294126058
 30
0.0
 40
0.0289752368748588
 50
291.0490062316071089
 51
311.15355407480331
  0
ARC
  5
F1D8
  8
0
 10
4290.604307271095422
 20
117.4013132839216951
 30
0.0
 40
0.0935886676581334
 50
68.471529585309554
 51
77.418656648748069
  0
ARC
  5
F1D9
  8
0
 10
4290.6265556419766654
 20
117.4581780158475937
 30
0.0
 40
0.0325271941234113
 50
54.0009427122384409
 51
68.1702092072209354
  0
ARC
  5
F1DA
  8
0
 10
4290.6405471280440906
 20
117.4771789750830067
 30
0.0
 40
0.0089323892193468
 50
28.7682036950316409
 51
54.9711942225254475
  0
ARC
  5
F1DB
  8
0
 10
4290.6440972032751233
 20
117.4792179239769041
 30
0.0
 40
0.0048398473223366
 50
0.3141839275887305
 51
27.8358423212834794
  0
ARC
  5
F1DC
  8
0
 10
4290.5883393301728574
 20
117.4336151551049028
 30
0.0
 40
0.0054797415363355
 50
0.494488427932523
 51
28.1732835969270887
  0
ARC
  5
F1DD
  8
0
 10
4290.5811794612409358
 20
117.4286359097415016
 30
0.0
 40
0.0141781744380479
 50
32.2536773888930881
 51
45.113047959139422
  0
ARC
  5
F1DE
  8
0
 10
4290.5884540871265926
 20
117.4337274607312054
 30
0.0
 40
0.0053651744276775
 50
331.2643720397836091
 51
359.3056899666062236
  0
ARC
  5
F1DF
  8
0
 10
4290.5850241151247246
 20
117.435676801649393
 30
0.0
 40
0.00931011371331
 50
311.1844327701833208
 51
330.8935766797462747
  0
ARC
  5
F1E0
  8
0
 10
4290.5765635487850886
 20
117.4456057501653987
 30
0.0
 40
0.0223543870406743
 50
288.9192133466904124
 51
310.7469296143038946
  0
ARC
  5
F1E1
  8
0
 10
4290.5569744089216329
 20
117.495474646878705
 30
0.0
 40
0.0759174206535167
 50
278.3237813414415882
 51
290.7018624684694146
  0
ARC
  5
F1E2
  8
0
 10
4290.5440413426204032
 20
117.6220506035779039
 30
0.0
 40
0.2031074990143816
 50
272.018315245245617
 51
276.7643936085108862
  0
ARC
  5
F1E3
  8
0
 10
4290.5649911990376495
 20
117.4003085998154035
 30
0.0
 40
0.0464604746480032
 50
55.6816999037827074
 51
76.3735808034505084
  0
ARC
  5
F1E4
  8
0
 10
4290.5397957583727475
 20
117.2294733175931043
 30
0.0
 40
0.2189908618603538
 50
80.5007537563242863
 51
87.2389009474803458
  0
ARC
  5
F1E5
  8
0
 10
4291.0982947952188624
 20
117.1414292350171991
 30
0.0
 40
0.3579793993034727
 50
89.456629204248955
 51
101.4053136993201036
  0
ARC
  5
F1E6
  8
0
 10
4291.0990569685100127
 20
117.2817870267425064
 30
0.0
 40
0.1761597748085251
 50
89.1426403737367821
 51
104.6522324814557976
  0
ARC
  5
F1E7
  8
0
 10
4291.0666741599134184
 20
117.3981112472178978
 30
0.0
 40
0.0554599967266534
 50
102.6834706631361058
 51
127.7284503718826016
  0
ARC
  5
F1E8
  8
0
 10
4291.0406277468136977
 20
117.4321156528754955
 30
0.0
 40
0.012628624829893
 50
128.6692233630541864
 51
174.7491979382490968
  0
ARC
  5
F1E9
  8
0
 10
4291.0998177197243422
 20
117.5923556790947941
 30
0.0
 40
0.1835976780620572
 50
256.2955107560254078
 51
270.585197977829182
  0
ARC
  5
F1EA
  8
0
 10
4291.0705168438262262
 20
117.4770666736237956
 30
0.0
 40
0.0646593728601427
 50
235.2300997093209105
 51
257.3173342100686227
  0
ARC
  5
F1EB
  8
0
 10
4291.041399785235626
 20
117.4349423424989993
 30
0.0
 40
0.0134518557778138
 50
187.135647231705093
 51
234.7846716950161863
  0
LINE
  5
F1EC
  8
0
 10
4291.027504994971423
 20
117.4923395576162051
 30
0.0
 11
4291.0280518462559485
 21
117.433271368330395
 31
0.0
  0
LINE
  5
F1ED
  8
0
 10
4291.0032612820568829
 20
117.478929344630501
 30
0.0
 11
4291.0032612820568829
 21
117.4551913957304947
 31
0.0
  0
ARC
  5
F1EE
  8
0
 10
4291.0501288804089199
 20
117.5395926738674035
 30
0.0
 40
0.100433945488393
 50
248.7729267222559884
 51
257.1522179561259804
  0
ARC
  5
F1EF
  8
0
 10
4291.0091124905484321
 20
117.4554695529224944
 30
0.0
 40
0.0058578163375386
 50
182.7217016610890141
 51
226.8220438284826912
  0
ARC
  5
F1F0
  8
0
 10
4291.024172186418582
 20
117.4730147106835005
 30
0.0
 40
0.0289752368748588
 50
228.8464459251966048
 51
248.9509937683928911
  0
ARC
  5
F1F1
  8
0
 10
4291.0478909887942791
 20
117.400998165192604
 30
0.0
 40
0.0935886676581334
 50
102.5813433512519026
 51
111.5284704146904033
  0
ARC
  5
F1F2
  8
0
 10
4291.0256426179112168
 20
117.4578628971185026
 30
0.0
 40
0.0325271941234113
 50
111.8297907927790931
 51
125.9990572877615023
  0
ARC
  5
F1F3
  8
0
 10
4291.011651131844701
 20
117.4768638563539014
 30
0.0
 40
0.0089323892193468
 50
125.0288057774745027
 51
151.2317963049682987
  0
ARC
  5
F1F4
  8
0
 10
4291.0081010566136683
 20
117.4789028052477988
 30
0.0
 40
0.0048398473223366
 50
152.1641576787164922
 51
179.6858160724111997
  0
ARC
  5
F1F5
  8
0
 10
4291.0638589297159342
 20
117.433300036375698
 30
0.0
 40
0.0054797415363355
 50
151.8267164030729077
 51
179.5055115720674905
  0
ARC
  5
F1F6
  8
0
 10
4291.0710187986460369
 20
117.4283207910123963
 30
0.0
 40
0.0141781744380479
 50
134.8869520408605069
 51
147.7463226111069048
  0
ARC
  5
F1F7
  8
0
 10
4291.063744172762199
 20
117.4334123420020006
 30
0.0
 40
0.0053651744276775
 50
180.6943100333938048
 51
208.7356279602163909
  0
ARC
  5
F1F8
  8
0
 10
4291.0671741447631575
 20
117.435361682920302
 30
0.0
 40
0.00931011371331
 50
209.1064233202536968
 51
228.8155672298167076
  0
ARC
  5
F1F9
  8
0
 10
4291.075634711103703
 20
117.4452906314362934
 30
0.0
 40
0.0223543870406743
 50
229.2530703856961907
 51
251.0807866533095876
  0
ARC
  5
F1FA
  8
0
 10
4291.0952238509662493
 20
117.4951595281495003
 30
0.0
 40
0.0759174206535167
 50
249.2981375315306138
 51
261.6762186585585255
  0
ARC
  5
F1FB
  8
0
 10
4291.1062775250638879
 20
117.6021499478354997
 30
0.0
 40
0.1834374603567228
 50
263.0979840694682821
 51
268.7811862226183734
  0
ARC
  5
F1FC
  8
0
 10
4291.0872070608520517
 20
117.3999934810862982
 30
0.0
 40
0.0464604746480032
 50
103.6264191965495058
 51
124.3183000962172997
  0
ARC
  5
F1FD
  8
0
 10
4291.1130555435238421
 20
117.2244314741426052
 30
0.0
 40
0.2237605885263652
 50
92.9535430898504842
 51
99.4644259035269727
  0
ARC
  5
F1FE
  8
0
 10
4291.1050845670670242
 20
117.1414292350171991
 30
0.0
 40
0.3579793993034727
 50
78.5946863006798395
 51
90.543370795751045
  0
ARC
  5
F1FF
  8
0
 10
4291.104323373774605
 20
117.2817921761100024
 30
0.0
 40
0.1761545450119094
 50
75.3476522431659106
 51
90.8556222855333289
  0
ARC
  5
F200
  8
0
 10
4291.1367052023706492
 20
117.3981112472178978
 30
0.0
 40
0.0554599967266534
 50
52.2715496281174126
 51
77.31652933686388
  0
ARC
  5
F201
  8
0
 10
4291.1627516154721889
 20
117.4321156528754955
 30
0.0
 40
0.012628624829893
 50
5.2508020617508979
 51
51.3307766369457781
  0
ARC
  5
F202
  8
0
 10
4291.103562384550969
 20
117.5923515272583018
 30
0.0
 40
0.1835934686382473
 50
269.4165575698388011
 51
283.704571247106685
  0
ARC
  5
F203
  8
0
 10
4291.1328625184578414
 20
117.4770666736237956
 30
0.0
 40
0.0646593728601427
 50
282.6826657899313204
 51
304.7699002906790042
  0
ARC
  5
F204
  8
0
 10
4291.1619795770484416
 20
117.4349423424989993
 30
0.0
 40
0.0134518557778138
 50
305.2153283049838137
 51
352.864352768294907
  0
LINE
  5
F205
  8
0
 10
4291.1758743673135541
 20
117.4923395576162051
 30
0.0
 11
4291.1753275160290286
 21
117.433271368330395
 31
0.0
  0
LINE
  5
F206
  8
0
 10
4291.2001180802290037
 20
117.478929344630501
 30
0.0
 11
4291.2001180802290037
 21
117.4551913957304947
 31
0.0
  0
ARC
  5
F207
  8
0
 10
4291.1532504818751477
 20
117.5395926738674035
 30
0.0
 40
0.100433945488393
 50
282.8477820438740196
 51
291.227073277743898
  0
ARC
  5
F208
  8
0
 10
4291.1942668717374545
 20
117.4554695529224944
 30
0.0
 40
0.0058578163375386
 50
313.1779561715172804
 51
357.2782983389108722
  0
ARC
  5
F209
  8
0
 10
4291.1792071758663951
 20
117.4730147106835005
 30
0.0
 40
0.0289752368748588
 50
291.0490062316071089
 51
311.15355407480331
  0
ARC
  5
F20A
  8
0
 10
4291.1554883734897885
 20
117.400998165192604
 30
0.0
 40
0.0935886676581334
 50
68.471529585309554
 51
77.418656648748069
  0
ARC
  5
F20B
  8
0
 10
4291.1777367443737603
 20
117.4578628971185026
 30
0.0
 40
0.0325271941234113
 50
54.0009427122384409
 51
68.1702092072209354
  0
ARC
  5
F20C
  8
0
 10
4291.1917282304393666
 20
117.4768638563539014
 30
0.0
 40
0.0089323892193468
 50
28.7682036950316409
 51
54.9711942225254475
  0
ARC
  5
F20D
  8
0
 10
4291.1952783056713088
 20
117.4789028052477988
 30
0.0
 40
0.0048398473223366
 50
0.3141839275887305
 51
27.8358423212834794
  0
ARC
  5
F20E
  8
0
 10
4291.1395204325690429
 20
117.433300036375698
 30
0.0
 40
0.0054797415363355
 50
0.494488427932523
 51
28.1732835969270887
  0
ARC
  5
F20F
  8
0
 10
4291.1323605636380307
 20
117.4283207910123963
 30
0.0
 40
0.0141781744380479
 50
32.2536773888930881
 51
45.113047959139422
  0
ARC
  5
F210
  8
0
 10
4291.1396351895218686
 20
117.4334123420020006
 30
0.0
 40
0.0053651744276775
 50
331.2643720397836091
 51
359.3056899666062236
  0
ARC
  5
F211
  8
0
 10
4291.1362052175209101
 20
117.435361682920302
 30
0.0
 40
0.00931011371331
 50
311.1844327701833208
 51
330.8935766797462747
  0
ARC
  5
F212
  8
0
 10
4291.1277446511812741
 20
117.4452906314362934
 30
0.0
 40
0.0223543870406743
 50
288.9192133466904124
 51
310.7469296143038946
  0
ARC
  5
F213
  8
0
 10
4291.1081555113178183
 20
117.4951595281495003
 30
0.0
 40
0.0759174206535167
 50
278.3237813414415882
 51
290.7018624684694146
  0
ARC
  5
F214
  8
0
 10
4291.0952224450147696
 20
117.6217354848487986
 30
0.0
 40
0.2031074990143816
 50
272.018315245245617
 51
276.7643936085108862
  0
ARC
  5
F215
  8
0
 10
4291.1161723014329255
 20
117.3999934810862982
 30
0.0
 40
0.0464604746480032
 50
55.6816999037827074
 51
76.3735808034505084
  0
ARC
  5
F216
  8
0
 10
4291.0909768607698425
 20
117.2291581988640985
 30
0.0
 40
0.2189908618603538
 50
80.5007537563242863
 51
87.2389009474803458
  0
ARC
  5
F217
  8
0
 10
4291.0982897533840514
 20
117.0268322401258985
 30
0.0
 40
0.3579793993034727
 50
89.456629204248955
 51
101.4053136993201036
  0
ARC
  5
F218
  8
0
 10
4291.0990519266742922
 20
117.1671900318513053
 30
0.0
 40
0.1761597748085251
 50
89.1426403737367821
 51
104.6522324814557976
  0
ARC
  5
F219
  8
0
 10
4291.0666691180776979
 20
117.2835142523265972
 30
0.0
 40
0.0554599967266534
 50
102.6834706631361058
 51
127.7284503718826016
  0
ARC
  5
F21A
  8
0
 10
4291.0406227049779773
 20
117.3175186579841949
 30
0.0
 40
0.012628624829893
 50
128.6692233630541864
 51
174.7491979382490968
  0
ARC
  5
F21B
  8
0
 10
4291.0998126778877122
 20
117.4777586842034935
 30
0.0
 40
0.1835976780620572
 50
256.2955107560254078
 51
270.585197977829182
  0
ARC
  5
F21C
  8
0
 10
4291.0705118019914153
 20
117.3624696787325945
 30
0.0
 40
0.0646593728601427
 50
235.2300997093209105
 51
257.3173342100686227
  0
ARC
  5
F21D
  8
0
 10
4291.0413947434008151
 20
117.3203453476077982
 30
0.0
 40
0.0134518557778138
 50
187.135647231705093
 51
234.7846716950161863
  0
LINE
  5
F21E
  8
0
 10
4291.027499953136612
 20
117.3777425627249045
 30
0.0
 11
4291.0280468044211375
 21
117.3186743734391939
 31
0.0
  0
LINE
  5
F21F
  8
0
 10
4291.0032562402211624
 20
117.3643323497392004
 30
0.0
 11
4291.0032562402211624
 21
117.3405944008391941
 31
0.0
  0
ARC
  5
F220
  8
0
 10
4291.050123838574109
 20
117.4249956789761029
 30
0.0
 40
0.100433945488393
 50
248.7729267222559884
 51
257.1522179561259804
  0
ARC
  5
F221
  8
0
 10
4291.0091074487127116
 20
117.3408725580311938
 30
0.0
 40
0.0058578163375386
 50
182.7217016610890141
 51
226.8220438284826912
  0
ARC
  5
F222
  8
0
 10
4291.0241671445828615
 20
117.3584177157921999
 30
0.0
 40
0.0289752368748588
 50
228.8464459251966048
 51
248.9509937683928911
  0
ARC
  5
F223
  8
0
 10
4291.0478859469576491
 20
117.2864011703013034
 30
0.0
 40
0.0935886676581334
 50
102.5813433512519026
 51
111.5284704146904033
  0
ARC
  5
F224
  8
0
 10
4291.0256375760764058
 20
117.3432659022271025
 30
0.0
 40
0.0325271941234113
 50
111.8297907927790931
 51
125.9990572877615023
  0
ARC
  5
F225
  8
0
 10
4291.01164609000989
 20
117.3622668614625013
 30
0.0
 40
0.0089323892193468
 50
125.0288057774745027
 51
151.2317963049682987
  0
ARC
  5
F226
  8
0
 10
4291.0080960147779479
 20
117.3643058103563988
 30
0.0
 40
0.0048398473223366
 50
152.1641576787164922
 51
179.6858160724111997
  0
ARC
  5
F227
  8
0
 10
4291.0638538878793042
 20
117.3187030414843974
 30
0.0
 40
0.0054797415363355
 50
151.8267164030729077
 51
179.5055115720674905
  0
ARC
  5
F228
  8
0
 10
4291.0710137568112259
 20
117.3137237961210957
 30
0.0
 40
0.0141781744380479
 50
134.8869520408605069
 51
147.7463226111069048
  0
ARC
  5
F229
  8
0
 10
4291.063739130927388
 20
117.3188153471107995
 30
0.0
 40
0.0053651744276775
 50
180.6943100333938048
 51
208.7356279602163909
  0
ARC
  5
F22A
  8
0
 10
4291.0671691029283465
 20
117.3207646880289019
 30
0.0
 40
0.00931011371331
 50
209.1064233202536968
 51
228.8155672298167076
  0
ARC
  5
F22B
  8
0
 10
4291.0756296692679825
 20
117.3306936365451065
 30
0.0
 40
0.0223543870406743
 50
229.2530703856961907
 51
251.0807866533095876
  0
ARC
  5
F22C
  8
0
 10
4291.0952188091323478
 20
117.3805625332582991
 30
0.0
 40
0.0759174206535167
 50
249.2981375315306138
 51
261.6762186585585255
  0
ARC
  5
F22D
  8
0
 10
4291.1062724832281674
 20
117.4875529529441991
 30
0.0
 40
0.1834374603567228
 50
263.0979840694682821
 51
268.7811862226183734
  0
ARC
  5
F22E
  8
0
 10
4291.0872020190163312
 20
117.2853964861949976
 30
0.0
 40
0.0464604746480032
 50
103.6264191965495058
 51
124.3183000962172997
  0
ARC
  5
F22F
  8
0
 10
4291.1130505016890311
 20
117.1098344792512052
 30
0.0
 40
0.2237605885263652
 50
92.9535430898504842
 51
99.4644259035269727
  0
ARC
  5
F230
  8
0
 10
4291.1050795252303942
 20
117.0268322401258985
 30
0.0
 40
0.3579793993034727
 50
78.5946863006798395
 51
90.543370795751045
  0
ARC
  5
F231
  8
0
 10
4291.1043183319388845
 20
117.1671951812187018
 30
0.0
 40
0.1761545450119094
 50
75.3476522431659106
 51
90.8556222855333289
  0
ARC
  5
F232
  8
0
 10
4291.1367001605349287
 20
117.2835142523265972
 30
0.0
 40
0.0554599967266534
 50
52.2715496281174126
 51
77.31652933686388
  0
ARC
  5
F233
  8
0
 10
4291.1627465736355589
 20
117.3175186579841949
 30
0.0
 40
0.012628624829893
 50
5.2508020617508979
 51
51.3307766369457781
  0
ARC
  5
F234
  8
0
 10
4291.1035573427152485
 20
117.4777545323670012
 30
0.0
 40
0.1835934686382473
 50
269.4165575698388011
 51
283.704571247106685
  0
ARC
  5
F235
  8
0
 10
4291.1328574766230304
 20
117.3624696787325945
 30
0.0
 40
0.0646593728601427
 50
282.6826657899313204
 51
304.7699002906790042
  0
ARC
  5
F236
  8
0
 10
4291.1619745352127211
 20
117.3203453476077982
 30
0.0
 40
0.0134518557778138
 50
305.2153283049838137
 51
352.864352768294907
  0
LINE
  5
F237
  8
0
 10
4291.1758693254787431
 20
117.3777425627249045
 30
0.0
 11
4291.1753224741933082
 21
117.3186743734391939
 31
0.0
  0
LINE
  5
F238
  8
0
 10
4291.2001130383932832
 20
117.3643323497392004
 30
0.0
 11
4291.2001130383932832
 21
117.3405944008391941
 31
0.0
  0
ARC
  5
F239
  8
0
 10
4291.1532454400403367
 20
117.4249956789761029
 30
0.0
 40
0.100433945488393
 50
282.8477820438740196
 51
291.227073277743898
  0
ARC
  5
F23A
  8
0
 10
4291.194261829899915
 20
117.3408725580311938
 30
0.0
 40
0.0058578163375386
 50
313.1779561715172804
 51
357.2782983389108722
  0
ARC
  5
F23B
  8
0
 10
4291.1792021340306746
 20
117.3584177157921999
 30
0.0
 40
0.0289752368748588
 50
291.0490062316071089
 51
311.15355407480331
  0
ARC
  5
F23C
  8
0
 10
4291.155483331655887
 20
117.2864011703013034
 30
0.0
 40
0.0935886676581334
 50
68.471529585309554
 51
77.418656648748069
  0
ARC
  5
F23D
  8
0
 10
4291.1777317025380398
 20
117.3432659022271025
 30
0.0
 40
0.0325271941234113
 50
54.0009427122384409
 51
68.1702092072209354
  0
ARC
  5
F23E
  8
0
 10
4291.1917231886036461
 20
117.3622668614625013
 30
0.0
 40
0.0089323892193468
 50
28.7682036950316409
 51
54.9711942225254475
  0
ARC
  5
F23F
  8
0
 10
4291.1952732638374073
 20
117.3643058103563988
 30
0.0
 40
0.0048398473223366
 50
0.3141839275887305
 51
27.8358423212834794
  0
ARC
  5
F240
  8
0
 10
4291.1395153907342319
 20
117.3187030414843974
 30
0.0
 40
0.0054797415363355
 50
0.494488427932523
 51
28.1732835969270887
  0
ARC
  5
F241
  8
0
 10
4291.1323555218032197
 20
117.3137237961210957
 30
0.0
 40
0.0141781744380479
 50
32.2536773888930881
 51
45.113047959139422
  0
ARC
  5
F242
  8
0
 10
4291.1396301476879671
 20
117.3188153471107995
 30
0.0
 40
0.0053651744276775
 50
331.2643720397836091
 51
359.3056899666062236
  0
ARC
  5
F243
  8
0
 10
4291.1362001756870086
 20
117.3207646880289019
 30
0.0
 40
0.00931011371331
 50
311.1844327701833208
 51
330.8935766797462747
  0
ARC
  5
F244
  8
0
 10
4291.1277396093446441
 20
117.3306936365451065
 30
0.0
 40
0.0223543870406743
 50
288.9192133466904124
 51
310.7469296143038946
  0
ARC
  5
F245
  8
0
 10
4291.1081504694820978
 20
117.3805625332582991
 30
0.0
 40
0.0759174206535167
 50
278.3237813414415882
 51
290.7018624684694146
  0
ARC
  5
F246
  8
0
 10
4291.0952174031808681
 20
117.5071384899575975
 30
0.0
 40
0.2031074990143816
 50
272.018315245245617
 51
276.7643936085108862
  0
ARC
  5
F247
  8
0
 10
4291.116167259597205
 20
117.2853964861949976
 30
0.0
 40
0.0464604746480032
 50
55.6816999037827074
 51
76.3735808034505084
  0
ARC
  5
F248
  8
0
 10
4291.0909718189350315
 20
117.1145612039727979
 30
0.0
 40
0.2189908618603538
 50
80.5007537563242863
 51
87.2389009474803458
  0
ARC
  5
F249
  8
0
 10
4291.6494758975195509
 20
117.1414292350171991
 30
0.0
 40
0.3579793993034727
 50
89.456629204248955
 51
101.4053136993201036
  0
ARC
  5
F24A
  8
0
 10
4291.6502380708097917
 20
117.2817870267425064
 30
0.0
 40
0.1761597748085251
 50
89.1426403737367821
 51
104.6522324814557976
  0
ARC
  5
F24B
  8
0
 10
4291.6178552622141069
 20
117.3981112472178978
 30
0.0
 40
0.0554599967266534
 50
102.6834706631361058
 51
127.7284503718826016
  0
ARC
  5
F24C
  8
0
 10
4291.5918088491152957
 20
117.4321156528754955
 30
0.0
 40
0.012628624829893
 50
128.6692233630541864
 51
174.7491979382490968
  0
ARC
  5
F24D
  8
0
 10
4291.6509988220241212
 20
117.5923556790947941
 30
0.0
 40
0.1835976780620572
 50
256.2955107560254078
 51
270.585197977829182
  0
ARC
  5
F24E
  8
0
 10
4291.6216979461278243
 20
117.4770666736237956
 30
0.0
 40
0.0646593728601427
 50
235.2300997093209105
 51
257.3173342100686227
  0
ARC
  5
F24F
  8
0
 10
4291.592580887537224
 20
117.4349423424989993
 30
0.0
 40
0.0134518557778138
 50
187.135647231705093
 51
234.7846716950161863
  0
LINE
  5
F250
  8
0
 10
4291.5786860972721115
 20
117.4923395576162051
 30
0.0
 11
4291.5792329485557275
 21
117.433271368330395
 31
0.0
  0
LINE
  5
F251
  8
0
 10
4291.5544423843566619
 20
117.478929344630501
 30
0.0
 11
4291.5544423843566619
 21
117.4551913957304947
 31
0.0
  0
ARC
  5
F252
  8
0
 10
4291.601309982708699
 20
117.5395926738674035
 30
0.0
 40
0.100433945488393
 50
248.7729267222559884
 51
257.1522179561259804
  0
ARC
  5
F253
  8
0
 10
4291.5602935928491206
 20
117.4554695529224944
 30
0.0
 40
0.0058578163375386
 50
182.7217016610890141
 51
226.8220438284826912
  0
ARC
  5
F254
  8
0
 10
4291.5753532887192705
 20
117.4730147106835005
 30
0.0
 40
0.0289752368748588
 50
228.8464459251966048
 51
248.9509937683928911
  0
ARC
  5
F255
  8
0
 10
4291.5990720910940581
 20
117.400998165192604
 30
0.0
 40
0.0935886676581334
 50
102.5813433512519026
 51
111.5284704146904033
  0
ARC
  5
F256
  8
0
 10
4291.5768237202119053
 20
117.4578628971185026
 30
0.0
 40
0.0325271941234113
 50
111.8297907927790931
 51
125.9990572877615023
  0
ARC
  5
F257
  8
0
 10
4291.5628322341453895
 20
117.4768638563539014
 30
0.0
 40
0.0089323892193468
 50
125.0288057774745027
 51
151.2317963049682987
  0
ARC
  5
F258
  8
0
 10
4291.5592821589143568
 20
117.4789028052477988
 30
0.0
 40
0.0048398473223366
 50
152.1641576787164922
 51
179.6858160724111997
  0
ARC
  5
F259
  8
0
 10
4291.6150400320157132
 20
117.433300036375698
 30
0.0
 40
0.0054797415363355
 50
151.8267164030729077
 51
179.5055115720674905
  0
ARC
  5
F25A
  8
0
 10
4291.6221999009476349
 20
117.4283207910123963
 30
0.0
 40
0.0141781744380479
 50
134.8869520408605069
 51
147.7463226111069048
  0
ARC
  5
F25B
  8
0
 10
4291.614925275061978
 20
117.4334123420020006
 30
0.0
 40
0.0053651744276775
 50
180.6943100333938048
 51
208.7356279602163909
  0
ARC
  5
F25C
  8
0
 10
4291.618355247063846
 20
117.435361682920302
 30
0.0
 40
0.00931011371331
 50
209.1064233202536968
 51
228.8155672298167076
  0
ARC
  5
F25D
  8
0
 10
4291.6268158134043915
 20
117.4452906314362934
 30
0.0
 40
0.0223543870406743
 50
229.2530703856961907
 51
251.0807866533095876
  0
ARC
  5
F25E
  8
0
 10
4291.6464049532669378
 20
117.4951595281495003
 30
0.0
 40
0.0759174206535167
 50
249.2981375315306138
 51
261.6762186585585255
  0
ARC
  5
F25F
  8
0
 10
4291.6574586273645764
 20
117.6021499478354997
 30
0.0
 40
0.1834374603567228
 50
263.0979840694682821
 51
268.7811862226183734
  0
ARC
  5
F260
  8
0
 10
4291.6383881631527402
 20
117.3999934810862982
 30
0.0
 40
0.0464604746480032
 50
103.6264191965495058
 51
124.3183000962172997
  0
ARC
  5
F261
  8
0
 10
4291.6642366458236211
 20
117.2244314741426052
 30
0.0
 40
0.2237605885263652
 50
92.9535430898504842
 51
99.4644259035269727
  0
ARC
  5
F262
  8
0
 10
4291.6562656693668032
 20
117.1414292350171991
 30
0.0
 40
0.3579793993034727
 50
78.5946863006798395
 51
90.543370795751045
  0
ARC
  5
F263
  8
0
 10
4291.6555044760752935
 20
117.2817921761100024
 30
0.0
 40
0.1761545450119094
 50
75.3476522431659106
 51
90.8556222855333289
  0
ARC
  5
F264
  8
0
 10
4291.6878863046722472
 20
117.3981112472178978
 30
0.0
 40
0.0554599967266534
 50
52.2715496281174126
 51
77.31652933686388
  0
ARC
  5
F265
  8
0
 10
4291.7139327177719679
 20
117.4321156528754955
 30
0.0
 40
0.012628624829893
 50
5.2508020617508979
 51
51.3307766369457781
  0
ARC
  5
F266
  8
0
 10
4291.654743486850748
 20
117.5923515272583018
 30
0.0
 40
0.1835934686382473
 50
269.4165575698388011
 51
283.704571247106685
  0
ARC
  5
F267
  8
0
 10
4291.6840436207576204
 20
117.4770666736237956
 30
0.0
 40
0.0646593728601427
 50
282.6826657899313204
 51
304.7699002906790042
  0
ARC
  5
F268
  8
0
 10
4291.7131606793491301
 20
117.4349423424989993
 30
0.0
 40
0.0134518557778138
 50
305.2153283049838137
 51
352.864352768294907
  0
LINE
  5
F269
  8
0
 10
4291.7270554696142426
 20
117.4923395576162051
 30
0.0
 11
4291.7265086183288076
 21
117.433271368330395
 31
0.0
  0
LINE
  5
F26A
  8
0
 10
4291.7512991825287827
 20
117.478929344630501
 30
0.0
 11
4291.7512991825287827
 21
117.4551913957304947
 31
0.0
  0
ARC
  5
F26B
  8
0
 10
4291.7044315841767457
 20
117.5395926738674035
 30
0.0
 40
0.100433945488393
 50
282.8477820438740196
 51
291.227073277743898
  0
ARC
  5
F26C
  8
0
 10
4291.7454479740372335
 20
117.4554695529224944
 30
0.0
 40
0.0058578163375386
 50
313.1779561715172804
 51
357.2782983389108722
  0
ARC
  5
F26D
  8
0
 10
4291.7303882781670836
 20
117.4730147106835005
 30
0.0
 40
0.0289752368748588
 50
291.0490062316071089
 51
311.15355407480331
  0
ARC
  5
F26E
  8
0
 10
4291.7066694757913865
 20
117.400998165192604
 30
0.0
 40
0.0935886676581334
 50
68.471529585309554
 51
77.418656648748069
  0
ARC
  5
F26F
  8
0
 10
4291.7289178466753583
 20
117.4578628971185026
 30
0.0
 40
0.0325271941234113
 50
54.0009427122384409
 51
68.1702092072209354
  0
ARC
  5
F270
  8
0
 10
4291.7429093327409646
 20
117.4768638563539014
 30
0.0
 40
0.0089323892193468
 50
28.7682036950316409
 51
54.9711942225254475
  0
ARC
  5
F271
  8
0
 10
4291.7464594079710878
 20
117.4789028052477988
 30
0.0
 40
0.0048398473223366
 50
0.3141839275887305
 51
27.8358423212834794
  0
ARC
  5
F272
  8
0
 10
4291.6907015348697314
 20
117.433300036375698
 30
0.0
 40
0.0054797415363355
 50
0.494488427932523
 51
28.1732835969270887
  0
ARC
  5
F273
  8
0
 10
4291.6835416659378097
 20
117.4283207910123963
 30
0.0
 40
0.0141781744380479
 50
32.2536773888930881
 51
45.113047959139422
  0
ARC
  5
F274
  8
0
 10
4291.6908162918225571
 20
117.4334123420020006
 30
0.0
 40
0.0053651744276775
 50
331.2643720397836091
 51
359.3056899666062236
  0
ARC
  5
F275
  8
0
 10
4291.6873863198215986
 20
117.435361682920302
 30
0.0
 40
0.00931011371331
 50
311.1844327701833208
 51
330.8935766797462747
  0
ARC
  5
F276
  8
0
 10
4291.6789257534819626
 20
117.4452906314362934
 30
0.0
 40
0.0223543870406743
 50
288.9192133466904124
 51
310.7469296143038946
  0
ARC
  5
F277
  8
0
 10
4291.6593366136194163
 20
117.4951595281495003
 30
0.0
 40
0.0759174206535167
 50
278.3237813414415882
 51
290.7018624684694146
  0
ARC
  5
F278
  8
0
 10
4291.6464035473163676
 20
117.6217354848487986
 30
0.0
 40
0.2031074990143816
 50
272.018315245245617
 51
276.7643936085108862
  0
ARC
  5
F279
  8
0
 10
4291.667353403733614
 20
117.3999934810862982
 30
0.0
 40
0.0464604746480032
 50
55.6816999037827074
 51
76.3735808034505084
  0
ARC
  5
F27A
  8
0
 10
4291.6421579630696215
 20
117.2291581988640985
 30
0.0
 40
0.2189908618603538
 50
80.5007537563242863
 51
87.2389009474803458
  0
ARC
  5
F27B
  8
0
 10
4291.6494758975231889
 20
117.0268322400994947
 30
0.0
 40
0.3579793993034727
 50
89.456629204248955
 51
101.4053136993201036
  0
ARC
  5
F27C
  8
0
 10
4291.6502380708143392
 20
117.1671900318249016
 30
0.0
 40
0.1761597748085251
 50
89.1426403737367821
 51
104.6522324814557976
  0
ARC
  5
F27D
  8
0
 10
4291.6178552622168354
 20
117.2835142523002929
 30
0.0
 40
0.0554599967266534
 50
102.6834706631361058
 51
127.7284503718826016
  0
ARC
  5
F27E
  8
0
 10
4291.5918088491171147
 20
117.3175186579578053
 30
0.0
 40
0.012628624829893
 50
128.6692233630541864
 51
174.7491979382490968
  0
ARC
  5
F27F
  8
0
 10
4291.6509988220286687
 20
117.477758684177104
 30
0.0
 40
0.1835976780620572
 50
256.2955107560254078
 51
270.585197977829182
  0
ARC
  5
F280
  8
0
 10
4291.6216979461296432
 20
117.3624696787062049
 30
0.0
 40
0.0646593728601427
 50
235.2300997093209105
 51
257.3173342100686227
  0
ARC
  5
F281
  8
0
 10
4291.5925808875399525
 20
117.320345347581295
 30
0.0
 40
0.0134518557778138
 50
187.135647231705093
 51
234.7846716950161863
  0
LINE
  5
F282
  8
0
 10
4291.5786860972757495
 20
117.3777425626986002
 30
0.0
 11
4291.579232948560275
 21
117.3186743734128044
 31
0.0
  0
LINE
  5
F283
  8
0
 10
4291.5544423843602999
 20
117.3643323497126971
 30
0.0
 11
4291.5544423843602999
 21
117.3405944008127051
 31
0.0
  0
ARC
  5
F284
  8
0
 10
4291.6013099827132464
 20
117.4249956789496991
 30
0.0
 40
0.100433945488393
 50
248.7729267222559884
 51
257.1522179561259804
  0
ARC
  5
F285
  8
0
 10
4291.5602935928518491
 20
117.3408725580048042
 30
0.0
 40
0.0058578163375386
 50
182.7217016610890141
 51
226.8220438284826912
  0
ARC
  5
F286
  8
0
 10
4291.575353288721999
 20
117.3584177157658957
 30
0.0
 40
0.0289752368748588
 50
228.8464459251966048
 51
248.9509937683928911
  0
ARC
  5
F287
  8
0
 10
4291.5990720910986056
 20
117.2864011702748002
 30
0.0
 40
0.0935886676581334
 50
102.5813433512519026
 51
111.5284704146904033
  0
ARC
  5
F288
  8
0
 10
4291.5768237202146338
 20
117.3432659022006987
 30
0.0
 40
0.0325271941234113
 50
111.8297907927790931
 51
125.9990572877615023
  0
ARC
  5
F289
  8
0
 10
4291.5628322341490275
 20
117.362266861436197
 30
0.0
 40
0.0089323892193468
 50
125.0288057774745027
 51
151.2317963049682987
  0
ARC
  5
F28A
  8
0
 10
4291.5592821589170853
 20
117.364305810329995
 30
0.0
 40
0.0048398473223366
 50
152.1641576787164922
 51
179.6858160724111997
  0
ARC
  5
F28B
  8
0
 10
4291.6150400320193512
 20
117.3187030414580931
 30
0.0
 40
0.0054797415363355
 50
151.8267164030729077
 51
179.5055115720674905
  0
ARC
  5
F28C
  8
0
 10
4291.6221999009521824
 20
117.3137237960948056
 30
0.0
 40
0.0141781744380479
 50
134.8869520408605069
 51
147.7463226111069048
  0
ARC
  5
F28D
  8
0
 10
4291.614925275065616
 20
117.3188153470843957
 30
0.0
 40
0.0053651744276775
 50
180.6943100333938048
 51
208.7356279602163909
  0
ARC
  5
F28E
  8
0
 10
4291.6183552470665745
 20
117.3207646880024981
 30
0.0
 40
0.00931011371331
 50
209.1064233202536968
 51
228.8155672298167076
  0
ARC
  5
F28F
  8
0
 10
4291.62681581340712
 20
117.3306936365187028
 30
0.0
 40
0.0223543870406743
 50
229.2530703856961907
 51
251.0807866533095876
  0
ARC
  5
F290
  8
0
 10
4291.6464049532696663
 20
117.3805625332318954
 30
0.0
 40
0.0759174206535167
 50
249.2981375315306138
 51
261.6762186585585255
  0
ARC
  5
F291
  8
0
 10
4291.6574586273682144
 20
117.4875529529178948
 30
0.0
 40
0.1834374603567228
 50
263.0979840694682821
 51
268.7811862226183734
  0
ARC
  5
F292
  8
0
 10
4291.6383881631545592
 20
117.2853964861686933
 30
0.0
 40
0.0464604746480032
 50
103.6264191965495058
 51
124.3183000962172997
  0
ARC
  5
F293
  8
0
 10
4291.6642366458281685
 20
117.1098344792249009
 30
0.0
 40
0.2237605885263652
 50
92.9535430898504842
 51
99.4644259035269727
  0
ARC
  5
F294
  8
0
 10
4291.6562656693686222
 20
117.0268322400994947
 30
0.0
 40
0.3579793993034727
 50
78.5946863006798395
 51
90.543370795751045
  0
ARC
  5
F295
  8
0
 10
4291.655504476078022
 20
117.167195181192298
 30
0.0
 40
0.1761545450119094
 50
75.3476522431659106
 51
90.8556222855333289
  0
ARC
  5
F296
  8
0
 10
4291.6878863046740662
 20
117.2835142523002929
 30
0.0
 40
0.0554599967266534
 50
52.2715496281174126
 51
77.31652933686388
  0
ARC
  5
F297
  8
0
 10
4291.7139327177746964
 20
117.3175186579578053
 30
0.0
 40
0.012628624829893
 50
5.2508020617508979
 51
51.3307766369457781
  0
ARC
  5
F298
  8
0
 10
4291.654743486854386
 20
117.4777545323405974
 30
0.0
 40
0.1835934686382473
 50
269.4165575698388011
 51
283.704571247106685
  0
ARC
  5
F299
  8
0
 10
4291.6840436207621678
 20
117.3624696787062049
 30
0.0
 40
0.0646593728601427
 50
282.6826657899313204
 51
304.7699002906790042
  0
ARC
  5
F29A
  8
0
 10
4291.7131606793527681
 20
117.320345347581295
 30
0.0
 40
0.0134518557778138
 50
305.2153283049838137
 51
352.864352768294907
  0
LINE
  5
F29B
  8
0
 10
4291.7270554696178806
 20
117.3777425626986002
 30
0.0
 11
4291.7265086183324456
 21
117.3186743734128044
 31
0.0
  0
LINE
  5
F29C
  8
0
 10
4291.7512991825324207
 20
117.3643323497126971
 30
0.0
 11
4291.7512991825324207
 21
117.3405944008127051
 31
0.0
  0
ARC
  5
F29D
  8
0
 10
4291.7044315841812931
 20
117.4249956789496991
 30
0.0
 40
0.100433945488393
 50
282.8477820438740196
 51
291.227073277743898
  0
ARC
  5
F29E
  8
0
 10
4291.7454479740390525
 20
117.3408725580048042
 30
0.0
 40
0.0058578163375386
 50
313.1779561715172804
 51
357.2782983389108722
  0
ARC
  5
F29F
  8
0
 10
4291.7303882781698121
 20
117.3584177157658957
 30
0.0
 40
0.0289752368748588
 50
291.0490062316071089
 51
311.15355407480331
  0
ARC
  5
F2A0
  8
0
 10
4291.7066694757950245
 20
117.2864011702748002
 30
0.0
 40
0.0935886676581334
 50
68.471529585309554
 51
77.418656648748069
  0
ARC
  5
F2A1
  8
0
 10
4291.7289178466780868
 20
117.3432659022006987
 30
0.0
 40
0.0325271941234113
 50
54.0009427122384409
 51
68.1702092072209354
  0
ARC
  5
F2A2
  8
0
 10
4291.7429093327427836
 20
117.362266861436197
 30
0.0
 40
0.0089323892193468
 50
28.7682036950316409
 51
54.9711942225254475
  0
ARC
  5
F2A3
  8
0
 10
4291.7464594079756353
 20
117.364305810329995
 30
0.0
 40
0.0048398473223366
 50
0.3141839275887305
 51
27.8358423212834794
  0
ARC
  5
F2A4
  8
0
 10
4291.6907015348733694
 20
117.3187030414580931
 30
0.0
 40
0.0054797415363355
 50
0.494488427932523
 51
28.1732835969270887
  0
ARC
  5
F2A5
  8
0
 10
4291.6835416659423572
 20
117.3137237960948056
 30
0.0
 40
0.0141781744380479
 50
32.2536773888930881
 51
45.113047959139422
  0
ARC
  5
F2A6
  8
0
 10
4291.6908162918271046
 20
117.3188153470843957
 30
0.0
 40
0.0053651744276775
 50
331.2643720397836091
 51
359.3056899666062236
  0
ARC
  5
F2A7
  8
0
 10
4291.6873863198261461
 20
117.3207646880024981
 30
0.0
 40
0.00931011371331
 50
311.1844327701833208
 51
330.8935766797462747
  0
ARC
  5
F2A8
  8
0
 10
4291.6789257534837816
 20
117.3306936365187028
 30
0.0
 40
0.0223543870406743
 50
288.9192133466904124
 51
310.7469296143038946
  0
ARC
  5
F2A9
  8
0
 10
4291.6593366136221448
 20
117.3805625332318954
 30
0.0
 40
0.0759174206535167
 50
278.3237813414415882
 51
290.7018624684694146
  0
ARC
  5
F2AA
  8
0
 10
4291.6464035473200056
 20
117.5071384899311937
 30
0.0
 40
0.2031074990143816
 50
272.018315245245617
 51
276.7643936085108862
  0
ARC
  5
F2AB
  8
0
 10
4291.6673534037372519
 20
117.2853964861686933
 30
0.0
 40
0.0464604746480032
 50
55.6816999037827074
 51
76.3735808034505084
  0
ARC
  5
F2AC
  8
0
 10
4291.6421579630741689
 20
117.1145612039463941
 30
0.0
 40
0.2189908618603538
 50
80.5007537563242863
 51
87.2389009474803458
  0
ARC
  5
F2AD
  8
0
 10
4292.2082407621674065
 20
117.1411571549679991
 30
0.0
 40
0.3579793993034727
 50
78.5946863006798395
 51
90.543370795751045
  0
ARC
  5
F2AE
  8
0
 10
4292.2074785888762563
 20
117.2815149466934059
 30
0.0
 40
0.1761597748085251
 50
75.3477675185441313
 51
90.8573596262632037
  0
ARC
  5
F2AF
  8
0
 10
4292.239861397471941
 20
117.3978391671686978
 30
0.0
 40
0.0554599967266534
 50
52.2715496281174126
 51
77.31652933686388
  0
ARC
  5
F2B0
  8
0
 10
4292.2659078105716617
 20
117.4318435728262955
 30
0.0
 40
0.012628624829893
 50
5.2508020617508979
 51
51.3307766369457781
  0
ARC
  5
F2B1
  8
0
 10
4292.2067178376619268
 20
117.5920835990455942
 30
0.0
 40
0.1835976780620572
 50
269.414802022170818
 51
283.7044892439745922
  0
ARC
  5
F2B2
  8
0
 10
4292.2360187135591332
 20
117.4767945935746951
 30
0.0
 40
0.0646593728601427
 50
282.6826657899313204
 51
304.7699002906790042
  0
ARC
  5
F2B3
  8
0
 10
4292.2651357721497334
 20
117.4346702624498988
 30
0.0
 40
0.0134518557778138
 50
305.2153283049838137
 51
352.864352768294907
  0
LINE
  5
F2B4
  8
0
 10
4292.2790305624139364
 20
117.4920674775670051
 30
0.0
 11
4292.2784837111294109
 21
117.4329992882812945
 31
0.0
  0
LINE
  5
F2B5
  8
0
 10
4292.303274275329386
 20
117.478657264581301
 30
0.0
 11
4292.303274275329386
 21
117.4549193156812947
 31
0.0
  0
ARC
  5
F2B6
  8
0
 10
4292.256406676977349
 20
117.539320593818303
 30
0.0
 40
0.100433945488393
 50
282.8477820438740196
 51
291.227073277743898
  0
ARC
  5
F2B7
  8
0
 10
4292.2974230668378368
 20
117.4551974728732944
 30
0.0
 40
0.0058578163375386
 50
313.1779561715172804
 51
357.2782983389108722
  0
ARC
  5
F2B8
  8
0
 10
4292.2823633709676869
 20
117.4727426306343006
 30
0.0
 40
0.0289752368748588
 50
291.0490062316071089
 51
311.15355407480331
  0
ARC
  5
F2B9
  8
0
 10
4292.2586445685919898
 20
117.400726085143404
 30
0.0
 40
0.0935886676581334
 50
68.471529585309554
 51
77.418656648748069
  0
ARC
  5
F2BA
  8
0
 10
4292.2808929394759616
 20
117.4575908170693026
 30
0.0
 40
0.0325271941234113
 50
54.0009427122384409
 51
68.1702092072209354
  0
ARC
  5
F2BB
  8
0
 10
4292.2948844255397489
 20
117.4765917763047014
 30
0.0
 40
0.0089323892193468
 50
28.7682036950316409
 51
54.9711942225254475
  0
ARC
  5
F2BC
  8
0
 10
4292.2984345007716911
 20
117.4786307251985988
 30
0.0
 40
0.0048398473223366
 50
0.3141839275887305
 51
27.8358423212834794
  0
ARC
  5
F2BD
  8
0
 10
4292.2426766276712442
 20
117.4330279563265975
 30
0.0
 40
0.0054797415363355
 50
0.494488427932523
 51
28.1732835969270887
  0
ARC
  5
F2BE
  8
0
 10
4292.2355167587393225
 20
117.4280487109631963
 30
0.0
 40
0.0141781744380479
 50
32.2536773888930881
 51
45.113047959139422
  0
ARC
  5
F2BF
  8
0
 10
4292.2427913846240699
 20
117.4331402619529996
 30
0.0
 40
0.0053651744276775
 50
331.2643720397836091
 51
359.3056899666062236
  0
ARC
  5
F2C0
  8
0
 10
4292.2393614126222019
 20
117.435089602871102
 30
0.0
 40
0.00931011371331
 50
311.1844327701833208
 51
330.8935766797462747
  0
ARC
  5
F2C1
  8
0
 10
4292.2309008462816564
 20
117.4450185513871929
 30
0.0
 40
0.0223543870406743
 50
288.9192133466904124
 51
310.7469296143038946
  0
ARC
  5
F2C2
  8
0
 10
4292.2113117064191101
 20
117.4948874481004992
 30
0.0
 40
0.0759174206535167
 50
278.3237813414415882
 51
290.7018624684694146
  0
ARC
  5
F2C3
  8
0
 10
4292.200258032322381
 20
117.6018778677862997
 30
0.0
 40
0.1834374603567228
 50
271.2188137773816266
 51
276.9020159305317179
  0
ARC
  5
F2C4
  8
0
 10
4292.2193284965351268
 20
117.3997214010370982
 30
0.0
 40
0.0464604746480032
 50
55.6816999037827074
 51
76.3735808034505084
  0
ARC
  5
F2C5
  8
0
 10
4292.1934800138624269
 20
117.2241593940934052
 30
0.0
 40
0.2237605885263652
 50
80.5355740964730131
 51
87.0464569101495158
  0
ARC
  5
F2C6
  8
0
 10
4292.2014509903201542
 20
117.1411571549679991
 30
0.0
 40
0.3579793993034727
 50
89.456629204248955
 51
101.4053136993201036
  0
ARC
  5
F2C7
  8
0
 10
4292.2022121836107544
 20
117.2815200960609019
 30
0.0
 40
0.1761545450119094
 50
89.1443777144666853
 51
104.6523477568341036
  0
ARC
  5
F2C8
  8
0
 10
4292.1698303550147102
 20
117.3978391671686978
 30
0.0
 40
0.0554599967266534
 50
102.6834706631361058
 51
127.7284503718826016
  0
ARC
  5
F2C9
  8
0
 10
4292.1437839419149896
 20
117.4318435728262955
 30
0.0
 40
0.012628624829893
 50
128.6692233630541864
 51
174.7491979382490968
  0
ARC
  5
F2CA
  8
0
 10
4292.2029731728352999
 20
117.5920794472091018
 30
0.0
 40
0.1835934686382473
 50
256.2954287528930877
 51
270.5834424301611989
  0
ARC
  5
F2CB
  8
0
 10
4292.1736730389284276
 20
117.4767945935746951
 30
0.0
 40
0.0646593728601427
 50
235.2300997093209105
 51
257.3173342100686227
  0
ARC
  5
F2CC
  8
0
 10
4292.1445559803378274
 20
117.4346702624498988
 30
0.0
 40
0.0134518557778138
 50
187.135647231705093
 51
234.7846716950161863
  0
LINE
  5
F2CD
  8
0
 10
4292.1306611900718053
 20
117.4920674775670051
 30
0.0
 11
4292.1312080413563308
 21
117.4329992882812945
 31
0.0
  0
LINE
  5
F2CE
  8
0
 10
4292.1064174771572652
 20
117.478657264581301
 30
0.0
 11
4292.1064174771572652
 21
117.4549193156812947
 31
0.0
  0
ARC
  5
F2CF
  8
0
 10
4292.1532850755102118
 20
117.539320593818303
 30
0.0
 40
0.100433945488393
 50
248.7729267222559884
 51
257.1522179561259804
  0
ARC
  5
F2D0
  8
0
 10
4292.1122686856497239
 20
117.4551974728732944
 30
0.0
 40
0.0058578163375386
 50
182.7217016610890141
 51
226.8220438284826912
  0
ARC
  5
F2D1
  8
0
 10
4292.1273283815198738
 20
117.4727426306343006
 30
0.0
 40
0.0289752368748588
 50
228.8464459251966048
 51
248.9509937683928911
  0
ARC
  5
F2D2
  8
0
 10
4292.1510471838946614
 20
117.400726085143404
 30
0.0
 40
0.0935886676581334
 50
102.5813433512519026
 51
111.5284704146904033
  0
ARC
  5
F2D3
  8
0
 10
4292.1287988130134181
 20
117.4575908170693026
 30
0.0
 40
0.0325271941234113
 50
111.8297907927790931
 51
125.9990572877615023
  0
ARC
  5
F2D4
  8
0
 10
4292.1148073269459928
 20
117.4765917763047014
 30
0.0
 40
0.0089323892193468
 50
125.0288057774745027
 51
151.2317963049682987
  0
ARC
  5
F2D5
  8
0
 10
4292.1112572517149601
 20
117.4786307251985988
 30
0.0
 40
0.0048398473223366
 50
152.1641576787164922
 51
179.6858160724111997
  0
ARC
  5
F2D6
  8
0
 10
4292.167015124817226
 20
117.4330279563265975
 30
0.0
 40
0.0054797415363355
 50
151.8267164030729077
 51
179.5055115720674905
  0
ARC
  5
F2D7
  8
0
 10
4292.1741749937482382
 20
117.4280487109631963
 30
0.0
 40
0.0141781744380479
 50
134.8869520408605069
 51
147.7463226111069048
  0
ARC
  5
F2D8
  8
0
 10
4292.1669003678625813
 20
117.4331402619529996
 30
0.0
 40
0.0053651744276775
 50
180.6943100333938048
 51
208.7356279602163909
  0
ARC
  5
F2D9
  8
0
 10
4292.1703303398644493
 20
117.435089602871102
 30
0.0
 40
0.00931011371331
 50
209.1064233202536968
 51
228.8155672298167076
  0
ARC
  5
F2DA
  8
0
 10
4292.1787909062049948
 20
117.4450185513871929
 30
0.0
 40
0.0223543870406743
 50
229.2530703856961907
 51
251.0807866533095876
  0
ARC
  5
F2DB
  8
0
 10
4292.1983800460666316
 20
117.4948874481004992
 30
0.0
 40
0.0759174206535167
 50
249.2981375315306138
 51
261.6762186585585255
  0
ARC
  5
F2DC
  8
0
 10
4292.2113131123696803
 20
117.6214634047995986
 30
0.0
 40
0.2031074990143816
 50
263.2356063914890001
 51
267.981684754754383
  0
ARC
  5
F2DD
  8
0
 10
4292.1903632559533435
 20
117.3997214010370982
 30
0.0
 40
0.0464604746480032
 50
103.6264191965495058
 51
124.3183000962172997
  0
ARC
  5
F2DE
  8
0
 10
4292.2155586966164265
 20
117.2288861188148985
 30
0.0
 40
0.2189908618603538
 50
92.7610990525196968
 51
99.4992462436756995
  0
ARC
  5
F2DF
  8
0
 10
4292.208240762162859
 20
117.0265601600503942
 30
0.0
 40
0.3579793993034727
 50
78.5946863006798395
 51
90.543370795751045
  0
ARC
  5
F2E0
  8
0
 10
4292.2074785888717088
 20
117.1669179517757016
 30
0.0
 40
0.1761597748085251
 50
75.3477675185441313
 51
90.8573596262632037
  0
ARC
  5
F2E1
  8
0
 10
4292.2398613974692125
 20
117.2832421722510929
 30
0.0
 40
0.0554599967266534
 50
52.2715496281174126
 51
77.31652933686388
  0
ARC
  5
F2E2
  8
0
 10
4292.2659078105698427
 20
117.3172465779087048
 30
0.0
 40
0.012628624829893
 50
5.2508020617508979
 51
51.3307766369457781
  0
ARC
  5
F2E3
  8
0
 10
4292.2067178376582888
 20
117.4774866041280035
 30
0.0
 40
0.1835976780620572
 50
269.414802022170818
 51
283.7044892439745922
  0
ARC
  5
F2E4
  8
0
 10
4292.2360187135564047
 20
117.362197598657005
 30
0.0
 40
0.0646593728601427
 50
282.6826657899313204
 51
304.7699002906790042
  0
ARC
  5
F2E5
  8
0
 10
4292.2651357721460954
 20
117.320073267532095
 30
0.0
 40
0.0134518557778138
 50
305.2153283049838137
 51
352.864352768294907
  0
LINE
  5
F2E6
  8
0
 10
4292.2790305624112079
 20
117.3774704826494002
 30
0.0
 11
4292.278483711125773
 21
117.3184022933636044
 31
0.0
  0
LINE
  5
F2E7
  8
0
 10
4292.303274275325748
 20
117.3640602696636961
 30
0.0
 11
4292.303274275325748
 21
117.3403223207637041
 31
0.0
  0
ARC
  5
F2E8
  8
0
 10
4292.2564066769728015
 20
117.4247235989004992
 30
0.0
 40
0.100433945488393
 50
282.8477820438740196
 51
291.227073277743898
  0
ARC
  5
F2E9
  8
0
 10
4292.2974230668341988
 20
117.3406004779557037
 30
0.0
 40
0.0058578163375386
 50
313.1779561715172804
 51
357.2782983389108722
  0
ARC
  5
F2EA
  8
0
 10
4292.282363370964049
 20
117.3581456357166957
 30
0.0
 40
0.0289752368748588
 50
291.0490062316071089
 51
311.15355407480331
  0
ARC
  5
F2EB
  8
0
 10
4292.2586445685892613
 20
117.2861290902257991
 30
0.0
 40
0.0935886676581334
 50
68.471529585309554
 51
77.418656648748069
  0
ARC
  5
F2EC
  8
0
 10
4292.2808929394714141
 20
117.3429938221515982
 30
0.0
 40
0.0325271941234113
 50
54.0009427122384409
 51
68.1702092072209354
  0
ARC
  5
F2ED
  8
0
 10
4292.2948844255379299
 20
117.361994781386997
 30
0.0
 40
0.0089323892193468
 50
28.7682036950316409
 51
54.9711942225254475
  0
ARC
  5
F2EE
  8
0
 10
4292.2984345007689626
 20
117.3640337302808945
 30
0.0
 40
0.0048398473223366
 50
0.3141839275887305
 51
27.8358423212834794
  0
ARC
  5
F2EF
  8
0
 10
4292.2426766276657872
 20
117.3184309614088932
 30
0.0
 40
0.0054797415363355
 50
0.494488427932523
 51
28.1732835969270887
  0
ARC
  5
F2F0
  8
0
 10
4292.2355167587356846
 20
117.3134517160456056
 30
0.0
 40
0.0141781744380479
 50
32.2536773888930881
 51
45.113047959139422
  0
ARC
  5
F2F1
  8
0
 10
4292.2427913846204319
 20
117.3185432670351958
 30
0.0
 40
0.0053651744276775
 50
331.2643720397836091
 51
359.3056899666062236
  0
ARC
  5
F2F2
  8
0
 10
4292.2393614126185639
 20
117.3204926079533976
 30
0.0
 40
0.00931011371331
 50
311.1844327701833208
 51
330.8935766797462747
  0
ARC
  5
F2F3
  8
0
 10
4292.2309008462789279
 20
117.3304215564695028
 30
0.0
 40
0.0223543870406743
 50
288.9192133466904124
 51
310.7469296143038946
  0
ARC
  5
F2F4
  8
0
 10
4292.2113117064163816
 20
117.3802904531826954
 30
0.0
 40
0.0759174206535167
 50
278.3237813414415882
 51
290.7018624684694146
  0
ARC
  5
F2F5
  8
0
 10
4292.2002580323187431
 20
117.4872808728686948
 30
0.0
 40
0.1834374603567228
 50
271.2188137773816266
 51
276.9020159305317179
  0
ARC
  5
F2F6
  8
0
 10
4292.2193284965305793
 20
117.2851244061194933
 30
0.0
 40
0.0464604746480032
 50
55.6816999037827074
 51
76.3735808034505084
  0
ARC
  5
F2F7
  8
0
 10
4292.1934800138587889
 20
117.1095623991757009
 30
0.0
 40
0.2237605885263652
 50
80.5355740964730131
 51
87.0464569101495158
  0
ARC
  5
F2F8
  8
0
 10
4292.2014509903183352
 20
117.0265601600503942
 30
0.0
 40
0.3579793993034727
 50
89.456629204248955
 51
101.4053136993201036
  0
ARC
  5
F2F9
  8
0
 10
4292.2022121836089354
 20
117.1669231011431975
 30
0.0
 40
0.1761545450119094
 50
89.1443777144666853
 51
104.6523477568341036
  0
ARC
  5
F2FA
  8
0
 10
4292.1698303550101627
 20
117.2832421722510929
 30
0.0
 40
0.0554599967266534
 50
102.6834706631361058
 51
127.7284503718826016
  0
ARC
  5
F2FB
  8
0
 10
4292.1437839419113516
 20
117.3172465779087048
 30
0.0
 40
0.012628624829893
 50
128.6692233630541864
 51
174.7491979382490968
  0
ARC
  5
F2FC
  8
0
 10
4292.2029731728325714
 20
117.4774824522914969
 30
0.0
 40
0.1835934686382473
 50
256.2954287528930877
 51
270.5834424301611989
  0
ARC
  5
F2FD
  8
0
 10
4292.1736730389247896
 20
117.362197598657005
 30
0.0
 40
0.0646593728601427
 50
235.2300997093209105
 51
257.3173342100686227
  0
ARC
  5
F2FE
  8
0
 10
4292.1445559803350989
 20
117.320073267532095
 30
0.0
 40
0.0134518557778138
 50
187.135647231705093
 51
234.7846716950161863
  0
LINE
  5
F2FF
  8
0
 10
4292.1306611900690768
 20
117.3774704826494002
 30
0.0
 11
4292.1312080413536023
 21
117.3184022933636044
 31
0.0
  0
LINE
  5
F300
  8
0
 10
4292.1064174771536273
 20
117.3640602696636961
 30
0.0
 11
4292.1064174771536273
 21
117.3403223207637041
 31
0.0
  0
ARC
  5
F301
  8
0
 10
4292.1532850755056643
 20
117.4247235989004992
 30
0.0
 40
0.100433945488393
 50
248.7729267222559884
 51
257.1522179561259804
  0
ARC
  5
F302
  8
0
 10
4292.1122686856469954
 20
117.3406004779557037
 30
0.0
 40
0.0058578163375386
 50
182.7217016610890141
 51
226.8220438284826912
  0
ARC
  5
F303
  8
0
 10
4292.1273283815162358
 20
117.3581456357166957
 30
0.0
 40
0.0289752368748588
 50
228.8464459251966048
 51
248.9509937683928911
  0
ARC
  5
F304
  8
0
 10
4292.1510471838910235
 20
117.2861290902257991
 30
0.0
 40
0.0935886676581334
 50
102.5813433512519026
 51
111.5284704146904033
  0
ARC
  5
F305
  8
0
 10
4292.1287988130088706
 20
117.3429938221515982
 30
0.0
 40
0.0325271941234113
 50
111.8297907927790931
 51
125.9990572877615023
  0
ARC
  5
F306
  8
0
 10
4292.1148073269432643
 20
117.361994781386997
 30
0.0
 40
0.0089323892193468
 50
125.0288057774745027
 51
151.2317963049682987
  0
ARC
  5
F307
  8
0
 10
4292.1112572517113222
 20
117.3640337302808945
 30
0.0
 40
0.0048398473223366
 50
152.1641576787164922
 51
179.6858160724111997
  0
ARC
  5
F308
  8
0
 10
4292.1670151248126786
 20
117.3184309614088932
 30
0.0
 40
0.0054797415363355
 50
151.8267164030729077
 51
179.5055115720674905
  0
ARC
  5
F309
  8
0
 10
4292.1741749937436907
 20
117.3134517160456056
 30
0.0
 40
0.0141781744380479
 50
134.8869520408605069
 51
147.7463226111069048
  0
ARC
  5
F30A
  8
0
 10
4292.1669003678598528
 20
117.3185432670351958
 30
0.0
 40
0.0053651744276775
 50
180.6943100333938048
 51
208.7356279602163909
  0
ARC
  5
F30B
  8
0
 10
4292.1703303398599019
 20
117.3204926079533976
 30
0.0
 40
0.00931011371331
 50
209.1064233202536968
 51
228.8155672298167076
  0
ARC
  5
F30C
  8
0
 10
4292.1787909062013568
 20
117.3304215564695028
 30
0.0
 40
0.0223543870406743
 50
229.2530703856961907
 51
251.0807866533095876
  0
ARC
  5
F30D
  8
0
 10
4292.1983800460629936
 20
117.3802904531826954
 30
0.0
 40
0.0759174206535167
 50
249.2981375315306138
 51
261.6762186585585255
  0
ARC
  5
F30E
  8
0
 10
4292.2113131123669518
 20
117.5068664098819937
 30
0.0
 40
0.2031074990143816
 50
263.2356063914890001
 51
267.981684754754383
  0
ARC
  5
F30F
  8
0
 10
4292.1903632559497055
 20
117.2851244061194933
 30
0.0
 40
0.0464604746480032
 50
103.6264191965495058
 51
124.3183000962172997
  0
ARC
  5
F310
  8
0
 10
4292.2155586966127885
 20
117.1142891238971941
 30
0.0
 40
0.2189908618603538
 50
92.7610990525196968
 51
99.4992462436756995
  0
ARC
  5
F311
  8
0
 10
4292.148930573310281
 20
117.702214813312807
 30
0.0
 40
0.0118110236
 50
179.999999999980389
 51
270.0
  0
ARC
  5
F312
  8
0
 10
4292.259166793811346
 20
117.702214813312807
 30
0.0
 40
0.0118110236000035
 50
270.0
 51
359.9999999999805027
  0
LINE
  5
F313
  8
0
 10
4292.1371195497104054
 20
117.7494589078127945
 30
0.0
 11
4292.1371195497104054
 21
117.702214813312807
 31
0.0
  0
LINE
  5
F314
  8
0
 10
4292.2709778174103121
 20
117.7494589078127945
 30
0.0
 11
4292.2709778174103121
 21
117.702214813312807
 31
0.0
  0
LINE
  5
F315
  8
0
 10
4292.148930573310281
 20
117.6904037897128035
 30
0.0
 11
4292.259166793811346
 21
117.6904037897128035
 31
0.0
  0
LINE
  5
F316
  8
0
 10
4291.2985368725603621
 20
117.0773888067128041
 30
0.0
 11
4291.2985368725603621
 21
103.8902261541741012
 31
0.0
  0
LINE
  5
F317
  8
0
 10
4293.1095604945603554
 20
103.8902261541741012
 30
0.0
 11
4293.1095604945603554
 21
117.0773888067128041
 31
0.0
  0
ARC
  5
F318
  8
0
 10
4295.1763085285947454
 20
103.8510922933402014
 30
0.0
 40
0.0393700812339902
 50
90.0000036877351732
 51
179.999996312258304
  0
ARC
  5
F319
  8
0
 10
4295.070190415860452
 20
103.8705411147740989
 30
0.0
 40
0.0196850393999988
 50
0.0
 51
90.0
  0
ARC
  5
F31A
  8
0
 10
4296.3967992293000862
 20
103.8510873062968045
 30
0.0
 40
0.0393750684424872
 50
359.6594824974837934
 51
89.9947529903817838
  0
ARC
  5
F31B
  8
0
 10
4296.5066822712960857
 20
103.8825883587187064
 30
0.0
 40
0.0078740158553892
 50
357.6140568764993759
 51
89.9999995316855603
  0
ARC
  5
F31C
  8
0
 10
4296.5765635923899026
 20
103.9102862291256031
 30
0.0
 40
0.0198240225119131
 50
270.2358552232165039
 51
357.5631025293918128
  0
ARC
  5
F31D
  8
0
 10
4296.5595118735391225
 20
103.9100780660050987
 30
0.0
 40
0.0196158021364349
 50
270.1924949931495235
 51
358.9082223764423247
  0
ARC
  5
F31E
  8
0
 10
4295.5481242525756898
 20
103.9102864026595938
 30
0.0
 40
0.0198244818956423
 50
182.4186685258698049
 51
269.6123188522329883
  0
ARC
  5
F31F
  8
0
 10
4295.566098394087021
 20
103.9100733002276939
 30
0.0
 40
0.0196110518808344
 50
181.0779826365908889
 51
269.7944280154370063
  0
LINE
  5
F320
  8
0
 10
4295.1763085260627122
 20
103.8904623745741986
 30
0.0
 11
4296.5766451967601824
 21
103.8904623745741986
 31
0.0
  0
ARC
  5
F321
  8
0
 10
4296.4369541755404498
 20
102.4928245791763999
 30
0.0
 40
0.0196850392021959
 50
269.9999997685263793
 51
357.6140565594407121
  0
ARC
  5
F322
  8
0
 10
4296.3902749231156122
 20
102.776294165803094
 30
0.0
 40
0.0393750982833492
 50
270.0030123233773907
 51
359.644918254597485
  0
ARC
  5
F323
  8
0
 10
4295.1763085261309243
 20
102.7762891464448956
 30
0.0
 40
0.0393700788707099
 50
180.0000002484354127
 51
269.9999998970823185
  0
ARC
  5
F324
  8
0
 10
4295.0701908887785976
 20
102.7563667447472966
 30
0.0
 40
0.0196838976788228
 50
269.9986234307448854
 51
359.9849230997710947
  0
ARC
  5
F325
  8
0
 10
4295.6873164200596875
 20
102.4928245793742008
 30
0.0
 40
0.0196850394000014
 50
182.3859439928010886
 51
270.0
  0
ARC
  5
F326
  8
0
 10
4293.3636833022856081
 20
102.6579306091712027
 30
0.0
 40
0.0787696930983541
 50
88.7937747063285485
 51
178.9890823248142055
  0
ARC
  5
F327
  8
0
 10
4293.2540805044418448
 20
102.0201474140206983
 30
0.0
 40
0.0196850394465489
 50
270.0000000554452981
 51
358.9999998911559942
  0
ARC
  5
F328
  8
0
 10
4291.1540168625597289
 20
102.0201474139742004
 30
0.0
 40
0.0196850393999993
 50
181.0000000000017053
 51
270.0
  0
ARC
  5
F329
  8
0
 10
4291.1217181204792723
 20
103.8705411147295052
 30
0.0
 40
0.0196850394446286
 50
90.0000000544551568
 51
180.9999998435104089
  0
ARC
  5
F32A
  8
0
 10
4293.2863781869909872
 20
103.870538587748797
 30
0.0
 40
0.0196875664539111
 50
358.9833572863954032
 51
89.9969160941847832
  0
LINE
  5
F32B
  8
0
 10
4291.1217181204792723
 20
103.8902261541741012
 30
0.0
 11
4295.070190415860452
 21
103.8902261541741012
 31
0.0
  0
LINE
  5
F32C
  8
0
 10
4291.1020360805905511
 20
103.8701974814899955
 30
0.0
 11
4291.1343348213604258
 21
102.0198038626740953
 31
0.0
  0
LINE
  5
F32D
  8
0
 10
4291.1540168625597289
 20
102.0004623745741981
 30
0.0
 11
4293.2540805044418448
 21
102.0004623745741981
 31
0.0
  0
LINE
  5
F32E
  8
0
 10
4293.2737625457612012
 20
102.0198038627113988
 30
0.0
 11
4293.30606265429833
 21
103.8701892745723967
 31
0.0
  0
ARC
  5
F32F
  8
0
 10
4293.2768835989136278
 20
102.2662103024204043
 30
0.0
 40
0.0098422500461344
 50
275.8858325880760276
 51
0.0006034108754311
  0
LINE
  5
F330
  8
0
 10
4293.2867258488613516
 20
102.2662104857741951
 30
0.0
 11
4293.2867258488613516
 21
102.3859882349742065
 31
0.0
  0
LINE
  5
F331
  8
0
 10
4293.2867258488613516
 20
102.3859882349742065
 30
0.0
 11
4293.2802673554760986
 21
102.3924467283572
 31
0.0
  0
ARC
  5
F332
  8
0
 10
4295.7548360851596954
 20
102.831171036074096
 30
0.0
 40
2.3499999999999428
 50
182.3045098441972982
 51
203.4860003866091915
  0
ARC
  5
F333
  8
0
 10
4293.6178931762533466
 20
101.902686195548398
 30
0.0
 40
0.0200625123019097
 50
203.6525629158014112
 51
289.5680584540572795
  0
ARC
  5
F334
  8
0
 10
4293.6544018406675605
 20
101.9188663525426932
 30
0.0
 40
0.0200056767199906
 50
297.7656403406093091
 51
18.152176517662479
  0
ARC
  5
F335
  8
0
 10
4295.7573744552873904
 20
102.8315123737935011
 30
0.0
 40
2.272550391157349
 50
182.3917197760810041
 51
203.506490060777196
  0
LINE
  5
F336
  8
0
 10
4293.6246126399601053
 20
101.883782407374099
 30
0.0
 11
4293.6637216068602356
 21
101.9011641193741013
 31
0.0
  0
LINE
  5
F337
  8
0
 10
4293.3653414868604159
 20
102.7366828470742064
 30
0.0
 11
4295.0701904157631361
 21
102.7366828470742064
 31
0.0
  0
LINE
  5
F338
  8
0
 10
4295.0898754551599268
 20
102.7563678864741945
 30
0.0
 11
4295.0898754551599268
 21
103.8705411147716973
 31
0.0
  0
LINE
  5
F339
  8
0
 10
4295.0912140378595723
 20
103.6711710360740994
 30
0.0
 11
4295.1112140378609183
 21
103.6711710360740994
 31
0.0
  0
LINE
  5
F33A
  8
0
 10
4295.1112140378609183
 20
103.6711710360740994
 30
0.0
 11
4295.1112140378609183
 21
102.7711710360741932
 31
0.0
  0
LINE
  5
F33B
  8
0
 10
4295.1112140378609183
 20
102.7711710360741932
 30
0.0
 11
4295.0912140378595723
 21
102.7711710360741932
 31
0.0
  0
LINE
  5
F33C
  8
0
 10
4295.0912140378595723
 20
102.7711710360741932
 30
0.0
 11
4295.0912140378595723
 21
103.6711710360740994
 31
0.0
  0
LINE
  5
F33D
  8
0
 10
4295.0898754551599268
 20
103.5861710360741057
 30
0.0
 11
4295.0912140378595723
 21
103.5861710360741057
 31
0.0
  0
LINE
  5
F33E
  8
0
 10
4295.0898754551599268
 20
102.831171036074096
 30
0.0
 11
4295.0912140378595723
 21
102.831171036074096
 31
0.0
  0
LINE
  5
F33F
  8
0
 10
4295.1369384472609454
 20
102.7762891462740953
 30
0.0
 11
4295.1369384473600803
 21
103.8510922958741958
 31
0.0
  0
LINE
  5
F340
  8
0
 10
4295.1112140378609183
 20
102.946413653074103
 30
0.0
 11
4295.1369384473600803
 21
102.946413653074103
 31
0.0
  0
LINE
  5
F341
  8
0
 10
4295.1112140378609183
 20
102.8761710360741972
 30
0.0
 11
4295.1369384473600803
 21
102.8761710360741972
 31
0.0
  0
LINE
  5
F342
  8
0
 10
4295.1112140378609183
 20
102.9909176491741931
 30
0.0
 11
4295.1369691753661755
 21
102.9909145567824993
 31
0.0
  0
LINE
  5
F343
  8
0
 10
4295.1112140378609183
 20
103.012894943374107
 30
0.0
 11
4295.1369384473600803
 21
103.012894943374107
 31
0.0
  0
LINE
  5
F344
  8
0
 10
4295.1112140378609183
 20
102.9694406260742028
 30
0.0
 11
4295.1369384473600803
 21
102.9694406260742028
 31
0.0
  0
LINE
  5
F345
  8
0
 10
4295.1112140378609183
 20
103.5661710360740955
 30
0.0
 11
4295.1369384473600803
 21
103.5661710360740955
 31
0.0
  0
LINE
  5
F346
  8
0
 10
4295.1112140378609183
 20
103.4959284189741027
 30
0.0
 11
4295.1369384473600803
 21
103.4959284189741027
 31
0.0
  0
LINE
  5
F347
  8
0
 10
4295.1112140378609183
 20
103.4729014459742018
 30
0.0
 11
4295.1370270466395596
 21
103.4728983466339969
 31
0.0
  0
LINE
  5
F348
  8
0
 10
4295.1112140378609183
 20
103.4514244229740996
 30
0.0
 11
4295.1370244679173993
 21
103.451421323943606
 31
0.0
  0
LINE
  5
F349
  8
0
 10
4295.1112140378609183
 20
103.4294471285740968
 30
0.0
 11
4295.1370198841286765
 21
103.4294439110407069
 31
0.0
  0
LINE
  5
F34A
  8
0
 10
4295.1763085261309243
 20
102.7369190675741066
 30
0.0
 11
4296.3902769932092269
 21
102.7369190675741066
 31
0.0
  0
LINE
  5
F34B
  8
0
 10
4296.4296492652601955
 20
102.7760501462742013
 30
0.0
 11
4296.4361736023602134
 21
103.8508532956740993
 31
0.0
  0
LINE
  5
F34C
  8
0
 10
4296.5145494609605521
 20
103.8822605592742008
 30
0.0
 11
4296.4566221493696503
 21
102.4920050804742004
 31
0.0
  0
LINE
  5
F34D
  8
0
 10
4295.6574436966611756
 20
102.7369190675741066
 30
0.0
 11
4295.6676484461595464
 21
102.4920050804742004
 31
0.0
  0
LINE
  5
F34E
  8
0
 10
4295.6873164200596875
 20
102.4731395399741984
 30
0.0
 11
4296.4369541754613238
 21
102.4731395399741984
 31
0.0
  0
LINE
  5
F34F
  8
0
 10
4291.2985368725603621
 20
102.0004623745741981
 30
0.0
 11
4291.2985368725603621
 21
77.2888289865741172
 31
0.0
  0
LINE
  5
F350
  8
0
 10
4291.302536872561177
 20
77.2888289865741172
 30
0.0
 11
4293.10556049456045
 21
77.2888289865741172
 31
0.0
  0
ARC
  5
F351
  8
0
 10
4293.10556049456045
 20
77.2848289865741123
 30
0.0
 40
0.004
 50
0.0
 51
90.0
  0
ARC
  5
F352
  8
0
 10
4291.302536872561177
 20
77.2848289865741123
 30
0.0
 40
0.004
 50
90.0
 51
180.0
  0
LINE
  5
F353
  8
0
 10
4293.1095604945603554
 20
77.2888289865741172
 30
0.0
 11
4293.1095604945603554
 21
102.0004623745741981
 31
0.0
  0
LINE
  5
F354
  8
0
 10
4293.1095604945603554
 20
77.2848289865741123
 30
0.0
 11
4293.1095604945603554
 21
77.2297738684741262
 31
0.0
  0
LINE
  5
F355
  8
0
 10
4293.1095604945603554
 20
77.2297738684741262
 30
0.0
 11
4291.2985368725603621
 21
77.2297738684741262
 31
0.0
  0
LINE
  5
F356
  8
0
 10
4291.2985368725603621
 20
77.2297738684741262
 30
0.0
 11
4291.2985368725603621
 21
77.2848289865741123
 31
0.0
  0
LINE
  5
F357
  8
0
 10
4291.3182219118598368
 20
77.2888289865741172
 30
0.0
 11
4291.3182219118598368
 21
77.2848919786741817
 31
0.0
  0
ARC
  5
F358
  8
0
 10
4284.2712526584664374
 20
77.2000688306619622
 30
0.0
 40
0.03936932921218
 50
90.0000000073475377
 51
179.9989090590273975
  0
ARC
  5
F359
  8
0
 10
4284.2712861535947013
 20
77.1534483164283529
 30
0.0
 40
0.0394028396733231
 50
90.047615748231749
 51
179.9494439701051931
  0
ARC
  5
F35A
  8
0
 10
4284.2518660626337805
 20
77.0550632830043014
 30
0.0
 40
0.0199862793958785
 50
180.3445688187086944
 51
269.1465522716258079
  0
ARC
  5
F35B
  8
0
 10
4284.2515987850720194
 20
77.0036128219830971
 30
0.0
 40
0.019695181305683
 50
90.0616654791041356
 51
179.6515725007849085
  0
ARC
  5
F35C
  8
0
 10
4284.3420624312129803
 20
74.8438611486557051
 30
0.0
 40
0.1100879273178717
 50
183.8914618884184051
 51
274.1313752243846125
  0
ARC
  5
F35D
  8
0
 10
4284.27125415755836
 20
74.4522155629247209
 30
0.0
 40
0.0393708283576813
 50
179.9989091915632002
 51
269.9989091209473031
  0
LINE
  5
F35E
  8
0
 10
4284.2318833292601994
 20
74.4522163124742065
 30
0.0
 11
4284.2318833292665659
 21
77.2000695802346399
 31
0.0
  0
LINE
  5
F35F
  8
0
 10
4284.2712526584591615
 20
77.2394381598742257
 30
0.0
 11
4291.2985368725603621
 21
77.2394381598710424
 31
0.0
  0
LINE
  5
F360
  8
0
 10
4293.1095604945603554
 20
77.2394381598701329
 30
0.0
 11
4300.1373951402283637
 21
77.2394381598670634
 31
0.0
  0
LINE
  5
F361
  8
0
 10
4284.2712534078073077
 20
77.1928511424948738
 30
0.0
 11
4300.1373951402601961
 21
77.1928511424948738
 31
0.0
  0
LINE
  5
F362
  8
0
 10
4284.3499935334775728
 20
77.0344193693745041
 30
0.0
 11
4300.0810488348606668
 21
77.0343549282741833
 31
0.0
  0
ARC
  5
F363
  8
0
 10
4300.0540985945390275
 20
86.5934252606696191
 30
0.0
 40
9.5591083232243435
 50
270.161535681034195
 51
270.4973639693506016
  0
ARC
  5
F364
  8
0
 10
4300.1315040505769502
 20
77.7572275498741874
 30
0.0
 40
0.7225719478788923
 50
270.4418848169509033
 51
272.028462935084292
  0
ARC
  5
F365
  8
0
 10
4300.156922515549013
 20
77.0549503738328667
 30
0.0
 40
0.0198426105463875
 50
270.455261542843175
 51
359.8131312612965758
  0
ARC
  5
F366
  8
0
 10
4284.2866494079216864
 20
78.2471070188687463
 30
0.0
 40
1.2125353861321531
 50
268.3420887842073057
 51
269.7033314323709874
  0
ARC
  5
F367
  8
0
 10
4284.3285418965833742
 20
82.5539669312634032
 30
0.0
 40
5.5195892474602797
 50
269.4999596463850935
 51
270.2226780466281184
  0
ARC
  5
F368
  8
0
 10
4284.2911399411177626
 20
78.1801705723387244
 30
0.0
 40
1.1575388588980251
 50
268.0413638828105718
 51
269.9736399569176228
  0
ARC
  5
F369
  8
0
 10
4284.3475066443161268
 20
86.0863780955518081
 30
0.0
 40
9.0639248553459524
 50
269.6403204532555833
 51
270.0157204087079776
  0
LINE
  5
F36A
  8
0
 10
4284.2515683685596741
 20
77.0350792207964332
 30
0.0
 11
4284.2515775878291606
 21
77.023307991881893
 31
0.0
  0
LINE
  5
F36B
  8
0
 10
4284.3499935654608635
 20
77.0224535813741653
 30
0.0
 11
4300.0389699433599162
 21
77.0236812574809164
 31
0.0
  0
ARC
  5
F36C
  8
0
 10
4291.5158754352596588
 20
72.2573329235741539
 30
0.0
 40
0.0196850394000007
 50
270.0
 51
357.614056007185809
  0
ARC
  5
F36D
  8
0
 10
4290.7662376796770332
 20
72.2573329234762554
 30
0.0
 40
0.0196850392020396
 50
182.3859437314368108
 51
270.0000005351196819
  0
ARC
  5
F36E
  8
0
 10
4300.1964502583596186
 20
76.6465879800741732
 30
0.0
 40
0.0196850393999988
 50
180.0000000000065086
 51
268.4999998800636263
  0
ARC
  5
F36F
  8
0
 10
4300.1964502583123249
 20
74.6397314103938925
 30
0.0
 40
0.0196850393514421
 50
91.4999999822140069
 51
180.0000000574644901
  0
LINE
  5
F370
  8
0
 10
4284.2712534079628313
 20
74.4128447345741506
 30
0.0
 11
4285.4877888410601372
 21
74.4128447345741506
 31
0.0
  0
LINE
  5
F371
  8
0
 10
4285.4877888410601372
 20
74.4128447345741506
 30
0.0
 11
4285.4877888410601372
 21
74.4575188134741666
 31
0.0
  0
LINE
  5
F372
  8
0
 10
4285.4877888410601372
 20
74.4575188134741666
 30
0.0
 11
4285.4995998646600128
 21
74.4580551694741644
 31
0.0
  0
LINE
  5
F373
  8
0
 10
4285.4995998646600128
 20
74.4580551694741644
 30
0.0
 11
4285.4995998646600128
 21
74.4246562079741807
 31
0.0
  0
LINE
  5
F374
  8
0
 10
4285.4995998646600128
 20
74.4246562079741807
 30
0.0
 11
4285.4877888410601372
 21
74.4128447345741506
 31
0.0
  0
LINE
  5
F375
  8
0
 10
4285.4995998646600128
 20
74.4443419969741029
 30
0.0
 11
4285.5115180433931528
 21
74.4444448425292649
 31
0.0
  0
LINE
  5
F376
  8
0
 10
4285.4995998646600128
 20
74.4580551694741644
 30
0.0
 11
4298.8972498035609533
 21
74.4582696788742169
 31
0.0
  0
LINE
  5
F377
  8
0
 10
4285.5162239710989525
 20
73.861299066700667
 30
0.0
 11
4285.5114005941513824
 21
74.4580553584153222
 31
0.0
  0
ARC
  5
F378
  8
0
 10
4285.555593291119294
 20
73.8616418787928524
 30
0.0
 40
0.0393708125256773
 50
180.4988958314075944
 51
269.9989225659020917
  0
LINE
  5
F379
  8
0
 10
4285.5555925507160282
 20
73.8222710662741974
 30
0.0
 11
4289.78278884106021
 21
73.8222710662741974
 31
0.0
  0
LINE
  5
F37A
  8
0
 10
4289.78278884106021
 20
73.854568732945836
 30
0.0
 11
4289.78278884106021
 21
73.7947344983741687
 31
0.0
  0
LINE
  5
F37B
  8
0
 10
4289.6056234866600789
 20
73.7947344983741687
 30
0.0
 11
4290.6292452496600163
 21
73.7947344983741687
 31
0.0
  0
LINE
  5
F37C
  8
0
 10
4290.6292452496600163
 20
73.7947344983741687
 30
0.0
 11
4290.6292455339607841
 21
73.5506400101742202
 31
0.0
  0
LINE
  5
F37D
  8
0
 10
4290.6174339582603352
 20
73.5388289865741172
 30
0.0
 11
4289.6174350623596183
 21
73.5388289865741172
 31
0.0
  0
ARC
  5
F37E
  8
0
 10
4290.6174345103381711
 20
73.5506400101833151
 30
0.0
 40
0.0118110236220244
 50
269.9973218462023965
 51
359.9999998269094021
  0
LINE
  5
F37F
  8
0
 10
4289.6056237710608912
 20
73.7947344983741687
 30
0.0
 11
4289.6056234867592138
 21
73.5506400101742202
 31
0.0
  0
ARC
  5
F380
  8
0
 10
4289.6174345103827363
 20
73.5506400101833151
 30
0.0
 40
0.0118110236220244
 50
180.0000001730905126
 51
270.0026781537976035
  0
ARC
  5
F381
  8
0
 10
4289.9255157007009984
 20
73.6809878229977357
 30
0.0
 40
0.3164962036810728
 50
173.6561565726692891
 51
179.7028769731855959
  0
ARC
  5
F382
  8
0
 10
4289.6819281102998502
 20
73.7097168196967232
 30
0.0
 40
0.071244597800285
 50
157.5061458778457109
 51
174.9734928396343889
  0
ARC
  5
F383
  8
0
 10
4289.6297626204714106
 20
73.7316072737551167
 30
0.0
 40
0.0146753190016338
 50
115.5625618252914961
 51
158.5499674261874077
  0
ARC
  5
F384
  8
0
 10
4289.6270808355948247
 20
73.7353246125176156
 30
0.0
 40
0.010197314300898
 50
89.8685317527925633
 51
110.9769604570861929
  0
LINE
  5
F385
  8
0
 10
4289.6090237395601434
 20
73.6826280349741864
 30
0.0
 11
4289.6075318327211789
 21
73.5442028326831405
 31
0.0
  0
ARC
  5
F386
  8
0
 10
4290.309353320019909
 20
73.6809878229977357
 30
0.0
 40
0.3164962036810728
 50
0.2971230268143825
 51
6.3438434273306461
  0
ARC
  5
F387
  8
0
 10
4290.5529409104201477
 20
73.7097168196967232
 30
0.0
 40
0.071244597800285
 50
5.0265071603655649
 51
22.4938541221543211
  0
ARC
  5
F388
  8
0
 10
4290.6051064002485873
 20
73.7316072737551167
 30
0.0
 40
0.0146753190016338
 50
21.4500325738126207
 51
64.4374381747084612
  0
ARC
  5
F389
  8
0
 10
4290.6077881851260827
 20
73.7353246125176156
 30
0.0
 40
0.010197314300898
 50
69.0230395429137218
 51
90.1314682472074225
  0
LINE
  5
F38A
  8
0
 10
4290.6258452811598545
 20
73.6826280349741864
 30
0.0
 11
4290.627337187998819
 21
73.5442028326831405
 31
0.0
  0
LINE
  5
F38B
  8
0
 10
4289.6271042338603365
 20
73.7455218999741646
 30
0.0
 11
4290.6077647868605709
 21
73.7455218999741646
 31
0.0
  0
LINE
  5
F38C
  8
0
 10
4290.4520801795597436
 20
73.8545803687467242
 30
0.0
 11
4290.4520801795597436
 21
73.7947344983741687
 31
0.0
  0
LINE
  5
F38D
  8
0
 10
4285.5946607811602007
 20
73.8595230397742171
 30
0.0
 11
4298.8139877706917105
 21
73.8595230397742171
 31
0.0
  0
ARC
  5
F38E
  8
0
 10
4298.8612242617664378
 20
71.9059504833259098
 30
0.0
 40
1.954143551379147
 50
90.239495424417683
 51
91.3851158539972346
  0
LINE
  5
F38F
  8
0
 10
4298.853055997359661
 20
73.8222710662741974
 30
0.0
 11
4291.6036549827604176
 21
73.8222710662741974
 31
0.0
  0
LINE
  5
F390
  8
0
 10
4291.6036549827604176
 20
73.8335270271741138
 30
0.0
 11
4291.6036549827604176
 21
73.6549707188742104
 31
0.0
  0
LINE
  5
F391
  8
0
 10
4291.6036549827604176
 20
73.6549707188742104
 30
0.0
 11
4290.6784583877606565
 21
73.6549707188742104
 31
0.0
  0
LINE
  5
F392
  8
0
 10
4290.6784583877606565
 20
73.6549707188742104
 30
0.0
 11
4290.6784581323609018
 21
73.8335108490512084
 31
0.0
  0
LINE
  5
F393
  8
0
 10
4290.4520801795597436
 20
73.8222710662741974
 30
0.0
 11
4290.6784581323609018
 21
73.8222710662741974
 31
0.0
  0
LINE
  5
F394
  8
0
 10
4290.6886423943597038
 20
73.6467689035741842
 30
0.0
 11
4290.7465697059651575
 21
72.2565134245718355
 31
0.0
  0
LINE
  5
F395
  8
0
 10
4291.5355434091698044
 20
72.2565134246741536
 30
0.0
 11
4291.5934707207597967
 21
73.6467689035741842
 31
0.0
  0
ARC
  5
F396
  8
0
 10
4291.5856035312617678
 20
73.6470967031779082
 30
0.0
 40
0.0078740156962395
 50
357.6140556691862002
 51
90.0000000113079039
  0
ARC
  5
F397
  8
0
 10
4290.6965095838586421
 20
73.6470967031779082
 30
0.0
 40
0.0078740156962369
 50
89.9999999886399564
 51
182.3859443308398056
  0
LINE
  5
F398
  8
0
 10
4290.7662376798598416
 20
72.23764788417418
 30
0.0
 11
4291.5158754352596588
 21
72.23764788417418
 31
0.0
  0
ARC
  5
F399
  8
0
 10
4285.5558172622131679
 20
73.8999849736464967
 30
0.0
 40
0.0399086432127465
 50
181.2713238900915087
 51
269.6773860304654136
  0
ARC
  5
F39A
  8
0
 10
4285.5457488436368294
 20
71.7877811296620933
 30
0.0
 40
2.0723192128017009
 50
88.6475501298241966
 51
89.7278387468312673
  0
ARC
  5
F39B
  8
0
 10
4285.8169628297882809
 20
72.4004780804829124
 30
0.0
 40
1.433903285520792
 50
90.4106250309440469
 51
91.7539730220559164
  0
LINE
  5
F39C
  8
0
 10
4286.3047179748600684
 20
73.8595230397742171
 30
0.0
 11
4286.3047179748600684
 21
73.8332609642741318
 31
0.0
  0
ARC
  5
F39D
  8
0
 10
4285.8437624562147903
 20
74.3385438855557368
 30
0.0
 40
0.5050818078649155
 50
267.35634511866499
 51
270.2872850866979206
  0
ARC
  5
F39E
  8
0
 10
4285.9285642958184326
 20
86.7278393133746164
 30
0.0
 40
12.8946333334578807
 50
269.6344434541737201
 51
270.1673219291242845
  0
LINE
  5
F39F
  8
0
 10
4285.9662206795155726
 20
73.8332609642741318
 30
0.0
 11
4286.3047179748600684
 21
73.8332609642741318
 31
0.0
  0
LINE
  5
F3A0
  8
0
 10
4286.3047179748600684
 20
73.8477937379741434
 30
0.0
 11
4285.905111675660919
 21
73.8477937379741434
 31
0.0
  0
ARC
  5
F3A1
  8
0
 10
4285.8816632074676818
 20
71.1638977329673708
 30
0.0
 40
2.683998434491365
 50
89.4994351199497089
 51
91.1724223157620628
  0
ARC
  5
F3A2
  8
0
 10
4285.827004300524095
 20
73.7707556907000708
 30
0.0
 40
0.0765790132488987
 50
90.1937268287650227
 51
94.8978601919953064
  0
ARC
  5
F3A3
  8
0
 10
4285.8285494773190294
 20
73.4161401397343525
 30
0.0
 40
0.4314692014149463
 50
89.8382631206003737
 51
92.9044812468287233
  0
LINE
  5
F3A4
  8
0
 10
4286.2782677304603567
 20
73.8479139855742233
 30
0.0
 11
4285.9051116755599651
 21
73.8479139855742233
 31
0.0
  0
ARC
  5
F3A5
  8
0
 10
4285.9037543723288763
 20
72.9370490622559373
 30
0.0
 40
0.9108659345939294
 50
89.9146221496378644
 51
90.3263061479086531
  0
ARC
  5
F3A6
  8
0
 10
4285.8938583718418158
 20
72.298676955582323
 30
0.0
 40
1.549230424930383
 50
89.8258619729946162
 51
90.1506587102544756
  0
ARC
  5
F3A7
  8
0
 10
4285.9095119269113638
 20
59.6037412188928712
 30
0.0
 40
14.2441744662268199
 50
90.0793508807686152
 51
90.096519585695674
  0
ARC
  5
F3A8
  8
0
 10
4285.8860203727281259
 20
73.4952467428984164
 30
0.0
 40
0.3526490910718449
 50
90.0818781885934641
 51
90.1759803089411776
  0
ARC
  5
F3A9
  8
0
 10
4285.8785966801879113
 20
69.1723817443692042
 30
0.0
 40
4.675480863172651
 50
90.2258518019856552
 51
90.598389781438371
  0
ARC
  5
F3AA
  8
0
 10
4285.8896842018266398
 20
66.8166113435137135
 30
0.0
 40
7.0312768978498514
 50
90.2029480299690931
 51
90.2405304513987545
  0
ARC
  5
F3AB
  8
0
 10
4285.8915354076007134
 20
66.3049765893644008
 30
0.0
 40
7.5429149996401152
 50
90.2011780578145306
 51
90.2032437464699228
  0
LINE
  5
F3AC
  8
0
 10
4285.8066864788597741
 20
73.8470550745742003
 30
0.0
 11
4285.8066864788597741
 21
73.8343445418742022
 31
0.0
  0
ARC
  5
F3AD
  8
0
 10
4285.8067639808214153
 20
73.8539944817509877
 30
0.0
 40
0.0196500927151608
 50
269.7740190415995016
 51
314.3266364896931009
  0
LINE
  5
F3AE
  8
0
 10
4285.8204660063602205
 20
73.8339996277741193
 30
0.0
 11
4285.8204660063602205
 21
73.8475336135686575
 31
0.0
  0
ARC
  5
F3AF
  8
0
 10
4285.8307285206810775
 20
75.9737757411833172
 30
0.0
 40
2.1408444382138159
 50
268.4568079728023235
 51
269.9400904720038739
  0
ARC
  5
F3B0
  8
0
 10
4285.869820811784848
 20
83.1149490320524365
 30
0.0
 40
9.282108576832373
 50
269.7448760641127024
 51
270.4587779377280867
  0
LINE
  5
F3B1
  8
0
 10
4285.9441435832413845
 20
73.833138014920678
 30
0.0
 11
4286.2782677304603567
 21
73.833138014920678
 31
0.0
  0
ARC
  5
F3B2
  8
0
 10
4286.2783701376447425
 20
73.8424021727036006
 30
0.0
 40
0.0092647237766477
 50
269.3666709253674867
 51
279.3662453811048749
  0
LINE
  5
F3B3
  8
0
 10
4286.2782677304603567
 20
73.833138014920678
 30
0.0
 11
4286.2782677304603567
 21
73.8247158543741762
 31
0.0
  0
ARC
  5
F3B4
  8
0
 10
4286.3475608022536107
 20
74.7219841247909926
 30
0.0
 40
0.8976200084897369
 50
268.3959598282264096
 51
269.8659512646283929
  0
ARC
  5
F3B5
  8
0
 10
4286.3796128470230542
 20
79.2934783911650811
 30
0.0
 40
5.4692184493403664
 50
269.6422186565811216
 51
269.9693715208807134
  0
LINE
  5
F3B6
  8
0
 10
4286.3766891790601221
 20
73.8242605246517769
 30
0.0
 11
4286.3766891795612537
 21
73.8238569760741257
 31
0.0
  0
LINE
  5
F3B7
  8
0
 10
4286.3766891795612537
 20
73.8238569760741257
 30
0.0
 11
4286.2929239254390268
 21
73.8242650902536752
 31
0.0
  0
ARC
  5
F3B8
  8
0
 10
4286.2937366435753574
 20
74.0891818611557937
 30
0.0
 40
0.2649180175374437
 50
266.6525196494325201
 51
269.8242271606476947
  0
ARC
  5
F3B9
  8
0
 10
4286.2780506164972394
 20
73.8447148034920247
 30
0.0
 40
0.0200106302854912
 50
270.626002115997494
 51
325.0086957194246793
  0
ARC
  5
F3BA
  8
0
 10
4286.322597933828547
 20
73.8446151358140241
 30
0.0
 40
0.0198999524886912
 50
205.7955291865445133
 51
269.5294672032579797
  0
LINE
  5
F3BB
  8
0
 10
4286.3224345103608357
 20
73.8247158543741762
 30
0.0
 11
4286.3224345103608357
 21
73.8595230397742171
 31
0.0
  0
LINE
  5
F3BC
  8
0
 10
4286.2782677304603567
 20
73.8595230397742171
 30
0.0
 11
4286.2782677304603567
 21
73.8479139855742233
 31
0.0
  0
ARC
  5
F3BD
  8
0
 10
4286.2784953809950821
 20
73.8673320439847885
 30
0.0
 40
0.0194193928124799
 50
269.3283150639238102
 51
336.2889717545028816
  0
LINE
  5
F3BE
  8
0
 10
4286.3766891790601221
 20
73.8242605246517769
 30
0.0
 11
4288.5831404709606431
 21
73.8242605246517769
 31
0.0
  0
LINE
  5
F3BF
  8
0
 10
4288.5831404709606431
 20
73.8242605246517769
 30
0.0
 11
4288.5831404709606431
 21
73.8238569760741257
 31
0.0
  0
LINE
  5
F3C0
  8
0
 10
4288.5831404709606431
 20
73.8238569760741257
 30
0.0
 11
4288.6334266367839518
 21
73.8239877138895508
 31
0.0
  0
ARC
  5
F3C1
  8
0
 10
4288.6093439872565796
 20
74.6863634935706386
 30
0.0
 40
0.8619964377025361
 50
270.0868156563104776
 51
271.6038428518535284
  0
ARC
  5
F3C2
  8
0
 10
4288.5741245248500491
 20
79.6503082628319135
 30
0.0
 40
5.826054714370426
 50
270.0886664976413272
 51
270.3592096405761822
  0
ARC
  5
F3C3
  8
0
 10
4288.6319159680733719
 20
73.8540484585435024
 30
0.0
 40
0.0293848356762145
 50
273.0317887975353983
 51
282.474827522674218
  0
ARC
  5
F3C4
  8
0
 10
4288.6334000656170247
 20
73.8445213098032127
 30
0.0
 40
0.0197714110160334
 50
284.239662439339611
 51
318.3131246052845995
  0
ARC
  5
F3C5
  8
0
 10
4288.6334525887841664
 20
73.8444584215214945
 30
0.0
 40
0.0196903664518029
 50
318.348139718276002
 51
358.247248816602621
  0
ARC
  5
F3C6
  8
0
 10
4288.6377130149639925
 20
75.1320344912369364
 30
0.0
 40
1.308053800409902
 50
269.8122463934050188
 51
271.9210432899550938
  0
ARC
  5
F3C7
  8
0
 10
4288.6826266975758699
 20
73.8447968163653741
 30
0.0
 40
0.0207568524110052
 50
181.5692871840419116
 51
216.2421541680689927
  0
ARC
  5
F3C8
  8
0
 10
4288.6817132753521946
 20
73.844657898880655
 30
0.0
 40
0.0199426188732169
 50
217.4718314941667927
 51
269.56514724944509
  0
LINE
  5
F3C9
  8
0
 10
4288.6334581983455791
 20
73.8595230397742171
 30
0.0
 11
4288.6334701407240573
 21
73.8247047519216721
 31
0.0
  0
LINE
  5
F3CA
  8
0
 10
4288.6815619200597212
 20
73.8247158543741762
 30
0.0
 11
4288.6815619200597212
 21
73.8595230397742171
 31
0.0
  0
LINE
  5
F3CB
  8
0
 10
4288.6618776302602782
 20
73.8442283732741771
 30
0.0
 11
4288.6618776302602782
 21
73.8595230397742171
 31
0.0
  0
LINE
  5
F3CC
  8
0
 10
4288.6531190287605568
 20
73.8438558790742263
 30
0.0
 11
4288.6531419243701748
 21
73.8595230397742171
 31
0.0
  0
ARC
  5
F3CD
  8
0
 10
4289.2326055034218371
 20
59.3701400330349998
 30
0.0
 40
14.4723790659029508
 50
89.0066571558904371
 51
90.997782939781743
  0
ARC
  5
F3CE
  8
0
 10
4289.2314891037631241
 20
88.1825769931747345
 30
0.0
 40
14.3444467965676292
 50
268.9977772309230204
 51
271.0066628647737161
  0
ARC
  5
F3CF
  8
0
 10
4289.764204904709004
 20
65.3158439791037608
 30
0.0
 40
8.5181093508275953
 50
89.8751787409237863
 51
91.2987414404099269
  0
ARC
  5
F3D0
  8
0
 10
4289.7664538474573419
 20
82.5780479702174262
 30
0.0
 40
8.7484634182784404
 50
268.7207285994649055
 51
270.106981842540506
  0
ARC
  5
F3D1
  8
0
 10
4289.7865791874473871
 20
77.0630971215641694
 30
0.0
 40
3.2141761016737989
 50
267.596696528302175
 51
269.9324334155102179
  0
ARC
  5
F3D2
  8
0
 10
4289.7857257313962691
 20
70.675088605018118
 30
0.0
 40
3.1794814843323351
 50
90.0529241783336118
 51
92.414150614133888
  0
ARC
  5
F3D3
  8
0
 10
4290.1182197415582777
 20
28.6880697407244085
 30
0.0
 40
45.1677445208781378
 50
89.5764905147298833
 51
90.4255016888100442
  0
ARC
  5
F3D4
  8
0
 10
4290.449968468449697
 20
77.0596916773141629
 30
0.0
 40
3.2107691169552441
 50
270.0376832274408798
 51
272.4039231126076857
  0
ARC
  5
F3D5
  8
0
 10
4290.4499362450978879
 20
70.6505669707078141
 30
0.0
 40
3.2040141153352999
 50
87.5904289829932736
 51
89.9616610910339745
  0
ARC
  5
F3D6
  8
0
 10
4291.1418887101626751
 20
26.2442549675390602
 30
0.0
 40
47.5915123026835118
 50
89.4440673892422637
 51
90.557936374961514
  0
ARC
  5
F3D7
  8
0
 10
4291.6015762131983138
 20
72.4073071986617833
 30
0.0
 40
1.4262213434543609
 50
86.5932666259342483
 51
89.9164892846461754
  0
ARC
  5
F3D8
  8
0
 10
4291.598576279813642
 20
75.3596099418346057
 30
0.0
 40
1.5311184076663511
 50
270.1900498200033098
 51
273.28552870399011
  0
ARC
  5
F3D9
  8
0
 10
4290.6852813561235962
 20
72.2728799941860416
 30
0.0
 40
1.5606457706794381
 50
90.2505008997603682
 51
93.2545482334632112
  0
ARC
  5
F3DA
  8
0
 10
4290.6835103180155784
 20
75.3347917318446889
 30
0.0
 40
1.5062877697645689
 50
266.695350978217391
 51
269.8078259254656928
  0
ARC
  5
F3DB
  8
0
 10
4295.726351417780279
 20
59.3615819414946984
 30
0.0
 40
14.4723790659029508
 50
89.0066571558904371
 51
90.997782939781743
  0
ARC
  5
F3DC
  8
0
 10
4295.7252350181197471
 20
88.174018901634426
 30
0.0
 40
14.3444467965676292
 50
268.9977772309230204
 51
271.0066628647737161
  0
ARC
  5
F3DD
  8
0
 10
4297.9901309453807698
 20
59.3615819414946984
 30
0.0
 40
14.4723790659029508
 50
89.0066571558904371
 51
90.997782939781743
  0
ARC
  5
F3DE
  8
0
 10
4297.9890145457211474
 20
88.174018901634426
 30
0.0
 40
14.3444467965676292
 50
268.9977772309230204
 51
271.0066628647737161
  0
ARC
  5
F3DF
  8
0
 10
4298.8529954501264001
 20
73.899508135230235
 30
0.0
 40
0.0394312186416243
 50
270.0879785732940945
 51
359.4098398330535815
  0
ARC
  5
F3E0
  8
0
 10
4298.8530552569718566
 20
73.8616418788616329
 30
0.0
 40
0.0393708125944025
 50
270.0010774758382013
 51
359.5011040307751955
  0
LINE
  5
F3E1
  8
0
 10
4298.892424577021302
 20
73.8612990668427756
 30
0.0
 11
4298.8972498035609533
 21
74.4582696788742169
 31
0.0
  0
LINE
  5
F3E2
  8
0
 10
4298.897129617360406
 20
74.4443419969741029
 30
0.0
 11
4298.909048683560286
 21
74.4443419969741029
 31
0.0
  0
LINE
  5
F3E3
  8
0
 10
4298.909048683560286
 20
74.4246562079741807
 30
0.0
 11
4298.909048683560286
 21
74.4580551683741305
 31
0.0
  0
LINE
  5
F3E4
  8
0
 10
4298.909048683560286
 20
74.4580551683741305
 30
0.0
 11
4298.9208597071601616
 21
74.4575188134741666
 31
0.0
  0
LINE
  5
F3E5
  8
0
 10
4298.9208597071601616
 20
74.4575188134741666
 30
0.0
 11
4298.9208597071601616
 21
74.4128447345741506
 31
0.0
  0
LINE
  5
F3E6
  8
0
 10
4298.9208597071601616
 20
74.4128447345741506
 30
0.0
 11
4298.909048683560286
 21
74.4246562079741807
 31
0.0
  0
LINE
  5
F3E7
  8
0
 10
4298.9208597071601616
 20
74.4128447345741506
 30
0.0
 11
4300.1373951402601961
 21
74.4128447345741506
 31
0.0
  0
LINE
  5
F3E8
  8
0
 10
4298.8972498035609533
 20
74.4582696788742169
 30
0.0
 11
4298.909048683560286
 21
74.4580551683741305
 31
0.0
  0
ARC
  5
F3E9
  8
0
 10
4300.1373202987151672
 20
77.1534062189044647
 30
0.0
 40
0.0394449945913924
 50
0.1112427493957678
 51
89.8912889384806135
  0
ARC
  5
F3EA
  8
0
 10
4300.1373958897547709
 20
77.2000688306619622
 30
0.0
 40
0.0393693292121933
 50
0.0010909409791118
 51
90.0010908165725141
  0
LINE
  5
F3EB
  8
0
 10
4300.1767652189528235
 20
77.2000695802344126
 30
0.0
 11
4300.17676521895919
 21
74.4522163124742065
 31
0.0
  0
ARC
  5
F3EC
  8
0
 10
4300.1373943906992281
 20
74.452215562835363
 30
0.0
 40
0.0393708282682926
 50
270.0010908257439155
 51
0.0010909382368121
  0
LINE
  5
F3ED
  8
0
 10
4284.3499935654608635
 20
74.7340592868741851
 30
0.0
 11
4295.1767652189600994
 21
74.7340592872741354
 31
0.0
  0
ARC
  5
F3EE
  8
0
 10
4295.192837472805877
 20
74.7156794607830079
 30
0.0
 40
0.0160966544430983
 50
183.1551856551052992
 51
227.5212418533560026
  0
ARC
  5
F3EF
  8
0
 10
4295.2129222266412398
 20
74.7412255010641502
 30
0.0
 40
0.0485624074569131
 50
230.3996143440309936
 51
273.7690235980687135
  0
LINE
  5
F3F0
  8
0
 10
4295.1767652189600994
 20
74.7147934920741363
 30
0.0
 11
4295.1767652189600994
 21
77.0224535813741653
 31
0.0
  0
LINE
  5
F3F1
  8
0
 10
4295.2161144492592939
 20
74.6927681266741956
 30
0.0
 11
4299.9995998646609223
 21
74.6927681266741956
 31
0.0
  0
ARC
  5
F3F2
  8
0
 10
4295.221957498330994
 20
74.7485268804348237
 30
0.0
 40
0.0057537334425702
 50
179.4676273589377047
 51
225.8829232347005131
  0
ARC
  5
F3F3
  8
0
 10
4295.2220980949769
 20
74.7486786551368141
 30
0.0
 40
0.0059605703223064
 50
225.9282696161203035
 51
270.4179180047399882
  0
LINE
  5
F3F4
  8
0
 10
4295.2162040132598122
 20
74.748580341374236
 30
0.0
 11
4295.2162040131597678
 21
77.0148497984853293
 31
0.0
  0
ARC
  5
F3F5
  8
0
 10
4295.2220859937369823
 20
77.0148534795969226
 30
0.0
 40
0.0058819817284625
 50
89.9558489803533661
 51
180.0358573319338973
  0
LINE
  5
F3F6
  8
0
 10
4295.2220905262765882
 20
77.0207354595791003
 30
0.0
 11
4296.391282431342006
 21
77.0207354595791003
 31
0.0
  0
ARC
  5
F3F7
  8
0
 10
4296.3912869541463806
 20
77.0148534698580534
 30
0.0
 40
0.0058819914597905
 50
359.9642375753055035
 51
90.0440555861821537
  0
LINE
  5
F3F8
  8
0
 10
4296.3971689444597359
 20
77.0148497983741436
 30
0.0
 11
4296.3971689444597359
 21
74.748580341374236
 31
0.0
  0
ARC
  5
F3F9
  8
0
 10
4296.3913261532607066
 20
74.7485603003652841
 30
0.0
 40
0.0058428255693191
 50
269.0706592587567911
 51
0.1965260586763995
  0
LINE
  5
F3FA
  8
0
 10
4296.3912313864602766
 20
74.7427182433741564
 30
0.0
 11
4295.2221415712601811
 21
74.7427182433741564
 31
0.0
  0
ARC
  5
F3FB
  8
0
 10
4296.4228734050739149
 20
77.0148534698585081
 30
0.0
 40
0.0058819914594271
 50
89.9559439033461103
 51
180.0357634946279859
  0
LINE
  5
F3FC
  8
0
 10
4296.4169914147596501
 20
77.0148497983741436
 30
0.0
 11
4296.4169914147596501
 21
74.748580341374236
 31
0.0
  0
ARC
  5
F3FD
  8
0
 10
4296.4228400344336478
 20
74.7485666280345953
 30
0.0
 40
0.0058486357512435
 50
179.8656580384856909
 51
270.530917802535896
  0
LINE
  5
F3FE
  8
0
 10
4296.4229289727609284
 20
74.7427182433741564
 30
0.0
 11
4297.5920187879601144
 21
74.7427182433741564
 31
0.0
  0
ARC
  5
F3FF
  8
0
 10
4297.5921070135927948
 20
74.7485669257356449
 30
0.0
 40
0.0058493477523092
 50
269.1357757698665978
 51
0.1314095475679209
  0
LINE
  5
F400
  8
0
 10
4297.5979563459595738
 20
74.748580341374236
 30
0.0
 11
4297.5979563459595738
 21
77.0148497983741436
 31
0.0
  0
ARC
  5
F401
  8
0
 10
4297.5920743655578917
 20
77.014853479771773
 30
0.0
 40
0.0058819815537139
 50
359.964139881042172
 51
90.0441517649791336
  0
LINE
  5
F402
  8
0
 10
4297.5920698329409788
 20
77.0207354595791003
 30
0.0
 11
4296.42287792787738
 21
77.0207354595791003
 31
0.0
  0
LINE
  5
F403
  8
0
 10
4296.3971689456848253
 20
77.0077961332741552
 30
0.0
 11
4296.4169914147596501
 21
77.0077961332741552
 31
0.0
  0
ARC
  5
F404
  8
0
 10
4300.0027945220781476
 20
74.7412255010641502
 30
0.0
 40
0.0485624074569131
 50
266.2309764019314002
 51
309.600385655968978
  0
LINE
  5
F405
  8
0
 10
4300.0389515297601974
 20
74.7147934920741363
 30
0.0
 11
4300.0389515297601974
 21
77.0224535813741653
 31
0.0
  0
ARC
  5
F406
  8
0
 10
4299.9937592503902124
 20
74.7485268804348237
 30
0.0
 40
0.0057537334425702
 50
314.1170767652994869
 51
0.5323726410622939
  0
ARC
  5
F407
  8
0
 10
4299.9936186537443064
 20
74.7486786551368141
 30
0.0
 40
0.0059605703223064
 50
269.5820819952598981
 51
314.0717303838798102
  0
LINE
  5
F408
  8
0
 10
4299.9995127354595752
 20
74.748580341374236
 30
0.0
 11
4299.9995127355596196
 21
77.0148497984853293
 31
0.0
  0
ARC
  5
F409
  8
0
 10
4299.993630754984224
 20
77.0148534795969226
 30
0.0
 40
0.0058819817284625
 50
359.9641426680660743
 51
90.0441510196466339
  0
LINE
  5
F40A
  8
0
 10
4299.9936262224437087
 20
77.0207354595791003
 30
0.0
 11
4298.8244343173792004
 21
77.0207354595791003
 31
0.0
  0
ARC
  5
F40B
  8
0
 10
4298.8244297945730068
 20
77.0148534698580534
 30
0.0
 40
0.0058819914597905
 50
89.9559444138178605
 51
180.0357624246944965
  0
LINE
  5
F40C
  8
0
 10
4298.818547804260561
 20
77.0148497983741436
 30
0.0
 11
4298.818547804260561
 21
74.748580341374236
 31
0.0
  0
ARC
  5
F40D
  8
0
 10
4298.8243905954586808
 20
74.7485603003652841
 30
0.0
 40
0.0058428255693191
 50
179.8034739413236025
 51
270.9293407412432089
  0
LINE
  5
F40E
  8
0
 10
4298.8244853622609298
 20
74.7427182433741564
 30
0.0
 11
4299.9935751774601158
 21
74.7427182433741564
 31
0.0
  0
ARC
  5
F40F
  8
0
 10
4298.7928433436472915
 20
77.0148534698585081
 30
0.0
 40
0.0058819914594271
 50
359.9642365053719004
 51
90.0440560966538754
  0
LINE
  5
F410
  8
0
 10
4298.7987253339597373
 20
77.0148497983741436
 30
0.0
 11
4298.7987253339597373
 21
74.748580341374236
 31
0.0
  0
ARC
  5
F411
  8
0
 10
4298.7928767142857396
 20
74.7485666280345953
 30
0.0
 40
0.0058486357512435
 50
269.4690821974639903
 51
0.1343419615142483
  0
LINE
  5
F412
  8
0
 10
4298.7927877759602779
 20
74.7427182433741564
 30
0.0
 11
4297.6236979607601825
 21
74.7427182433741564
 31
0.0
  0
ARC
  5
F413
  8
0
 10
4297.6236097351284116
 20
74.7485669257356449
 30
0.0
 40
0.0058493477523092
 50
179.8685904524321018
 51
270.8642242301335159
  0
LINE
  5
F414
  8
0
 10
4297.6177604027607231
 20
74.748580341374236
 30
0.0
 11
4297.6177604027607231
 21
77.0148497983741436
 31
0.0
  0
ARC
  5
F415
  8
0
 10
4297.6236423831624052
 20
77.014853479771773
 30
0.0
 40
0.0058819815537139
 50
89.9558482350208237
 51
180.0358601189512058
  0
LINE
  5
F416
  8
0
 10
4297.6236469157802276
 20
77.0207354595791003
 30
0.0
 11
4298.7928388208429169
 21
77.0207354595791003
 31
0.0
  0
LINE
  5
F417
  8
0
 10
4298.8185478030336526
 20
77.0077961332741552
 30
0.0
 11
4298.7987253339597373
 21
77.0077961332741552
 31
0.0
  0
ARC
  5
F418
  8
0
 10
4300.0233471504243425
 20
74.7154579152405631
 30
0.0
 40
0.0156185179949742
 50
311.7617148417450039
 51
357.5618828157225266
  0
ARC
  5
F419
  8
0
 10
4300.0389846822472464
 20
77.002732650709163
 30
0.0
 40
0.0197209491261826
 50
90.0963188162446187
 51
177.3448954858066884
  0
ARC
  5
F41A
  8
0
 10
4300.0396947490917228
 20
77.0032810117403415
 30
0.0
 40
0.0204131175870724
 50
92.0348210029376048
 51
178.9740508956487872
  0
LINE
  5
F41B
  8
0
 10
4300.0192849036793632
 20
77.0036468947785124
 30
0.0
 11
4300.019284904061351
 21
74.7315591774741961
 31
0.0
  0
ARC
  5
F41C
  8
0
 10
4300.0377012513417867
 20
74.7332430930661076
 30
0.0
 40
0.0184931722245918
 50
185.2243649478330951
 51
273.9337673945719871
  0
ARC
  5
F41D
  8
0
 10
4300.0623008057436891
 20
74.8467775594497056
 30
0.0
 40
0.1151075064638628
 50
258.3058341989619748
 51
353.9406618998336853
  0
ARC
  5
F41E
  8
0
 10
4300.1569844145869865
 20
77.0035497056527447
 30
0.0
 40
0.0197810397253711
 50
0.2794945833872562
 51
89.7076484150220068
  0
LINE
  5
F41F
  8
0
 10
4300.1570801795605803
 20
77.0351083896741642
 30
0.0
 11
4300.1570853468592759
 21
77.0233304878742047
 31
0.0
  0
LINE
  5
F420
  8
0
 10
4300.1570853468592759
 20
77.0233304878742047
 30
0.0
 11
4300.0389699433599162
 21
77.0224535813741653
 31
0.0
  0
ARC
  5
F421
  8
0
 10
4300.4208597072092743
 20
76.6013280373939551
 30
0.0
 40
0.0196850393514389
 50
359.9999999425353963
 51
88.5000000177859789
  0
ARC
  5
F422
  8
0
 10
4300.4208597072092743
 20
74.6849913531543734
 30
0.0
 40
0.0196850393514403
 50
271.4999999822139785
 51
0.0000000574645318
  0
LINE
  5
F423
  8
0
 10
4300.1959349641019799
 20
74.6594097042028579
 30
0.0
 11
4300.4213750014241668
 21
74.6653130593732612
 31
0.0
  0
LINE
  5
F424
  8
0
 10
4300.4405447465596808
 20
74.6849913531741549
 30
0.0
 11
4300.4405447465596808
 21
76.6013280373741736
 31
0.0
  0
LINE
  5
F425
  8
0
 10
4300.1959349640601431
 20
76.6269096862465631
 30
0.0
 11
4300.4213750014150719
 21
76.6210063311752947
 31
0.0
  0
LINE
  5
F426
  8
0
 10
4300.4405447465596808
 20
76.5368604271741333
 30
0.0
 11
4300.4993242741602444
 21
76.5368604271741333
 31
0.0
  0
LINE
  5
F427
  8
0
 10
4300.4405447465596808
 20
74.7494588523741186
 30
0.0
 11
4300.4993242735608874
 21
74.7494588523741186
 31
0.0
  0
LINE
  5
F428
  8
0
 10
4300.4993242740602
 20
74.6667942317741336
 30
0.0
 11
4300.4993242740602
 21
76.6195251585742056
 31
0.0
  0
LINE
  5
F429
  8
0
 10
4301.8379069518614415
 20
76.5880415844741265
 30
0.0
 11
4301.8379069512602655
 21
74.8163880412607654
 31
0.0
  0
LINE
  5
F42A
  8
0
 10
4300.5071982894596658
 20
74.6589077261742204
 30
0.0
 11
4300.6764896281456458
 21
74.6589077261742204
 31
0.0
  0
LINE
  5
F42B
  8
0
 10
4300.7158597068601011
 20
74.7376478844741996
 30
0.0
 11
4300.7158597068601011
 21
74.6982778053621814
 31
0.0
  0
LINE
  5
F42C
  8
0
 10
4300.9421431717601081
 20
74.7770179627741527
 30
0.0
 11
4300.9421431717601081
 21
74.7247556639741788
 31
0.0
  0
LINE
  5
F42D
  8
0
 10
4300.9697024424604024
 20
74.697196608874151
 30
0.0
 11
4301.4263949246596894
 21
74.697196608874151
 31
0.0
  0
LINE
  5
F42E
  8
0
 10
4301.4539541953608932
 20
74.7770179625741633
 30
0.0
 11
4301.4539541953608932
 21
74.7247556639741788
 31
0.0
  0
LINE
  5
F42F
  8
0
 10
4300.7552297856609584
 20
74.7770179627741527
 30
0.0
 11
4301.7985368725603621
 21
74.7770179624741331
 31
0.0
  0
ARC
  5
F430
  8
0
 10
4301.7985368725603621
 20
74.8163880412741946
 30
0.0
 40
0.0393700786999958
 50
270.0
 51
359.9999999806020128
  0
ARC
  5
F431
  8
0
 10
4301.4263951402590465
 20
74.724755663974733
 30
0.0
 40
0.0275590551014449
 50
269.9995517666470732
 51
359.9999999987492743
  0
ARC
  5
F432
  8
0
 10
4300.9697022268610453
 20
74.724755663974733
 30
0.0
 40
0.0275590551014364
 50
180.0000000012246062
 51
270.0004482333529268
  0
ARC
  5
F433
  8
0
 10
4300.7552297858301245
 20
74.7376478840034224
 30
0.0
 40
0.039370078870709
 50
90.0000002484614754
 51
179.9999998970953072
  0
ARC
  5
F434
  8
0
 10
4300.6764896273061822
 20
74.6982778057276846
 30
0.0
 40
0.0393700795535423
 50
270.0000012421509723
 51
359.9999994679808992
  0
ARC
  5
F435
  8
0
 10
4300.5071982970857789
 20
74.6667817590786171
 30
0.0
 40
0.0078740329044936
 50
179.9092417927207919
 51
269.9999444756875846
  0
ARC
  5
F436
  8
0
 10
4300.5071982975969149
 20
76.6195376302596145
 30
0.0
 40
0.0078740334145761
 50
90.0000533925359036
 51
180.0907508515167024
  0
LINE
  5
F437
  8
0
 10
4300.5071982975969149
 20
76.6274116636741383
 30
0.0
 11
4301.79853687317609
 21
76.6274116631741435
 31
0.0
  0
ARC
  5
F438
  8
0
 10
4301.7985368731597191
 20
76.5880415844742402
 30
0.0
 40
0.0393700786999816
 50
359.9999999999740226
 51
89.9999999778531645
  0
ARC
  5
F439
  8
0
 10
4289.8817143677651984
 20
74.2214788746886143
 30
0.0
 40
0.039595428088468
 50
90.3252063033923349
 51
180.3180348674113986
  0
ARC
  5
F43A
  8
0
 10
4289.8871195624269603
 20
74.2159943103939668
 30
0.0
 40
0.0393701092801598
 50
90.0000185795298648
 51
180.0545039878251998
  0
ARC
  5
F43B
  8
0
 10
4289.8817712748677877
 20
74.1016485831225964
 30
0.0
 40
0.0396520670175094
 50
179.7635292847903088
 51
269.5930284492151259
  0
LINE
  5
F43C
  8
0
 10
4289.8421195496839573
 20
74.1018128115242689
 30
0.0
 11
4289.8421195496603104
 21
74.2212590912741916
 31
0.0
  0
LINE
  5
F43D
  8
0
 10
4289.8477494709595703
 20
74.2159568586366731
 30
0.0
 11
4289.8477494709595703
 21
74.1057581204742064
 31
0.0
  0
ARC
  5
F43E
  8
0
 10
4289.8871195498313682
 20
74.1057581205449196
 30
0.0
 40
0.039370078870737
 50
180.0000001029175962
 51
270.0000489410734872
  0
LINE
  5
F43F
  8
0
 10
4289.8814896288604359
 20
74.0619975163741628
 30
0.0
 11
4294.527158839092408
 21
74.06199759817423
 31
0.0
  0
LINE
  5
F440
  8
0
 10
4289.8814896284602582
 20
74.2610736649742194
 30
0.0
 11
4294.5271589197609501
 21
74.2610736649742194
 31
0.0
  0
LINE
  5
F441
  8
0
 10
4289.8871195496603832
 20
74.2553644196741516
 30
0.0
 11
4294.5209775566936514
 21
74.2553644196741516
 31
0.0
  0
LINE
  5
F442
  8
0
 10
4289.8871195834599348
 20
74.0663880416741449
 30
0.0
 11
4294.5209778173602899
 21
74.0663880416741449
 31
0.0
  0
ARC
  5
F443
  8
0
 10
4289.8512051224934112
 20
74.1340103962003241
 30
0.0
 40
0.0035844038752673
 50
195.4033566487480016
 51
277.7176752625238123
  0
ARC
  5
F444
  8
0
 10
4289.9608782238892672
 20
74.1195219716056499
 30
0.0
 40
0.0110240107354818
 50
18.9800949799754903
 51
97.2245989402301802
  0
LINE
  5
F445
  8
0
 10
4289.971302877060225
 20
74.188230137674168
 30
0.0
 11
4289.9712766766187997
 21
74.0857146163043581
 31
0.0
  0
LINE
  5
F446
  8
0
 10
4289.9750946726999246
 20
74.0831203251741357
 30
0.0
 11
4294.4328377970596193
 21
74.0831203251741357
 31
0.0
  0
ARC
  5
F447
  8
0
 10
4289.973792008188866
 20
74.086016233091982
 30
0.0
 40
0.0025333506650797
 50
186.7106376187333865
 51
245.4817056235505106
  0
ARC
  5
F448
  8
0
 10
4289.9751672777365457
 20
74.0883930127913573
 30
0.0
 40
0.0052731874800531
 50
242.6018453809163873
 51
269.2110855690573885
  0
ARC
  5
F449
  8
0
 10
4289.9780949557052736
 20
74.1874981714449859
 30
0.0
 40
0.0068314059215042
 50
110.0984745182953048
 51
173.8491081108188041
  0
ARC
  5
F44A
  8
0
 10
4289.9828699094287003
 20
74.1787552669567276
 30
0.0
 40
0.016748240264763
 50
89.165275745543056
 51
115.1675190615437003
  0
ARC
  5
F44B
  8
0
 10
4289.9829548130610419
 20
74.134282906630574
 30
0.0
 40
0.017141014914078
 50
89.4682240865754181
 51
114.8645585054587031
  0
ARC
  5
F44C
  8
0
 10
4289.9784166247518442
 20
74.1431680727204139
 30
0.0
 40
0.0071814145250862
 50
111.8191442143308052
 51
172.1284155471209942
  0
LINE
  5
F44D
  8
0
 10
4289.9831139006601006
 20
74.1514231832741046
 30
0.0
 11
4294.4249834663605725
 21
74.1514231832741046
 31
0.0
  0
LINE
  5
F44E
  8
0
 10
4289.983113900760145
 20
74.195501729874195
 30
0.0
 11
4294.4249834663605725
 21
74.195501729874195
 31
0.0
  0
ARC
  5
F44F
  8
0
 10
4290.0539203173411806
 20
74.0930675838480965
 30
0.0
 40
0.0189370450437298
 50
109.1471893583967017
 51
130.0509017465998056
  0
ARC
  5
F450
  8
0
 10
4290.0476065646653296
 20
74.1001548152455598
 30
0.0
 40
0.0094531942256518
 50
128.3984343048950052
 51
176.3653872873715898
  0
LINE
  5
F451
  8
0
 10
4290.0383626910606836
 20
74.098876345874146
 30
0.0
 11
4290.0419186397612066
 21
74.0831203251741357
 31
0.0
  0
ARC
  5
F452
  8
0
 10
4290.0459270496139652
 20
74.1005914977927205
 30
0.0
 40
0.0077563694106602
 50
178.7988871153077923
 51
192.7753058401823125
  0
ARC
  5
F453
  8
0
 10
4290.0573601546284408
 20
74.0835986161050641
 30
0.0
 40
0.0290107901467652
 50
89.5506740196337461
 51
109.4311104955490066
  0
LINE
  5
F454
  8
0
 10
4290.0575876612947468
 20
74.1126085141742124
 30
0.0
 11
4294.3505097058259707
 21
74.1126085141742124
 31
0.0
  0
ARC
  5
F455
  8
0
 10
4289.9658598437581531
 20
74.0496223849812623
 30
0.0
 40
0.016829495750963
 50
47.3350079749697983
 51
84.9609669935094161
  0
ARC
  5
F456
  8
0
 10
4290.1379477688333282
 20
74.0434944004175435
 30
0.0
 40
0.0228950647036914
 50
53.9179153862553306
 51
89.361090128486083
  0
LINE
  5
F457
  8
0
 10
4290.2220780492598351
 20
74.0663880416741449
 30
0.0
 11
4290.2220780492598351
 21
74.06199759817423
 31
0.0
  0
LINE
  5
F458
  8
0
 10
4290.2906628567607186
 20
74.0663880416741449
 30
0.0
 11
4290.2906628567607186
 21
74.06199759817423
 31
0.0
  0
LINE
  5
F459
  8
0
 10
4290.3103478961602377
 20
74.0663880416741449
 30
0.0
 11
4290.3103478961602377
 21
74.06199759817423
 31
0.0
  0
LINE
  5
F45A
  8
0
 10
4290.5465683685606564
 20
74.0663880416741449
 30
0.0
 11
4290.5465683685606564
 21
74.06199759817423
 31
0.0
  0
LINE
  5
F45B
  8
0
 10
4290.6134975024606319
 20
74.0663880416741449
 30
0.0
 11
4290.6134975024606319
 21
74.06199759817423
 31
0.0
  0
LINE
  5
F45C
  8
0
 10
4290.6331825418601511
 20
74.0663880416741449
 30
0.0
 11
4290.6331825418601511
 21
74.06199759817423
 31
0.0
  0
ARC
  5
F45D
  8
0
 10
4294.3507225535804537
 20
74.0835109323556935
 30
0.0
 40
0.0290983602948295
 50
70.5991067305058948
 51
90.4191090718556438
  0
ARC
  5
F45E
  8
0
 10
4294.3553513368860877
 20
74.0952427234291235
 30
0.0
 40
0.0165018240770636
 50
39.9503906382855334
 51
72.227498254826827
  0
ARC
  5
F45F
  8
0
 10
4294.3612947085011911
 20
74.1003958806539913
 30
0.0
 40
0.0086377047197704
 50
2.376732934539473
 51
39.0612921549056011
  0
ARC
  5
F460
  8
0
 10
4294.362256145437641
 20
74.1005860538059551
 30
0.0
 40
0.0076706778716863
 50
350.9719575484762117
 51
1.2552055935140869
  0
LINE
  5
F461
  8
0
 10
4294.3661787273613299
 20
74.0831203251741357
 30
0.0
 11
4294.3698317963298905
 21
74.0993823874982809
 31
0.0
  0
LINE
  5
F462
  8
0
 10
4294.436794490059583
 20
74.0857201980741138
 30
0.0
 11
4294.436794490059583
 21
74.1882301375741235
 31
0.0
  0
ARC
  5
F463
  8
0
 10
4294.4251043629847118
 20
74.1778322253202305
 30
0.0
 40
0.0176699181428196
 50
71.1092735106968092
 51
90.3920176856566115
  0
ARC
  5
F464
  8
0
 10
4294.4287653809287804
 20
74.1866259499754506
 30
0.0
 40
0.008187796505935
 50
11.2987193952445999
 51
75.4290827576785574
  0
ARC
  5
F465
  8
0
 10
4294.4251708112142296
 20
74.1344139740813262
 30
0.0
 40
0.017010240899543
 50
65.0361572099127017
 51
90.6310484661701565
  0
ARC
  5
F466
  8
0
 10
4294.429818698948111
 20
74.1432759575594531
 30
0.0
 40
0.0070305331017408
 50
7.15461039674092
 51
68.8978072758515339
  0
ARC
  5
F467
  8
0
 10
4294.433331393903245
 20
74.0866798715385357
 30
0.0
 40
0.0035936065674956
 50
262.1052278432557046
 51
344.5111864675943139
  0
ARC
  5
F468
  8
0
 10
4294.5209778172893493
 20
74.1057581206448504
 30
0.0
 40
0.039370078870709
 50
270.000000389211209
 51
359.9999997515645873
  0
ARC
  5
F469
  8
0
 10
4294.5268945442930999
 20
74.1016321648197618
 30
0.0
 40
0.0396354478330469
 50
270.3820592332456272
 51
0.3365501652309351
  0
ARC
  5
F46A
  8
0
 10
4294.5269358280838787
 20
74.2214804963134611
 30
0.0
 40
0.0395937971719729
 50
359.6776054467397898
 51
89.6771646057811438
  0
ARC
  5
F46B
  8
0
 10
4294.5209778045236817
 20
74.215994310231622
 30
0.0
 40
0.0393701094433602
 50
359.9455046703092762
 51
90.0003606701735066
  0
LINE
  5
F46C
  8
0
 10
4294.5603478960601933
 20
74.1057581204742064
 30
0.0
 11
4294.5603478961602377
 21
74.2159568644233332
 31
0.0
  0
LINE
  5
F46D
  8
0
 10
4294.5665289984608535
 20
74.2212577092722086
 30
0.0
 11
4294.5665293083602592
 21
74.1018649784741683
 31
0.0
  0
LINE
  5
F46E
  8
0
 10
4290.8694030142596603
 20
74.0663880416741449
 30
0.0
 11
4290.8694030142596603
 21
74.06199759817423
 31
0.0
  0
LINE
  5
F46F
  8
0
 10
4290.9363321481596358
 20
74.0663880416741449
 30
0.0
 11
4290.9363321481596358
 21
74.06199759817423
 31
0.0
  0
LINE
  5
F470
  8
0
 10
4290.9560171874600201
 20
74.0663880416741449
 30
0.0
 11
4290.9560171874600201
 21
74.06199759817423
 31
0.0
  0
LINE
  5
F471
  8
0
 10
4291.1922376599595736
 20
74.0663880416741449
 30
0.0
 11
4291.1922376599595736
 21
74.06199759817423
 31
0.0
  0
LINE
  5
F472
  8
0
 10
4291.2591667937604143
 20
74.0663880416741449
 30
0.0
 11
4291.2591667938377213
 21
74.0619975406320918
 31
0.0
  0
LINE
  5
F473
  8
0
 10
4291.2788518331608429
 20
74.0663880416741449
 30
0.0
 11
4291.2788518331608429
 21
74.06199759817423
 31
0.0
  0
LINE
  5
F474
  8
0
 10
4291.5150723055603521
 20
74.0663880416741449
 30
0.0
 11
4291.5150723055603521
 21
74.06199759817423
 31
0.0
  0
LINE
  5
F475
  8
0
 10
4291.5820014394612372
 20
74.0663880416741449
 30
0.0
 11
4291.5820014394612372
 21
74.06199759817423
 31
0.0
  0
LINE
  5
F476
  8
0
 10
4291.6016864788607563
 20
74.0663880416741449
 30
0.0
 11
4291.6016864788607563
 21
74.06199759817423
 31
0.0
  0
LINE
  5
F477
  8
0
 10
4291.8379069512602655
 20
74.0663880416741449
 30
0.0
 11
4291.8379069512602655
 21
74.06199759817423
 31
0.0
  0
LINE
  5
F478
  8
0
 10
4291.9048360851602411
 20
74.0663880416741449
 30
0.0
 11
4291.9048360851602411
 21
74.06199759817423
 31
0.0
  0
LINE
  5
F479
  8
0
 10
4291.9245211244597158
 20
74.0663880416741449
 30
0.0
 11
4291.9245211245379323
 21
74.0619975523474068
 31
0.0
  0
LINE
  5
F47A
  8
0
 10
4292.1607415969601789
 20
74.0663880416741449
 30
0.0
 11
4292.1607415969601789
 21
74.06199759817423
 31
0.0
  0
LINE
  5
F47B
  8
0
 10
4292.22767073076011
 20
74.0663880416741449
 30
0.0
 11
4292.22767073076011
 21
74.06199759817423
 31
0.0
  0
LINE
  5
F47C
  8
0
 10
4292.2473557701596292
 20
74.0663880416741449
 30
0.0
 11
4292.2473557701596292
 21
74.06199759817423
 31
0.0
  0
LINE
  5
F47D
  8
0
 10
4292.4835762425609573
 20
74.0663880416741449
 30
0.0
 11
4292.4835762426382644
 21
74.061997562191209
 31
0.0
  0
LINE
  5
F47E
  8
0
 10
4292.5505053764600234
 20
74.0663880416741449
 30
0.0
 11
4292.5505053764600234
 21
74.06199759817423
 31
0.0
  0
LINE
  5
F47F
  8
0
 10
4292.5701904158613615
 20
74.0663880416741449
 30
0.0
 11
4292.5701904158613615
 21
74.06199759817423
 31
0.0
  0
LINE
  5
F480
  8
0
 10
4292.8064108882599612
 20
74.0663880416741449
 30
0.0
 11
4292.8064108882599612
 21
74.06199759817423
 31
0.0
  0
LINE
  5
F481
  8
0
 10
4292.8733400221599368
 20
74.0663880416741449
 30
0.0
 11
4292.8733400221599368
 21
74.06199759817423
 31
0.0
  0
LINE
  5
F482
  8
0
 10
4292.893025061460321
 20
74.0663880416741449
 30
0.0
 11
4292.893025061460321
 21
74.06199759817423
 31
0.0
  0
LINE
  5
F483
  8
0
 10
4293.1292455339598746
 20
74.0663880416741449
 30
0.0
 11
4293.1292455340380911
 21
74.0619975735600065
 31
0.0
  0
LINE
  5
F484
  8
0
 10
4293.1961746677607152
 20
74.0663880416741449
 30
0.0
 11
4293.1961746678380223
 21
74.0619975747384842
 31
0.0
  0
LINE
  5
F485
  8
0
 10
4293.2158597071602344
 20
74.0663880416741449
 30
0.0
 11
4293.2158597071602344
 21
74.06199759817423
 31
0.0
  0
LINE
  5
F486
  8
0
 10
4293.4520801796606975
 20
74.0663880416741449
 30
0.0
 11
4293.4520801797380045
 21
74.061997579244462
 31
0.0
  0
LINE
  5
F487
  8
0
 10
4293.5190093134597191
 20
74.0663880416741449
 30
0.0
 11
4293.5190093134597191
 21
74.06199759817423
 31
0.0
  0
LINE
  5
F488
  8
0
 10
4293.5386943528601478
 20
74.0663880416741449
 30
0.0
 11
4293.5386943528601478
 21
74.0619975807694573
 31
0.0
  0
LINE
  5
F489
  8
0
 10
4293.7749148252596569
 20
74.0663880416741449
 30
0.0
 11
4293.7749148252596569
 21
74.06199759817423
 31
0.0
  0
LINE
  5
F48A
  8
0
 10
4293.8418439591596325
 20
74.0663880416741449
 30
0.0
 11
4293.8418439591596325
 21
74.06199759817423
 31
0.0
  0
LINE
  5
F48B
  8
0
 10
4293.8615289984609262
 20
74.0663880416741449
 30
0.0
 11
4293.8615289984609262
 21
74.06199759817423
 31
0.0
  0
LINE
  5
F48C
  8
0
 10
4294.0977494709595703
 20
74.0663880416741449
 30
0.0
 11
4294.0977494709595703
 21
74.06199759817423
 31
0.0
  0
LINE
  5
F48D
  8
0
 10
4294.1646786047613205
 20
74.0663880416741449
 30
0.0
 11
4294.1646786047613205
 21
74.06199759817423
 31
0.0
  0
LINE
  5
F48E
  8
0
 10
4294.186019317760838
 20
74.0663880416741449
 30
0.0
 11
4294.1860193178381451
 21
74.0619975921674722
 31
0.0
  0
ARC
  5
F48F
  8
0
 10
4294.2701497162406667
 20
74.0434484322511253
 30
0.0
 40
0.0229410313319179
 50
90.6379245080855469
 51
125.9257399183447035
  0
ARC
  5
F490
  8
0
 10
4294.4410181832927265
 20
74.0193449331025022
 30
0.0
 40
0.0470426161736793
 50
90.3400678005565965
 51
114.8157162152638051
  0
CIRCLE
  5
F491
  8
0
 10
4296.5185059882087444
 20
108.6186694302454043
 30
0.0
 40
0.2840505158532122
  0
CIRCLE
  5
F492
  8
0
 10
4296.0655806784161541
 20
110.8653264308741058
 30
0.0
 40
0.2768491481912809
  0
LINE
  5
F493
  8
0
 10
4289.8516864788598468
 20
74.1304584605043146
 30
0.0
 11
4289.9594918534603494
 21
74.1304584605178434
 31
0.0
  0
LINE
  5
F494
  8
0
 10
4295.7522214724449441
 20
100.4265984799229017
 30
0.0
 11
4295.7522214724449441
 21
102.4731395399741984
 31
0.0
  0
LINE
  5
F495
  8
0
 10
4296.3703314724461961
 20
100.498142337106998
 30
0.0
 11
4296.3703314724461961
 21
102.4731395399741984
 31
0.0
  0
ARC
  5
F496
  8
0
 10
4299.5963735501218252
 20
100.4327797626093997
 30
0.0
 40
3.2267041626226072
 50
178.8392937084963989
 51
214.6817344991241896
  0
ARC
  5
F497
  8
0
 10
4303.532892510173042
 20
103.1566984981705986
 30
0.0
 40
8.0137611709301169
 50
214.6817344991088987
 51
230.0527053942639952
  0
ARC
  5
F498
  8
0
 10
4241.1145457966404138
 20
28.6302906405747599
 30
0.0
 40
89.1985604483363801
 50
48.1612949529500085
 51
50.0527053942640521
  0
ARC
  5
F499
  8
0
 10
4293.1526386495470433
 20
86.752663119719287
 30
0.0
 40
11.1846303436919108
 50
27.8961594790225185
 51
48.1612949529500085
  0
ARC
  5
F49A
  8
0
 10
4289.3451179909852726
 20
85.0376861029697579
 30
0.0
 40
15.3543926220218001
 50
353.6654554001128759
 51
26.9045035780781383
  0
ARC
  5
F49B
  8
0
 10
4258.768032075839983
 20
87.9742044253583657
 30
0.0
 40
46.071037907862447
 50
342.8245456044061257
 51
354.2314316957338747
  0
ARC
  5
F49C
  8
0
 10
4159.1774335853860975
 20
114.5134612027840006
 30
0.0
 40
149.1124982204451044
 50
340.6694568619410006
 51
344.3821778009668719
  0
ARC
  5
F49D
  8
0
 10
4294.7062507142900358
 20
66.9708216280413637
 30
0.0
 40
5.4867245929593613
 50
310.1700207528900251
 51
340.6694568619410006
  0
ARC
  5
F49E
  8
0
 10
4296.5334796185670712
 20
65.4211581507626363
 30
0.0
 40
3.1489839386094318
 50
270.6377663402601002
 51
302.9342203370310926
  0
ARC
  5
F49F
  8
0
 10
4296.8926819796834025
 20
68.9824336789061334
 30
0.0
 40
6.7178894134253078
 50
230.483058297602895
 51
267.2342921826876818
  0
ARC
  5
F4A0
  8
0
 10
4295.0872713169046619
 20
67.2888798500562757
 30
0.0
 40
4.2742594209956071
 50
185.4028974963740097
 51
234.7113051021437116
  0
ARC
  5
F4A1
  8
0
 10
4294.653421711143892
 20
67.1315707984043115
 30
0.0
 40
3.2183487638154289
 50
185.5410770628760133
 51
227.5274584990179108
  0
ARC
  5
F4A2
  8
0
 10
4298.2564286830711353
 20
71.0673480575671306
 30
0.0
 40
8.5542649806898314
 50
227.5274584990179108
 51
245.448663296139614
  0
ARC
  5
F4A3
  8
0
 10
4296.5458478786213163
 20
67.3227159797638706
 30
0.0
 40
4.4374268630724529
 50
245.448663296139614
 51
270.1447866269186875
  0
ARC
  5
F4A4
  8
0
 10
4296.5510126928584214
 20
65.278870949513518
 30
0.0
 40
2.393575307067171
 50
270.1447866269186875
 51
313.0836864378679252
  0
ARC
  5
F4A5
  8
0
 10
4292.2224101613974199
 20
68.4782132713182961
 30
0.0
 40
7.748677993082107
 50
320.3201772827953278
 51
345.3208372541852214
  0
ARC
  5
F4A6
  8
0
 10
3767.0548979637378579
 20
235.2920667547284097
 30
0.0
 40
558.7629003154280554
 50
342.4188959106344896
 51
343.2357812215287254
  0
ARC
  5
F4A7
  8
0
 10
4251.2498542217599606
 20
89.7242567802963151
 30
0.0
 40
53.1603528855090275
 50
342.9371385448106935
 51
351.7740154448787848
  0
ARC
  5
F4A8
  8
0
 10
4287.7325300895317923
 20
84.7527497299764292
 30
0.0
 40
16.3444631165149517
 50
350.7240422537523727
 51
23.1304870345336084
  0
ARC
  5
F4A9
  8
0
 10
4290.0708616084039022
 20
84.5820930796015489
 30
0.0
 40
14.30163893971325
 50
27.4432545363531197
 51
55.2109147793575232
  0
ARC
  5
F4AA
  8
0
 10
4303.6671145670252372
 20
103.144863218004204
 30
0.0
 40
8.7195954204698101
 50
210.9017051320066969
 51
231.4304869703593113
  0
ARC
  5
F4AB
  8
0
 10
4299.4245395495399862
 20
100.3970630239984985
 30
0.0
 40
3.6724368479949461
 50
179.5391955576276075
 51
208.1094277517030093
  0
LINE
  5
F4AC
  8
0
 10
4291.4501115577459132
 20
66.8208091104668256
 30
0.0
 11
4291.4501115577459132
 21
72.23764788417418
 31
0.0
  0
LINE
  5
F4AD
  8
0
 10
4290.8320015577446611
 20
66.8864213121296984
 30
0.0
 11
4290.8320015577446611
 21
72.23764788417418
 31
0.0
  0
CIRCLE
  5
F4AE
  8
0
 10
4296.0580715479873106
 20
111.6124433530710007
 30
0.0
 40
0.0712347942688798
  0
CIRCLE
  5
F4AF
  8
0
 10
4296.0560745920338377
 20
111.6182058658305039
 30
0.0
 40
0.1287741863770954
  0
CIRCLE
  5
F4B0
  8
0
 10
4296.0565032358863391
 20
111.6294381705693013
 30
0.0
 40
0.1688836336931854
  0
ARC
  5
F4B1
  8
0
 10
4296.0602649336778995
 20
111.6890920202807962
 30
0.0
 40
0.0848939267061581
 50
216.343588102910104
 51
320.3781433790751976
  0
CIRCLE
  5
F4B2
  8
0
 10
4296.0524437162866889
 20
112.1414844443664975
 30
0.0
 40
0.024881955890729
  0
CIRCLE
  5
F4B3
  8
0
 10
4296.0539656871378611
 20
112.1464700165667949
 30
0.0
 40
0.0685304788790694
  0
ARC
  5
F4B4
  8
0
 10
4296.0541609241017795
 20
112.1550260474092937
 30
0.0
 40
0.068886925685224
 50
352.7428542638915019
 51
184.6427762147403087
  0
CIRCLE
  5
F4B5
  8
0
 10
4296.0520049815368111
 20
112.157625259826105
 30
0.0
 40
0.0947674677291647
  0
CIRCLE
  5
F4B6
  8
0
 10
4296.0689550120569038
 20
112.8641680239125975
 30
0.0
 40
0.024881955890729
  0
CIRCLE
  5
F4B7
  8
0
 10
4296.0704769829071665
 20
112.8691535961128949
 30
0.0
 40
0.0685304788790694
  0
ARC
  5
F4B8
  8
0
 10
4296.0706722198719945
 20
112.8777096269554931
 30
0.0
 40
0.068886925685224
 50
352.7428542638915019
 51
184.6427762147403087
  0
CIRCLE
  5
F4B9
  8
0
 10
4296.068516277307026
 20
112.8803088393722049
 30
0.0
 40
0.0947674677291647
  0
LINE
  5
F4BB
  8
0
 10
4291.3363011844458015
 20
77.1965466960741793
 30
0.0
 11
4293.0717961828459011
 21
77.1965466960741793
 31
0.0
  0
LINE
  5
F4BC
  8
0
 10
4293.0717961828459011
 20
77.1965466960741793
 30
0.0
 11
4293.0563020979398061
 21
77.2297738684741262
 31
0.0
  0
LINE
  5
F4BD
  8
0
 10
4291.3363011844458015
 20
77.1965466960741793
 30
0.0
 11
4291.3517952694510313
 21
77.2297738684741262
 31
0.0
  0
ENDSEC
  0
EOF
