  0
SECTION
  2
HEADER
  9
$ACADVER
  1
AC1009
  9
$INSBASE
 10
4407.6887606387135747
 20
107.5039936875438968
 30
0.0
  9
$EXTMIN
 10
4398.5026599741386235
 20
86.2178612000570297
 30
-0.0000000000000058
  9
$EXTMAX
 10
4420.2664805303193134
 20
107.5130958293313057
 30
0.0000000000000104
  9
$LIMMIN
 10
0.0
 20
0.0
  9
$LIMMAX
 10
11.6929133858000007
 20
8.2677165353999982
  9
$ORTHOMODE
 70
     0
  9
$REGENMODE
 70
     1
  9
$FILLMODE
 70
     1
  9
$QTEXTMODE
 70
     0
  9
$MIRRTEXT
 70
     0
  9
$DRAGMODE
 70
     2
  9
$LTSCALE
 40
0.6431102362
  9
$OSMODE
 70
  4095
  9
$ATTMODE
 70
     1
  9
$TEXTSIZE
 40
0.2
  9
$TRACEWID
 40
0.05
  9
$TEXTSTYLE
  7
STANDARD
  9
$CLAYER
  8
0
  9
$CELTYPE
  6
BYLAYER
  9
$CECOLOR
 62
   256
  9
$DIMSCALE
 40
1.0
  9
$DIMASZ
 40
0.1875
  9
$DIMEXO
 40
0.0625
  9
$DIMDLI
 40
0.4443307087
  9
$DIMRND
 40
0.0
  9
$DIMDLE
 40
0.0
  9
$DIMEXE
 40
0.125
  9
$DIMTP
 40
0.01
  9
$DIMTM
 40
0.01
  9
$DIMTXT
 40
2.0
  9
$DIMCEN
 40
0.1052362205
  9
$DIMTSZ
 40
0.0
  9
$DIMTOL
 70
     1
  9
$DIMLIM
 70
     0
  9
$DIMTIH
 70
     1
  9
$DIMTOH
 70
     1
  9
$DIMSE1
 70
     0
  9
$DIMSE2
 70
     0
  9
$DIMTAD
 70
     0
  9
$DIMZIN
 70
     0
  9
$DIMBLK
  1

  9
$DIMASO
 70
     1
  9
$DIMSHO
 70
     1
  9
$DIMPOST
  1
\X
  9
$DIMAPOST
  1

  9
$DIMALT
 70
     1
  9
$DIMALTD
 70
     2
  9
$DIMALTF
 40
25.3999999999999986
  9
$DIMLFAC
 40
1.0
  9
$DIMTOFL
 70
     0
  9
$DIMTVP
 40
0.0
  9
$DIMTIX
 70
     0
  9
$DIMSOXD
 70
     0
  9
$DIMSAH
 70
     0
  9
$DIMBLK1
  1

  9
$DIMBLK2
  1

  9
$DIMSTYLE
  2
STANDARD
  9
$DIMCLRD
 70
     0
  9
$DIMCLRE
 70
     0
  9
$DIMCLRT
 70
     0
  9
$DIMTFAC
 40
1.0
  9
$DIMGAP
 40
0.09
  9
$LUNITS
 70
     2
  9
$LUPREC
 70
     4
  9
$SKETCHINC
 40
0.1
  9
$FILLETRAD
 40
0.0
  9
$AUNITS
 70
     0
  9
$AUPREC
 70
     0
  9
$MENU
  1
.
  9
$ELEVATION
 40
0.0
  9
$PELEVATION
 40
0.0
  9
$THICKNESS
 40
0.0
  9
$LIMCHECK
 70
     0
  9
$BLIPMODE
 70
     0
  9
$CHAMFERA
 40
0.0
  9
$CHAMFERB
 40
0.0
  9
$SKPOLY
 70
     0
  9
$TDCREATE
 40
2458060.468368056230247
  9
$TDUPDATE
 40
2459262.6712152780964971
  9
$TDINDWG
 40
0.4268936343
  9
$TDUSRTIMER
 40
0.4268936343
  9
$USRTIMER
 70
     1
  9
$ANGBASE
 50
0.0
  9
$ANGDIR
 70
     0
  9
$PDMODE
 70
     0
  9
$PDSIZE
 40
0.3125
  9
$PLINEWID
 40
0.0
  9
$COORDS
 70
     1
  9
$SPLFRAME
 70
     0
  9
$SPLINETYPE
 70
     6
  9
$SPLINESEGS
 70
     8
  9
$ATTDIA
 70
     1
  9
$ATTREQ
 70
     1
  9
$HANDLING
 70
     1
  9
$HANDSEED
  5
110CF
  9
$SURFTAB1
 70
     6
  9
$SURFTAB2
 70
     6
  9
$SURFTYPE
 70
     6
  9
$SURFU
 70
     6
  9
$SURFV
 70
     6
  9
$UCSNAME
  2

  9
$UCSORG
 10
0.0
 20
0.0
 30
0.0
  9
$UCSXDIR
 10
1.0
 20
0.0
 30
0.0
  9
$UCSYDIR
 10
0.0
 20
1.0
 30
0.0
  9
$PUCSNAME
  2

  9
$PUCSORG
 10
0.0
 20
0.0
 30
0.0
  9
$PUCSXDIR
 10
1.0
 20
0.0
 30
0.0
  9
$PUCSYDIR
 10
0.0
 20
1.0
 30
0.0
  9
$USERI1
 70
     0
  9
$USERI2
 70
     0
  9
$USERI3
 70
     0
  9
$USERI4
 70
     0
  9
$USERI5
 70
     0
  9
$USERR1
 40
0.0
  9
$USERR2
 40
0.0
  9
$USERR3
 40
0.0
  9
$USERR4
 40
0.0
  9
$USERR5
 40
0.0
  9
$WORLDVIEW
 70
     1
  9
$SHADEDGE
 70
     3
  9
$SHADEDIF
 70
    70
  9
$TILEMODE
 70
     1
  9
$MAXACTVP
 70
    64
  9
$PLIMCHECK
 70
     0
  9
$PEXTMIN
 10
1.0000000000000000E+20
 20
1.0000000000000000E+20
 30
1.0000000000000000E+20
  9
$PEXTMAX
 10
-1.0000000000000000E+20
 20
-1.0000000000000000E+20
 30
-1.0000000000000000E+20
  9
$PLIMMIN
 10
0.0
 20
0.0
  9
$PLIMMAX
 10
12.0
 20
9.0
  9
$UNITMODE
 70
     0
  9
$VISRETAIN
 70
     1
  9
$PLINEGEN
 70
     0
  9
$PSLTSCALE
 70
     1
  0
ENDSEC
  0
SECTION
  2
TABLES
  0
TABLE
  2
VPORT
 70
     1
  0
VPORT
  2
*ACTIVE
 70
     0
 10
0.0
 20
0.0
 11
1.0
 21
1.0
 12
617.0266600959794232
 22
-23.3151779184112797
 13
0.0
 23
0.0
 14
1.0
 24
1.0
 15
0.0
 25
0.0
 16
0.0
 26
0.0
 36
5.1040778033513332
 17
3792.35791015625
 27
120.1806564331053977
 37
0.0
 40
21.5694221996083293
 41
2.4365591397849462
 42
50.0
 43
0.0
 44
0.0
 50
0.0
 51
0.0
 71
     0
 72
   100
 73
     1
 74
     1
 75
     0
 76
     0
 77
     0
 78
     0
  0
ENDTAB
  0
TABLE
  2
LTYPE
 70
     2
  0
LTYPE
  2
CONTINUOUS
 70
     0
  3
Solid line
 72
    65
 73
     0
 40
0.0
  0
LTYPE
  2
PHANTOM2
 70
     0
  3
___ _ _ ___ _ _ ___ _ _ ___ _ _
 72
    65
 73
     6
 40
1.25
 49
0.625
 49
-0.125
 49
0.125
 49
-0.125
 49
0.125
 49
-0.125
  0
ENDTAB
  0
TABLE
  2
LAYER
 70
     2
  0
LAYER
  2
0
 70
     0
 62
   255
  6
CONTINUOUS
  0
LAYER
  2
DEFPOINTS
 70
     0
 62
     7
  6
CONTINUOUS
  0
ENDTAB
  0
TABLE
  2
STYLE
 70
     1
  0
STYLE
  2
STANDARD
 70
     0
 40
0.0
 41
0.8
 50
0.0
 71
     0
 42
0.2
  3
txt
  4

  0
ENDTAB
  0
TABLE
  2
VIEW
 70
     0
  0
ENDTAB
  0
TABLE
  2
UCS
 70
     0
  0
ENDTAB
  0
TABLE
  2
APPID
 70
     9
  0
APPID
  2
ACAD
 70
     0
  0
APPID
  2
ACAD_MLEADERVER
 70
     0
  0
APPID
  2
ACAD_EXEMPT_FROM_CAD_STANDARDS
 70
     0
  0
APPID
  2
ACAD_NAV_VCDISPLAY
 70
     0
  0
APPID
  2
ACAECLAYERSTANDARD
 70
     0
  0
APPID
  2
ACCMTRANSPARENCY
 70
     0
  0
APPID
  2
ACAD_DSTYLE_DIMJAG
 70
     0
  0
APPID
  2
ACAD_DSTYLE_DIMTALN
 70
     0
  0
APPID
  2
ACDBATTR
 70
     0
  0
ENDTAB
  0
TABLE
  2
DIMSTYLE
 70
     1
  0
DIMSTYLE
  2
STANDARD
 70
     0
  3

  4

  5

  6

  7

 40
1.0
 41
0.1875
 42
0.0625
 43
0.38
 44
0.125
 45
0.0
 46
0.0
 47
0.01
 48
0.01
140
0.15625
141
0.09
142
0.0
143
25.3999999999999986
144
1.0
145
0.0
146
1.0
147
0.09
 71
     1
 72
     0
 73
     1
 74
     1
 75
     0
 76
     0
 77
     0
 78
     4
170
     0
171
     2
172
     0
173
     0
174
     0
175
     0
176
     0
177
     0
178
     0
  0
ENDTAB
  0
ENDSEC
  0
SECTION
  2
BLOCKS
  0
BLOCK
  8
0
  2
$MODEL_SPACE
 70
     0
 10
0.0
 20
0.0
 30
0.0
  3
$MODEL_SPACE
  1

  0
ENDBLK
  5
21
  8
0
  0
BLOCK
 67
     1
  8
0
  2
$PAPER_SPACE
 70
     0
 10
0.0
 20
0.0
 30
0.0
  3
$PAPER_SPACE
  1

  0
ENDBLK
  5
1D
 67
     1
  8
0
  0
ENDSEC
  0
SECTION
  2
ENTITIES
  0
ATTDEF
  5
3930
  8
DEFPOINTS
 10
4407.6845854246439558
 20
107.5015176206353971
 30
0.0
 40
0.001
  1
K-26252T-7X
  3

  2
MODELNUMBER
 70
     0
1001
ACDBATTR
1070
     0
1070
     1
  0
ATTDEF
  5
3931
  8
DEFPOINTS
 10
4407.6845854246439558
 20
107.4998509539687035
 30
0.0
 40
0.001
  1
BEITOU
  3

  2
TRADENAME
 70
     0
1001
ACDBATTR
1070
     0
1070
     1
  0
ATTDEF
  5
3932
  8
DEFPOINTS
 10
4407.6845854246439558
 20
107.4981842873020952
 30
0.0
 40
0.001
  1
BATH AND SHOWER FAUCET
  3

  2
PRODUCT
 70
     0
1001
ACDBATTR
1070
     0
1070
     1
  0
ARC
  5
10E2E
  8
0
 10
4411.3937155436942703
 20
105.8879672025202012
 30
0.0
 40
0.4304167890258876
 50
115.0042755929126059
 51
143.675368460936113
  0
ARC
  5
10E2F
  8
0
 10
4411.5443184293453669
 20
105.5675410342587952
 30
0.0
 40
0.7844698297370043
 50
89.5118664034689715
 51
104.8296891315165027
  0
ARC
  5
10E30
  8
0
 10
4411.5443184293453669
 20
105.5675410342587952
 30
0.0
 40
0.7844698297370043
 50
105.8054255164204989
 51
115.0808334091091041
  0
ARC
  5
10E31
  8
0
 10
4407.731717568926797
 20
117.947967110443102
 30
0.0
 40
12.2617140570466105
 50
281.0872850361420774
 51
285.6863961278854163
  0
ARC
  5
10E32
  8
0
 10
4410.0886184020246219
 20
104.2610403574634006
 30
0.0
 40
1.5999459383083059
 50
108.2744628768761999
 51
122.6574237034432997
  0
ARC
  5
10E33
  8
0
 10
4411.0467586837221461
 20
101.3411445208089958
 30
0.0
 40
4.6730247017856552
 50
101.8181247114553969
 51
108.2036830189012022
  0
ARC
  5
10E34
  8
0
 10
4409.4658151081612232
 20
105.2336456359516035
 30
0.0
 40
0.4450242444101013
 50
122.7200828564258046
 51
139.7535630930105128
  0
ARC
  5
10E35
  8
0
 10
4409.5654127302896086
 20
105.1998659516233943
 30
0.0
 40
0.5442367070706517
 50
143.8169433775424011
 51
163.3787442822732032
  0
ARC
  5
10E36
  8
0
 10
4411.0403181883912112
 20
104.948052230792797
 30
0.0
 40
2.046245499600551
 50
174.6684373767182876
 51
181.042461921523909
  0
ARC
  5
10E37
  8
0
 10
4409.9702643045320656
 20
105.0682997597452015
 30
0.0
 40
0.9698601863938032
 50
162.7723978314193118
 51
175.8677073431404096
  0
ARC
  5
10E38
  8
0
 10
4410.2099959823317477
 20
104.9262776863440934
 30
0.0
 40
1.215682838473092
 50
180.7283558251799036
 51
193.9653401542105087
  0
ARC
  5
10E39
  8
0
 10
4409.5047316904638137
 20
104.7475874783716989
 30
0.0
 40
0.4881511533251723
 50
193.5893233022677009
 51
213.1499602000147036
  0
ARC
  5
10E3A
  8
0
 10
-17553.6492857741905027
 20
-482.4138933587753968
 30
0.0
 40
21970.4954081854994001
 50
1.5305196897960469
 51
1.531748999763118
  0
ARC
  5
10E3B
  8
0
 10
4410.299759617347263
 20
104.4320914095439008
 30
0.0
 40
1.2921148288175961
 50
181.1774333394781138
 51
193.6934473721505867
  0
ARC
  5
10E3C
  8
0
 10
4409.4306582392991913
 20
104.2191175099356002
 30
0.0
 40
0.3973016894586581
 50
193.523192841509001
 51
200.0562987278296987
  0
ARC
  5
10E3D
  8
0
 10
4409.5325786630855873
 20
104.2415424383897005
 30
0.0
 40
0.5009242963761649
 50
198.467591525422705
 51
214.0092130023971038
  0
ARC
  5
10E3E
  8
0
 10
4409.3474451104539185
 20
104.1157237386737933
 30
0.0
 40
0.277085585388157
 50
213.8547340814768916
 51
236.7561512530114953
  0
ARC
  5
10E3F
  8
0
 10
4409.3870582984509383
 20
104.1773478836563953
 30
0.0
 40
0.3503413251457565
 50
236.8628263370790137
 51
249.7562990052286125
  0
ARC
  5
10E40
  8
0
 10
4409.5555542534957567
 20
104.7054051571036979
 30
0.0
 40
0.9044174821098492
 50
251.3166571554062898
 51
264.6166398693965789
  0
ARC
  5
10E41
  8
0
 10
4410.1918081038738819
 20
111.0802594936096028
 30
0.0
 40
7.3109322962286569
 50
264.3394918585598248
 51
268.0328450717140072
  0
ARC
  5
10E42
  8
0
 10
4411.5216873564277194
 20
144.8473516991209067
 30
0.0
 40
41.1041262170917818
 50
267.795897115036496
 51
270.0408547677366187
  0
ARC
  5
10E43
  8
0
 10
4409.3485790207423634
 20
104.6575115594615966
 30
0.0
 40
0.3083605301541815
 50
215.0139889976242955
 51
253.9713636219663044
  0
ARC
  5
10E44
  8
0
 10
4411.5102757603372083
 20
175.5179273067504084
 30
0.0
 40
71.2404600889730801
 50
269.1331912140345253
 51
270.0327815363980903
  0
ARC
  5
10E45
  8
0
 10
4410.7182242270991992
 20
126.4719481126110026
 30
0.0
 40
22.1881676099747196
 50
267.3287658751499976
 51
269.2622760154080197
  0
ARC
  5
10E46
  8
0
 10
4409.7213590748033312
 20
106.290518528940197
 30
0.0
 40
1.9829775547665831
 50
256.6483215270924916
 51
268.9247076482923262
  0
ARC
  5
10E47
  8
0
 10
4411.5118011693311928
 20
103.7042409601829007
 30
0.0
 40
0.0279534776378888
 50
180.2358594532267091
 51
250.8772657427869035
  0
ARC
  5
10E48
  8
0
 10
4411.5497796682329863
 20
104.3244403389296053
 30
0.0
 40
0.6499308955619495
 50
267.6056448753602126
 51
270.1084227611723918
  0
ARC
  5
10E49
  8
0
 10
4411.5225266824400023
 20
103.7482480927689039
 30
0.0
 40
0.0731712970899921
 50
254.2327335906950054
 51
270.078836821259074
  0
ARC
  5
10E4A
  8
0
 10
4411.4563600281207982
 20
103.7244026492112994
 30
0.0
 40
0.0274879257423024
 50
359.9222263608755839
 51
44.0610946740921108
  0
LINE
  5
10E4B
  8
0
 10
4411.4838479285399444
 20
103.7243653369453966
 30
0.0
 11
4411.4838479285399444
 21
103.7041258893457041
 31
0.0
  0
ARC
  5
10E4C
  8
0
 10
4411.5902179385484487
 20
103.7042409601829007
 30
0.0
 40
0.0279534776378888
 50
289.1227342572132102
 51
359.7641405467732056
  0
ARC
  5
10E4D
  8
0
 10
4411.5522394396448362
 20
104.3244403389296053
 30
0.0
 40
0.6499308955619495
 50
269.8915772388276082
 51
272.3943551246397874
  0
ARC
  5
10E4E
  8
0
 10
4411.5794924254387297
 20
103.7482480927689039
 30
0.0
 40
0.0731712970899921
 50
269.9211631787408123
 51
285.7672664093049093
  0
ARC
  5
10E4F
  8
0
 10
4411.6456590797579338
 20
103.7244026492112994
 30
0.0
 40
0.0274879257423024
 50
135.9389053259079105
 51
180.0777736391243877
  0
LINE
  5
10E50
  8
0
 10
4411.6181711793387876
 20
103.7243653369453966
 30
0.0
 11
4411.6181711793387876
 21
103.7041258893457041
 31
0.0
  0
ARC
  5
10E51
  8
0
 10
4409.9670958892347699
 20
103.7786893010486011
 30
0.0
 40
0.0267291988309155
 50
190.8982006217374874
 51
210.0586470468751941
  0
ARC
  5
10E52
  8
0
 10
4409.9708608010423632
 20
103.7807815798528992
 30
0.0
 40
0.0310358634672352
 50
209.9203775235336025
 51
244.9657378201355016
  0
ARC
  5
10E53
  8
0
 10
4409.9939179308730672
 20
103.8376087592451
 30
0.0
 40
0.0923760574013561
 50
246.9219409662134979
 51
262.228188860881005
  0
ARC
  5
10E54
  8
0
 10
4410.0287412106899865
 20
104.0319064572183976
 30
0.0
 40
0.2897150067929453
 50
260.6005736914959812
 51
265.3205448292271171
  0
ARC
  5
10E55
  8
0
 10
4410.0291847787357256
 20
104.0115131873797054
 30
0.0
 40
0.2694341297297582
 50
264.8727423272694068
 51
271.5859613265295138
  0
ARC
  5
10E56
  8
0
 10
4410.0372386189410463
 20
103.7933887919828067
 30
0.0
 40
0.0512502953381661
 50
269.3358841762549787
 51
296.6861740794620914
  0
ARC
  5
10E57
  8
0
 10
4410.045661785115044
 20
103.7727642385990947
 30
0.0
 40
0.0290916814447068
 50
300.108481386085316
 51
327.7714577451324089
  0
ARC
  5
10E58
  8
0
 10
4410.0475141756460289
 20
103.7718571447616966
 30
0.0
 40
0.0270418413832885
 50
327.3041763276522147
 51
353.3253365865542719
  0
ARC
  5
10E59
  8
0
 10
4410.4788776836549005
 20
103.7332933519054023
 30
0.0
 40
0.0282183560227479
 50
180.2712852488299973
 51
233.3683197822919055
  0
ARC
  5
10E5A
  8
0
 10
4410.557185300232959
 20
103.7290360687429995
 30
0.0
 40
0.0278049349948528
 50
312.6419775520211033
 51
0.0144844035953464
  0
ARC
  5
10E5B
  8
0
 10
4410.4836707985978137
 20
103.7409980803194003
 30
0.0
 40
0.0372687697543092
 50
234.5225829889955946
 51
261.4705106509612165
  0
ARC
  5
10E5C
  8
0
 10
4410.5277343238185495
 20
104.0014664902480064
 30
0.0
 40
0.3014322884639223
 50
260.5307390713434188
 51
267.8561776488791111
  0
ARC
  5
10E5D
  8
0
 10
4410.5367647996263258
 20
104.0551102780519983
 30
0.0
 40
0.3554456202549503
 50
266.7249322886497112
 51
272.0982148404610825
  0
ARC
  5
10E5E
  8
0
 10
4410.5512618168559129
 20
103.7394285256085027
 30
0.0
 40
0.0395533742288097
 50
267.8509230980711209
 51
308.7529357037818727
  0
LINE
  5
10E5F
  8
0
 10
4410.4506596439396162
 20
103.7331597435454
 30
0.0
 11
4410.4506255114210944
 21
103.757182332290796
 31
0.0
  0
LINE
  5
10E60
  8
0
 10
4410.5849902343388749
 20
103.7290430978454054
 30
0.0
 11
4410.5849902343388749
 21
103.746259647715604
 31
0.0
  0
ARC
  5
10E61
  8
0
 10
4410.6137365626109386
 20
103.7459946175698065
 30
0.0
 40
0.0287475499834355
 50
164.090777244777712
 51
179.4717698058707924
  0
ARC
  5
10E62
  8
0
 10
4410.9950634004471794
 20
103.7114492812862068
 30
0.0
 40
0.0281432548484602
 50
177.8058941525644912
 51
251.1052964298455947
  0
ARC
  5
10E63
  8
0
 10
4411.0539610143368918
 20
104.4280948030126979
 30
0.0
 40
0.7479734171470414
 50
266.1941376895808276
 51
268.4746491383921239
  0
ARC
  5
10E64
  8
0
 10
4411.0082179964292663
 20
103.7620467275577028
 30
0.0
 40
0.0803707191181121
 50
253.9146561073204111
 51
267.2154394247182267
  0
ARC
  5
10E65
  8
0
 10
4410.9394528781213012
 20
103.7328035060112938
 30
0.0
 40
0.0274879257423025
 50
359.9222263608691037
 51
31.1508176052103209
  0
LINE
  5
10E66
  8
0
 10
4410.9669407785386284
 20
103.7327661937454053
 30
0.0
 11
4410.9669407785386284
 21
103.7125267461456986
 31
0.0
  0
ARC
  5
10E67
  8
0
 10
4411.0732654220973927
 20
103.7095045040089047
 30
0.0
 40
0.028010383132826
 50
289.9049292040285764
 51
357.8718014394592046
  0
ARC
  5
10E68
  8
0
 10
4411.0478108831812278
 20
104.2474686925247056
 30
0.0
 40
0.5672491828524976
 50
268.6099796373258073
 51
271.3884565611837161
  0
ARC
  5
10E69
  8
0
 10
4411.0630564429957303
 20
103.7514582620765964
 30
0.0
 40
0.0710880449336644
 50
268.7903893685203229
 51
286.1265524982173929
  0
ARC
  5
10E6A
  8
0
 10
4411.1286335797813081
 20
103.728375721704893
 30
0.0
 40
0.0273606773662714
 50
141.7464757792787964
 51
178.4497002973112103
  0
LINE
  5
10E6B
  8
0
 10
4411.1012829175397201
 20
103.7291159520455039
 30
0.0
 11
4411.1012564847396789
 21
103.708464323545698
 31
0.0
  0
ARC
  5
10E6C
  8
0
 10
4410.7876602534652193
 20
103.7553518729153978
 30
0.0
 40
0.0278176425346246
 50
190.5101852551356103
 51
217.723686587338193
  0
ARC
  5
10E6D
  8
0
 10
4410.7909535840626631
 20
103.758474777827999
 30
0.0
 40
0.0323365350299755
 50
218.5300655938839043
 51
252.4051595777918919
  0
ARC
  5
10E6E
  8
0
 10
4410.8217685189811164
 20
103.8741964713193937
 30
0.0
 40
0.1520628132073826
 50
254.5184804982158937
 51
267.5577148069606892
  0
ARC
  5
10E6F
  8
0
 10
4410.8569535720362182
 20
103.7561163628030982
 30
0.0
 40
0.0370679377145527
 50
325.7294692614618725
 51
347.497692234332817
  0
ARC
  5
10E70
  8
0
 10
4410.8401610201208314
 20
104.0676568733299945
 30
0.0
 40
0.3462795028131516
 50
265.8810463554755756
 51
270.7266915434220209
  0
ARC
  5
10E71
  8
0
 10
4410.8470140617973811
 20
103.8254688653004933
 30
0.0
 40
0.1040927451683993
 50
268.64513258823672
 51
283.0495890372677081
  0
ARC
  5
10E72
  8
0
 10
4410.863226865298202
 20
103.7538158179826979
 30
0.0
 40
0.0306317953392335
 50
283.769252085956623
 51
322.6766273650865173
  0
ARC
  5
10E73
  8
0
 10
4411.2588552942761453
 20
103.7361239874760059
 30
0.0
 40
0.0285119222621487
 50
180.3467135254147991
 51
225.1968942394244095
  0
ARC
  5
10E74
  8
0
 10
4411.3356507253511154
 20
103.7350236023403056
 30
0.0
 40
0.0281170074647773
 50
316.5627951008667083
 51
359.1792889318865036
  0
ARC
  5
10E75
  8
0
 10
4411.2608242113428787
 20
103.7387199465018028
 30
0.0
 40
0.031744225302121
 50
225.9771683025755067
 51
252.7452806254217137
  0
ARC
  5
10E76
  8
0
 10
4411.3326341661140759
 20
103.7385591001443998
 30
0.0
 40
0.0327419948276608
 50
278.2056017769248797
 51
315.6997693418932727
  0
ARC
  5
10E77
  8
0
 10
4411.2825729917913122
 20
103.8281254394738937
 30
0.0
 40
0.1237156486283096
 50
255.4450682669200887
 51
267.6402977640972836
  0
ARC
  5
10E78
  8
0
 10
4411.3013223617699623
 20
104.089561586104395
 30
0.0
 40
0.3857843960599854
 50
266.4566204471038873
 51
269.5542807620295775
  0
ARC
  5
10E79
  8
0
 10
4411.305277974260207
 20
103.9117622001341061
 30
0.0
 40
0.2080896551167069
 50
268.0841720451866195
 51
278.8542087479173119
  0
LINE
  5
10E7A
  8
0
 10
4411.2303438946391907
 20
103.7442580070653975
 30
0.0
 11
4411.2303438940398337
 21
103.7359514545454005
 31
0.0
  0
LINE
  5
10E7B
  8
0
 10
4411.3637702643400189
 20
103.7435288323528937
 30
0.0
 11
4411.3637648483390876
 21
103.7346208649964012
 31
0.0
  0
ARC
  5
10E7C
  8
0
 10
4411.7083187319840363
 20
105.8879672025202012
 30
0.0
 40
0.4304167890258876
 50
36.3246315390639296
 51
64.9957244070873656
  0
ARC
  5
10E7D
  8
0
 10
4411.5577141287849372
 20
105.567535956569003
 30
0.0
 40
0.7844751567176501
 50
64.91921018038407
 51
90.4902644582042939
  0
ARC
  5
10E7E
  8
0
 10
4415.3703167067524191
 20
117.947967110443102
 30
0.0
 40
12.2617140570466105
 50
254.3136038721146122
 51
258.9127149638579226
  0
ARC
  5
10E7F
  8
0
 10
4413.0134158736536847
 20
104.2610403574634006
 30
0.0
 40
1.5999459383083059
 50
57.3425762965567429
 51
71.7255371231238001
  0
ARC
  5
10E80
  8
0
 10
4412.0552755919579795
 20
101.3411445208089958
 30
0.0
 40
4.6730247017856552
 50
71.7963169810987694
 51
78.1818752885445747
  0
ARC
  5
10E81
  8
0
 10
4413.6362191675179929
 20
105.2336456359516035
 30
0.0
 40
0.4450242444101013
 50
40.2464369069895014
 51
57.2799171435742167
  0
ARC
  5
10E82
  8
0
 10
4413.536621545388698
 20
105.1998659516233943
 30
0.0
 40
0.5442367070706517
 50
16.621255717726811
 51
36.1830566224575776
  0
ARC
  5
10E83
  8
0
 10
4412.0617160872880049
 20
104.948052230792797
 30
0.0
 40
2.046245499600551
 50
358.9575380784696108
 51
5.3315626232816697
  0
ARC
  5
10E84
  8
0
 10
4413.1317699711471505
 20
105.0682997597452015
 30
0.0
 40
0.9698601863938032
 50
4.1322926568596481
 51
17.2276021685807095
  0
ARC
  5
10E85
  8
0
 10
4412.8920382933465589
 20
104.9262776863440934
 30
0.0
 40
1.215682838473092
 50
346.0346598457832101
 51
359.2716441748136162
  0
ARC
  5
10E86
  8
0
 10
4413.5973025852135834
 20
104.7475874783716989
 30
0.0
 40
0.4881511533251723
 50
326.8500397999853249
 51
346.4106766977322991
  0
ARC
  5
10E87
  8
0
 10
26376.7513200498615333
 20
-482.4138933587753968
 30
0.0
 40
21970.4954081854994001
 50
178.4682510002369042
 51
178.4694803102038918
  0
ARC
  5
10E88
  8
0
 10
4412.8022746583310436
 20
104.4320914095439008
 30
0.0
 40
1.2921148288175961
 50
346.3065526278493849
 51
358.8225666605218862
  0
ARC
  5
10E89
  8
0
 10
4413.6713760363800247
 20
104.2191175099356002
 30
0.0
 40
0.3973016894586581
 50
339.9437012721703013
 51
346.4768071584908853
  0
ARC
  5
10E8A
  8
0
 10
4413.5694556125918098
 20
104.2415424383897005
 30
0.0
 40
0.5009242963761649
 50
325.9907869976021857
 51
341.532408474575675
  0
ARC
  5
10E8B
  8
0
 10
4413.7545891652252976
 20
104.1157237386737933
 30
0.0
 40
0.277085585388157
 50
303.2438487469884194
 51
326.14526591852308
  0
ARC
  5
10E8C
  8
0
 10
4413.7149759772282778
 20
104.1773478836563953
 30
0.0
 40
0.3503413251457565
 50
290.2437009947714159
 51
303.1371736629209863
  0
ARC
  5
10E8D
  8
0
 10
4413.5464800221825499
 20
104.7054051571036979
 30
0.0
 40
0.9044174821098492
 50
275.3833601306034211
 51
288.6833428445937102
  0
ARC
  5
10E8E
  8
0
 10
4412.9102261718044247
 20
111.0802594936096028
 30
0.0
 40
7.3109322962286569
 50
271.9671549282859928
 51
275.6605081414401184
  0
ARC
  5
10E8F
  8
0
 10
4411.5803447362659426
 20
144.8474278110921887
 30
0.0
 40
41.1042023567091022
 50
269.9590912617072718
 51
272.2041018452731009
  0
ARC
  5
10E90
  8
0
 10
4413.7534552549368527
 20
104.6575115594615966
 30
0.0
 40
0.3083605301541815
 50
286.0286363780338093
 51
324.9860110023756761
  0
ARC
  5
10E91
  8
0
 10
4411.5917623719205949
 20
175.5175830901025904
 30
0.0
 40
71.2401158533733962
 50
269.9672450357476237
 51
270.8668098726919879
  0
ARC
  5
10E92
  8
0
 10
4412.3838100485809264
 20
126.4719481126110026
 30
0.0
 40
22.1881676099747196
 50
270.737723984592094
 51
272.6712341248500024
  0
ARC
  5
10E93
  8
0
 10
4413.3806752008749754
 20
106.290518528940197
 30
0.0
 40
1.9829775547665831
 50
271.0752923517076738
 51
283.3516784729075084
  0
ARC
  5
10E94
  8
0
 10
4413.1349383864444462
 20
103.7786893010486011
 30
0.0
 40
0.0267291988309155
 50
329.9413529531248059
 51
349.1017993782623989
  0
ARC
  5
10E95
  8
0
 10
4413.1311734746368529
 20
103.7807815798528992
 30
0.0
 40
0.0310358634672352
 50
295.0342621798645268
 51
330.0796224764657154
  0
ARC
  5
10E96
  8
0
 10
4413.1081163448061488
 20
103.8376087592451
 30
0.0
 40
0.0923760574013561
 50
277.771811139118995
 51
293.0780590337864737
  0
ARC
  5
10E97
  8
0
 10
4413.0732930649883201
 20
104.0319064572183976
 30
0.0
 40
0.2897150067929453
 50
274.6794551707728829
 51
279.3994263085039051
  0
ARC
  5
10E98
  8
0
 10
4413.0728494969444
 20
104.0115131873797054
 30
0.0
 40
0.2694341297297582
 50
268.4140386734704862
 51
275.1272576727305932
  0
ARC
  5
10E99
  8
0
 10
4413.0647956567381698
 20
103.7933887919828067
 30
0.0
 40
0.0512502953381661
 50
243.3138259205379086
 51
270.6641158237450213
  0
ARC
  5
10E9A
  8
0
 10
4413.0563724905632625
 20
103.7727642385990947
 30
0.0
 40
0.0290916814447068
 50
212.2285422548675911
 51
239.8915186139147124
  0
ARC
  5
10E9B
  8
0
 10
4413.0545201000331872
 20
103.7718571447616966
 30
0.0
 40
0.0270418413832885
 50
186.674663413445586
 51
212.6958236723478137
  0
ARC
  5
10E9C
  8
0
 10
4412.6231565920234061
 20
103.7332933519054023
 30
0.0
 40
0.0282183560227479
 50
306.6316802177082081
 51
359.7287147511700027
  0
ARC
  5
10E9D
  8
0
 10
4412.5448489754453476
 20
103.7290360687429995
 30
0.0
 40
0.0278049349948528
 50
179.9855155964046105
 51
227.3580224479784135
  0
ARC
  5
10E9E
  8
0
 10
4412.6183634770823119
 20
103.7409980803194003
 30
0.0
 40
0.0372687697543092
 50
278.5294893490387267
 51
305.4774170110043201
  0
ARC
  5
10E9F
  8
0
 10
4412.5742999518597571
 20
104.0014664902480064
 30
0.0
 40
0.3014322884639223
 50
272.1438223511208889
 51
279.4692609286565812
  0
ARC
  5
10EA0
  8
0
 10
4412.5652694760528902
 20
104.0551102780519983
 30
0.0
 40
0.3554456202549503
 50
267.9017851595389175
 51
273.2750677113504025
  0
ARC
  5
10EA1
  8
0
 10
4412.5507724588233032
 20
103.7394285256085027
 30
0.0
 40
0.0395533742288097
 50
231.2470642962180136
 51
272.1490769019288223
  0
LINE
  5
10EA2
  8
0
 10
4412.6513746317395999
 20
103.7331597435454
 30
0.0
 11
4412.6514087642581217
 21
103.757182332290796
 31
0.0
  0
LINE
  5
10EA3
  8
0
 10
4412.5170440413394317
 20
103.7290430978454054
 30
0.0
 11
4412.5170440413394317
 21
103.746259647715604
 31
0.0
  0
ARC
  5
10EA4
  8
0
 10
4412.4882977130682775
 20
103.7459946175698065
 30
0.0
 40
0.0287475499834355
 50
0.5282301941356867
 51
15.9092227552222507
  0
ARC
  5
10EA5
  8
0
 10
4412.1069708752320366
 20
103.7114492812862068
 30
0.0
 40
0.0281432548484602
 50
288.8947035701543768
 51
2.194105847435448
  0
ARC
  5
10EA6
  8
0
 10
4412.0480732613423243
 20
104.4280948030126979
 30
0.0
 40
0.7479734171470414
 50
271.5253508616078761
 51
273.8058623104191724
  0
ARC
  5
10EA7
  8
0
 10
4412.0938162792499497
 20
103.7620467275577028
 30
0.0
 40
0.0803707191181121
 50
272.7845605752817733
 51
286.0853438926795889
  0
ARC
  5
10EA8
  8
0
 10
4412.1625813975579149
 20
103.7328035060112938
 30
0.0
 40
0.0274879257423025
 50
148.8491823947896933
 51
180.0777736391308963
  0
LINE
  5
10EA9
  8
0
 10
4412.1350934971387687
 20
103.7327661937454053
 30
0.0
 11
4412.1350934971387687
 21
103.7125267461456986
 31
0.0
  0
ARC
  5
10EAA
  8
0
 10
4412.0287688535809139
 20
103.7095045040089047
 30
0.0
 40
0.028010383132826
 50
182.1281985605407101
 51
250.0950707959713952
  0
ARC
  5
10EAB
  8
0
 10
4412.0542233924970787
 20
104.2474686925247056
 30
0.0
 40
0.5672491828524976
 50
268.6115434388162839
 51
271.390020362674079
  0
ARC
  5
10EAC
  8
0
 10
4412.0389778326843953
 20
103.7514582620765964
 30
0.0
 40
0.0710880449336644
 50
253.8734475017826071
 51
271.2096106314796771
  0
ARC
  5
10EAD
  8
0
 10
4411.973400695899727
 20
103.728375721704893
 30
0.0
 40
0.0273606773662714
 50
1.5502997026952809
 51
38.2535242207212178
  0
LINE
  5
10EAE
  8
0
 10
4412.0007513581404055
 20
103.7291159520455039
 30
0.0
 11
4412.0007777909386277
 21
103.708464323545698
 31
0.0
  0
ARC
  5
10EAF
  8
0
 10
4412.3143740222139968
 20
103.7553518729153978
 30
0.0
 40
0.0278176425346246
 50
322.2763134126616933
 51
349.4898147448644181
  0
ARC
  5
10EB0
  8
0
 10
4412.311080691614734
 20
103.758474777827999
 30
0.0
 40
0.0323365350299755
 50
287.5948404222079944
 51
321.4699344061161241
  0
ARC
  5
10EB1
  8
0
 10
4412.2802657566980997
 20
103.8741964713193937
 30
0.0
 40
0.1520628132073826
 50
272.4422851930393108
 51
285.4815195017840779
  0
ARC
  5
10EB2
  8
0
 10
4412.2450807036429978
 20
103.7561163628030982
 30
0.0
 40
0.0370679377145527
 50
192.5023077656670978
 51
214.2705307385380991
  0
ARC
  5
10EB3
  8
0
 10
4412.2618732555565657
 20
104.0676568733299945
 30
0.0
 40
0.3462795028131516
 50
269.2733084565779791
 51
274.1189536445244244
  0
ARC
  5
10EB4
  8
0
 10
4412.2550202138818349
 20
103.8254688653004933
 30
0.0
 40
0.1040927451683993
 50
256.9504109627322919
 51
271.35486741176328
  0
ARC
  5
10EB5
  8
0
 10
4412.2388074103801046
 20
103.7538158179826979
 30
0.0
 40
0.0306317953392335
 50
217.3233726349128005
 51
256.230747914043377
  0
ARC
  5
10EB6
  8
0
 10
4411.8431789814030708
 20
103.7361239874760059
 30
0.0
 40
0.0285119222621487
 50
314.8031057605757042
 51
359.6532864745851725
  0
ARC
  5
10EB7
  8
0
 10
4411.7663835503281007
 20
103.7350236023403056
 30
0.0
 40
0.0281170074647773
 50
180.8207110681069025
 51
223.4372048991334054
  0
ARC
  5
10EB8
  8
0
 10
4411.8412100643363374
 20
103.7387199465018028
 30
0.0
 40
0.031744225302121
 50
287.254719374578201
 51
314.022831697424408
  0
ARC
  5
10EB9
  8
0
 10
4411.7694001095660497
 20
103.7385591001443998
 30
0.0
 40
0.0327419948276608
 50
224.3002306581061021
 51
261.7943982230751203
  0
ARC
  5
10EBA
  8
0
 10
4411.8194612838869944
 20
103.8281254394738937
 30
0.0
 40
0.1237156486283096
 50
272.3597022359027164
 51
284.5549317330799113
  0
ARC
  5
10EBB
  8
0
 10
4411.8007119139083443
 20
104.089561586104395
 30
0.0
 40
0.3857843960599854
 50
270.4457192379704225
 51
273.543379552895999
  0
ARC
  5
10EBC
  8
0
 10
4411.7967563014190091
 20
103.9117622001341061
 30
0.0
 40
0.2080896551167069
 50
261.1457912520826881
 51
271.9158279548134942
  0
LINE
  5
10EBD
  8
0
 10
4411.8716903810391159
 20
103.7442580070653975
 30
0.0
 11
4411.8716903816393824
 21
103.7359514545454005
 31
0.0
  0
LINE
  5
10EBE
  8
0
 10
4411.7382640113391972
 20
103.7435288323528937
 30
0.0
 11
4411.738269427339219
 21
103.7346208649964012
 31
0.0
  0
ARC
  5
10EBF
  8
0
 10
4399.8356367375408809
 20
102.0593087079373049
 30
0.0
 40
0.1190438688565817
 50
179.6349900937686073
 51
269.5518009987811183
  0
ARC
  5
10EC0
  8
0
 10
4399.8347055206104415
 20
101.6334339992378943
 30
0.0
 40
0.118110236193961
 50
179.9999621589348919
 51
270.0000000011986003
  0
LINE
  5
10EC1
  8
0
 10
4399.7165952844170533
 20
101.6334340772439049
 30
0.0
 11
4399.7165952844170533
 21
107.4449385694439059
 31
0.0
  0
ARC
  5
10EC2
  8
0
 10
4399.7362738459905813
 20
107.4241262455986003
 30
0.0
 40
0.019678562411452
 50
89.9811395695716669
 51
180.0166788697418099
  0
LINE
  5
10EC3
  8
0
 10
4399.7362738459905813
 20
107.4437733558439021
 30
0.0
 11
4406.822618906412572
 21
107.4436330248439049
 31
0.0
  0
LINE
  5
10EC4
  8
0
 10
4399.7441543395134431
 20
107.4449385694439059
 30
0.0
 11
4399.7441543395134431
 21
107.5039936875438968
 31
0.0
  0
LINE
  5
10EC5
  8
0
 10
4399.7441543395134431
 20
107.5039936875438968
 30
0.0
 11
4415.6333669379127969
 21
107.5039936875438968
 31
0.0
  0
ARC
  5
10EC6
  8
0
 10
4408.3029078828130878
 20
107.4960936875439046
 30
0.0
 40
0.0079
 50
0.0
 51
90.0
  0
ARC
  5
10EC7
  8
0
 10
4407.0746133946131522
 20
107.4960936875439046
 30
0.0
 40
0.0079
 50
90.0
 51
180.0
  0
LINE
  5
10EC8
  8
0
 10
4415.6339181190132877
 20
107.5039936875438968
 30
0.0
 11
4415.6339181190132877
 21
107.4449385694439059
 31
0.0
  0
LINE
  5
10EC9
  8
0
 10
4399.7165952844170533
 20
107.4449385694439059
 30
0.0
 11
4407.0667133946117247
 21
107.4449385694439059
 31
0.0
  0
LINE
  5
10ECA
  8
0
 10
4408.3108078828117868
 20
107.4449385694439059
 30
0.0
 11
4415.6614771741133154
 21
107.4449385694439059
 31
0.0
  0
LINE
  5
10ECB
  8
0
 10
4399.8347055206131699
 20
101.5153237630438952
 30
0.0
 11
4406.7832488277117591
 21
101.5153237630438952
 31
0.0
  0
LINE
  5
10ECC
  8
0
 10
4399.8347055206268124
 20
101.9402684813439066
 30
0.0
 11
4406.7832488277117591
 21
101.9402684813439066
 31
0.0
  0
ARC
  5
10ECD
  8
0
 10
4398.8694428569187949
 20
97.3419328788542941
 30
0.0
 40
0.038952424509067
 50
89.3819911160500453
 51
179.3521788178875056
  0
ARC
  5
10ECE
  8
0
 10
4398.9968659401811237
 20
97.2146763142451107
 30
0.0
 40
0.0777941402413826
 50
89.3004378438059661
 51
179.433732091734413
  0
ARC
  5
10ECF
  8
0
 10
4398.8698630010840134
 20
86.259899199514706
 30
0.0
 40
0.0393700788707268
 50
180.0000001029110877
 51
269.9999997515384962
  0
ARC
  5
10ED0
  8
0
 10
4398.9978157568129973
 20
86.3878519553439617
 30
0.0
 40
0.0787401575000075
 50
180.0000000000065086
 51
270.0
  0
LINE
  5
10ED1
  8
0
 10
4398.830492922213125
 20
86.259899199444007
 30
0.0
 11
4398.830492922213125
 21
97.3423732894438842
 31
0.0
  0
LINE
  5
10ED2
  8
0
 10
4398.8698630009130284
 20
97.3808830374438941
 30
0.0
 11
4406.7832488277117591
 21
97.3808830374438941
 31
0.0
  0
LINE
  5
10ED3
  8
0
 10
4398.9190755993131461
 20
86.3878519553439617
 30
0.0
 11
4398.9190755993131461
 21
97.215445159843938
 31
0.0
  0
LINE
  5
10ED4
  8
0
 10
4398.9978157568129973
 20
97.292464655943931
 30
0.0
 11
4406.7832488277117591
 21
97.292464655943931
 31
0.0
  0
LINE
  5
10ED5
  8
0
 10
4403.7911228434131772
 20
97.1883342971438822
 30
0.0
 11
4406.7832488277117591
 21
97.1883342971438822
 31
0.0
  0
ARC
  5
10ED6
  8
0
 10
4403.7911228434131772
 20
97.1489642184439788
 30
0.0
 40
0.0393700786999933
 50
90.0
 51
180.0000000000065086
  0
LINE
  5
10ED7
  8
0
 10
4403.7517527647132738
 20
97.1489642184439788
 30
0.0
 11
4403.7517527647132738
 21
89.4095054986439379
 31
0.0
  0
ARC
  5
10ED8
  8
0
 10
4403.7911228434131772
 20
89.4095054986439379
 30
0.0
 40
0.0393700786999849
 50
179.9999987925673963
 51
269.9999872894343866
  0
LINE
  5
10ED9
  8
0
 10
4403.7911228434131772
 20
89.3701354198438764
 30
0.0
 11
4411.5863984340130628
 21
89.3701354198438764
 31
0.0
  0
CIRCLE
  5
10EDA
  8
0
 10
4399.24191024501215
 20
93.7008440812439574
 30
0.0
 40
0.1614173228000002
  0
CIRCLE
  5
10EDB
  8
0
 10
4399.24191024501215
 20
93.7008440812439574
 30
0.0
 40
0.1535433070999996
  0
CIRCLE
  5
10EDC
  8
0
 10
4399.24191024501215
 20
93.7008440812439574
 30
0.0
 40
0.0568258138999909
  0
CIRCLE
  5
10EDD
  8
0
 10
4399.24191024501215
 20
94.6258347258438732
 30
0.0
 40
0.1614173228000002
  0
CIRCLE
  5
10EDE
  8
0
 10
4399.24191024501215
 20
94.6258347258438732
 30
0.0
 40
0.1535433070999996
  0
CIRCLE
  5
10EDF
  8
0
 10
4399.24191024501215
 20
94.6258347258438732
 30
0.0
 40
0.0568258138999909
  0
CIRCLE
  5
10EE0
  8
0
 10
4399.24191024501215
 20
96.9364196094439734
 30
0.0
 40
0.1614173228000002
  0
CIRCLE
  5
10EE1
  8
0
 10
4399.24191024501215
 20
96.9364196094439734
 30
0.0
 40
0.1535433070999996
  0
CIRCLE
  5
10EE2
  8
0
 10
4399.24191024501215
 20
96.9364196094439734
 30
0.0
 40
0.0568258138999909
  0
CIRCLE
  5
10EE3
  8
0
 10
4404.7360047332131217
 20
95.9627945191026157
 30
0.0
 40
0.1614173228000002
  0
CIRCLE
  5
10EE4
  8
0
 10
4404.7360047332131217
 20
95.9627945191026157
 30
0.0
 40
0.1535433070999996
  0
CIRCLE
  5
10EE5
  8
0
 10
4404.7360047332131217
 20
95.9627945191026157
 30
0.0
 40
0.0568258138999909
  0
CIRCLE
  5
10EE6
  8
0
 10
4404.7360047332131217
 20
90.9449385694439059
 30
0.0
 40
0.1614173228000002
  0
CIRCLE
  5
10EE7
  8
0
 10
4404.7360047332131217
 20
90.9449385694439059
 30
0.0
 40
0.1535433070999996
  0
CIRCLE
  5
10EE8
  8
0
 10
4404.7360047332131217
 20
90.9449385694439059
 30
0.0
 40
0.0568258138999909
  0
CIRCLE
  5
10EE9
  8
0
 10
4402.9186818985117498
 20
89.7638362072438838
 30
0.0
 40
0.1614173228000002
  0
CIRCLE
  5
10EEA
  8
0
 10
4402.9186818985117498
 20
89.7638362072438838
 30
0.0
 40
0.1535433070999996
  0
CIRCLE
  5
10EEB
  8
0
 10
4402.9186818985117498
 20
89.7638362072438838
 30
0.0
 40
0.0568258138999909
  0
CIRCLE
  5
10EEC
  8
0
 10
4406.4820677253119356
 20
86.6142299080439386
 30
0.0
 40
0.1614173228000002
  0
CIRCLE
  5
10EED
  8
0
 10
4406.4820677253119356
 20
86.6142299080439386
 30
0.0
 40
0.1535433070999996
  0
CIRCLE
  5
10EEE
  8
0
 10
4406.4820677253119356
 20
86.6142299080439386
 30
0.0
 40
0.0568258138999909
  0
CIRCLE
  5
10EEF
  8
0
 10
4404.0686818985132049
 20
86.6142299080439386
 30
0.0
 40
0.1614173228000002
  0
CIRCLE
  5
10EF0
  8
0
 10
4404.0686818985132049
 20
86.6142299080439386
 30
0.0
 40
0.1535433070999996
  0
CIRCLE
  5
10EF1
  8
0
 10
4404.0686818985132049
 20
86.6142299080439386
 30
0.0
 40
0.0568258138999909
  0
CIRCLE
  5
10EF2
  8
0
 10
4401.6552960718126997
 20
86.6142299080439386
 30
0.0
 40
0.1614173228000002
  0
CIRCLE
  5
10EF3
  8
0
 10
4401.6552960718126997
 20
86.6142299080439386
 30
0.0
 40
0.1535433070999996
  0
CIRCLE
  5
10EF4
  8
0
 10
4401.6552960718126997
 20
86.6142299080439386
 30
0.0
 40
0.0568258138999909
  0
CIRCLE
  5
10EF5
  8
0
 10
4399.24191024501215
 20
86.6142299080439386
 30
0.0
 40
0.1614173228000002
  0
CIRCLE
  5
10EF6
  8
0
 10
4399.24191024501215
 20
86.6142299080439386
 30
0.0
 40
0.1535433070999996
  0
CIRCLE
  5
10EF7
  8
0
 10
4399.24191024501215
 20
86.6142299080439386
 30
0.0
 40
0.0568258138999909
  0
CIRCLE
  5
10EF8
  8
0
 10
4399.24191024501215
 20
88.9764346324439686
 30
0.0
 40
0.1614173228000002
  0
CIRCLE
  5
10EF9
  8
0
 10
4399.24191024501215
 20
88.9764346324439686
 30
0.0
 40
0.1535433070999996
  0
CIRCLE
  5
10EFA
  8
0
 10
4399.24191024501215
 20
88.9764346324439686
 30
0.0
 40
0.0568258138999909
  0
CIRCLE
  5
10EFB
  8
0
 10
4399.24191024501215
 20
91.3386393568439132
 30
0.0
 40
0.1614173228000002
  0
CIRCLE
  5
10EFC
  8
0
 10
4399.24191024501215
 20
91.3386393568439132
 30
0.0
 40
0.1535433070999996
  0
CIRCLE
  5
10EFD
  8
0
 10
4399.24191024501215
 20
91.3386393568439132
 30
0.0
 40
0.0568258138999909
  0
CIRCLE
  5
10EFE
  8
0
 10
4401.6552960718126997
 20
93.7008440812439574
 30
0.0
 40
0.1614173228000002
  0
CIRCLE
  5
10EFF
  8
0
 10
4401.6552960718126997
 20
93.7008440812439574
 30
0.0
 40
0.1535433070999996
  0
CIRCLE
  5
10F00
  8
0
 10
4401.6552960718126997
 20
93.7008440812439574
 30
0.0
 40
0.0568258138999909
  0
LINE
  5
10F01
  8
0
 10
4398.9978157568129973
 20
86.3091117978438831
 30
0.0
 11
4416.3797055206132427
 21
86.3091117978438831
 31
0.0
  0
LINE
  5
10F02
  8
0
 10
4416.5076582765132116
 20
86.2205291206439313
 30
0.0
 11
4398.8698630010840134
 21
86.2205291206439313
 31
0.0
  0
LINE
  5
10F03
  8
0
 10
4406.7832488277117591
 20
91.4016314828439533
 30
0.0
 11
4406.7832488277117591
 21
106.204781089143907
 31
0.0
  0
LINE
  5
10F04
  8
0
 10
4406.7832488277117591
 20
106.204781089143907
 30
0.0
 11
4408.5942724497126619
 21
106.204781089143907
 31
0.0
  0
ARC
  5
10F05
  8
0
 10
4416.5080784203382791
 20
97.3419328786827407
 30
0.0
 40
0.0389524246798795
 50
0.6478214316385822
 51
90.6180087799319267
  0
ARC
  5
10F06
  8
0
 10
4416.3806553371450718
 20
97.2146763142451107
 30
0.0
 40
0.0777941402413826
 50
0.5662679082656272
 51
90.6995621561940339
  0
ARC
  5
10F07
  8
0
 10
4416.5076582761712416
 20
86.2598991996853499
 30
0.0
 40
0.0393700790414329
 50
270.0000003513790716
 51
359.9999997515645873
  0
ARC
  5
10F08
  8
0
 10
4416.3797055205131983
 20
86.3878519553439617
 30
0.0
 40
0.0787401575000075
 50
270.0
 51
359.9999999999935199
  0
LINE
  5
10F09
  8
0
 10
4416.547028355213115
 20
86.259899199514706
 30
0.0
 11
4416.547028355213115
 21
97.3423732894438842
 31
0.0
  0
LINE
  5
10F0A
  8
0
 10
4416.5076582764131672
 20
97.3808830374438941
 30
0.0
 11
4408.594272449611708
 21
97.3808830374438941
 31
0.0
  0
LINE
  5
10F0B
  8
0
 10
4416.4584456780130495
 20
86.3878519553439617
 30
0.0
 11
4416.4584456780130495
 21
97.215445159843938
 31
0.0
  0
LINE
  5
10F0C
  8
0
 10
4416.3797055205131983
 20
97.292464655943931
 30
0.0
 11
4408.594272449611708
 21
97.292464655943931
 31
0.0
  0
LINE
  5
10F0D
  8
0
 10
4411.5863984339130184
 20
97.1883342971438822
 30
0.0
 11
4408.594272449611708
 21
97.1883342971438822
 31
0.0
  0
ARC
  5
10F0E
  8
0
 10
4411.5863984339130184
 20
97.1489642184439788
 30
0.0
 40
0.0393700786999933
 50
359.9999999999869829
 51
90.0
  0
LINE
  5
10F0F
  8
0
 10
4411.6257685126129218
 20
97.1489642184439788
 30
0.0
 11
4411.6257685126129218
 21
89.4095054986439379
 31
0.0
  0
ARC
  5
10F10
  8
0
 10
4411.5863984339130184
 20
89.4095054986439379
 30
0.0
 40
0.0393700786999849
 50
270.0000127105654997
 51
0.0000012074325997
  0
CIRCLE
  5
10F11
  8
0
 10
4416.1356110323131361
 20
93.7008440812439574
 30
0.0
 40
0.1614173228000002
  0
CIRCLE
  5
10F12
  8
0
 10
4416.1356110323131361
 20
93.7008440812439574
 30
0.0
 40
0.1535433070999996
  0
CIRCLE
  5
10F13
  8
0
 10
4416.1356110323131361
 20
93.7008440812439574
 30
0.0
 40
0.0568258138999909
  0
CIRCLE
  5
10F14
  8
0
 10
4416.1356110323131361
 20
94.6258347258438732
 30
0.0
 40
0.1614173228000002
  0
CIRCLE
  5
10F15
  8
0
 10
4416.1356110323131361
 20
94.6258347258438732
 30
0.0
 40
0.1535433070999996
  0
CIRCLE
  5
10F16
  8
0
 10
4416.1356110323131361
 20
94.6258347258438732
 30
0.0
 40
0.0568258138999909
  0
CIRCLE
  5
10F17
  8
0
 10
4416.1356110323131361
 20
96.9364196094439734
 30
0.0
 40
0.1614173228000002
  0
CIRCLE
  5
10F18
  8
0
 10
4416.1356110323131361
 20
96.9364196094439734
 30
0.0
 40
0.1535433070999996
  0
CIRCLE
  5
10F19
  8
0
 10
4416.1356110323131361
 20
96.9364196094439734
 30
0.0
 40
0.0568258138999909
  0
CIRCLE
  5
10F1A
  8
0
 10
4410.6415165441130739
 20
95.9627945191026157
 30
0.0
 40
0.1614173228000002
  0
CIRCLE
  5
10F1B
  8
0
 10
4410.6415165441130739
 20
95.9627945191026157
 30
0.0
 40
0.1535433070999996
  0
CIRCLE
  5
10F1C
  8
0
 10
4410.6415165441130739
 20
95.9627945191026157
 30
0.0
 40
0.0568258138999909
  0
CIRCLE
  5
10F1D
  8
0
 10
4410.6415165441130739
 20
90.9449385694439059
 30
0.0
 40
0.1614173228000002
  0
CIRCLE
  5
10F1E
  8
0
 10
4410.6415165441130739
 20
90.9449385694439059
 30
0.0
 40
0.1535433070999996
  0
CIRCLE
  5
10F1F
  8
0
 10
4410.6415165441130739
 20
90.9449385694439059
 30
0.0
 40
0.0568258138999909
  0
CIRCLE
  5
10F20
  8
0
 10
4412.4588393788126268
 20
89.7638362072438838
 30
0.0
 40
0.1614173228000002
  0
CIRCLE
  5
10F21
  8
0
 10
4412.4588393788126268
 20
89.7638362072438838
 30
0.0
 40
0.1535433070999996
  0
CIRCLE
  5
10F22
  8
0
 10
4412.4588393788126268
 20
89.7638362072438838
 30
0.0
 40
0.0568258138999909
  0
CIRCLE
  5
10F23
  8
0
 10
4411.3088393788129906
 20
86.6142299080439386
 30
0.0
 40
0.1614173228000002
  0
CIRCLE
  5
10F24
  8
0
 10
4411.3088393788129906
 20
86.6142299080439386
 30
0.0
 40
0.1535433070999996
  0
CIRCLE
  5
10F25
  8
0
 10
4411.3088393788129906
 20
86.6142299080439386
 30
0.0
 40
0.0568258138999909
  0
CIRCLE
  5
10F26
  8
0
 10
4413.7222252055125864
 20
86.6142299080439386
 30
0.0
 40
0.1614173228000002
  0
CIRCLE
  5
10F27
  8
0
 10
4413.7222252055125864
 20
86.6142299080439386
 30
0.0
 40
0.1535433070999996
  0
CIRCLE
  5
10F28
  8
0
 10
4413.7222252055125864
 20
86.6142299080439386
 30
0.0
 40
0.0568258138999909
  0
CIRCLE
  5
10F29
  8
0
 10
4416.1356110323131361
 20
86.6142299080439386
 30
0.0
 40
0.1614173228000002
  0
CIRCLE
  5
10F2A
  8
0
 10
4416.1356110323131361
 20
86.6142299080439386
 30
0.0
 40
0.1535433070999996
  0
CIRCLE
  5
10F2B
  8
0
 10
4416.1356110323131361
 20
86.6142299080439386
 30
0.0
 40
0.0568258138999909
  0
CIRCLE
  5
10F2C
  8
0
 10
4416.1356110323131361
 20
88.9764346324439686
 30
0.0
 40
0.1614173228000002
  0
CIRCLE
  5
10F2D
  8
0
 10
4416.1356110323131361
 20
88.9764346324439686
 30
0.0
 40
0.1535433070999996
  0
CIRCLE
  5
10F2E
  8
0
 10
4416.1356110323131361
 20
88.9764346324439686
 30
0.0
 40
0.0568258138999909
  0
CIRCLE
  5
10F2F
  8
0
 10
4416.1356110323131361
 20
91.3386393568439132
 30
0.0
 40
0.1614173228000002
  0
CIRCLE
  5
10F30
  8
0
 10
4416.1356110323131361
 20
91.3386393568439132
 30
0.0
 40
0.1535433070999996
  0
CIRCLE
  5
10F31
  8
0
 10
4416.1356110323131361
 20
91.3386393568439132
 30
0.0
 40
0.0568258138999909
  0
CIRCLE
  5
10F32
  8
0
 10
4413.7222252055125864
 20
93.7008440812439574
 30
0.0
 40
0.1614173228000002
  0
CIRCLE
  5
10F33
  8
0
 10
4413.7222252055125864
 20
93.7008440812439574
 30
0.0
 40
0.1535433070999996
  0
CIRCLE
  5
10F34
  8
0
 10
4413.7222252055125864
 20
93.7008440812439574
 30
0.0
 40
0.0568258138999909
  0
LINE
  5
10F35
  8
0
 10
4406.7832488277117591
 20
91.4016314828439533
 30
0.0
 11
4408.5942724497126619
 21
91.4016314828439533
 31
0.0
  0
LINE
  5
10F36
  8
0
 10
4408.5942724497126619
 20
91.4016314828439533
 30
0.0
 11
4408.5942724497126619
 21
106.204781089143907
 31
0.0
  0
ARC
  5
10F37
  8
0
 10
4415.5424238102923482
 20
101.6343802414047985
 30
0.0
 40
0.1190571235239183
 50
270.1886230849030994
 51
359.5446575455185894
  0
LINE
  5
10F38
  8
0
 10
4415.6614771741096774
 20
101.633434077609607
 30
0.0
 11
4415.6614771741096774
 21
105.5039344593602948
 31
0.0
  0
LINE
  5
10F39
  8
0
 10
4415.6614771741105869
 20
106.1194646660443937
 30
0.0
 11
4415.6614771741133154
 21
107.4449385694439059
 31
0.0
  0
ARC
  5
10F3A
  8
0
 10
4415.6386309357385471
 20
107.4221571463332054
 30
0.0
 40
0.0229304477229673
 50
4.9118434452655677
 51
83.4642437037410048
  0
LINE
  5
10F3B
  8
0
 10
4415.6333669379127969
 20
107.4449385694439059
 30
0.0
 11
4415.6333669379127969
 21
107.5039936875438968
 31
0.0
  0
LINE
  5
10F3C
  8
0
 10
4408.5942724497126619
 20
101.5153237630438952
 30
0.0
 11
4410.6614771741133154
 21
101.5153237630438952
 31
0.0
  0
ARC
  5
10F3D
  8
0
 10
4410.6614757013066992
 20
101.5350102752492063
 30
0.0
 40
0.0196865122604818
 50
270.0042864643413054
 51
359.9957135356586946
  0
ARC
  5
10F3E
  8
0
 10
4415.9055716623615808
 20
104.328303762063598
 30
0.0
 40
0.019685039351419
 50
359.9999999425028818
 51
88.5000000177859931
  0
ARC
  5
10F3F
  8
0
 10
4415.9919102450840001
 20
104.346513372473197
 30
0.0
 40
0.0078740158707085
 50
90.0000005145361968
 51
179.9999987577837999
  0
ARC
  5
10F40
  8
0
 10
4415.6810376557823474
 20
104.3732789421114973
 30
0.0
 40
0.0193974670327564
 50
179.1588740420382067
 51
268.8457734934848986
  0
LINE
  5
10F41
  8
0
 10
4415.6806469192133591
 20
104.3538854109163054
 30
0.0
 11
4415.9060869565682879
 21
104.3479820558450939
 31
0.0
  0
LINE
  5
10F42
  8
0
 10
4415.9252567017119873
 20
104.3283037620440012
 30
0.0
 11
4415.9252567017119873
 21
102.4119670777438955
 31
0.0
  0
LINE
  5
10F43
  8
0
 10
4415.9840362292143254
 20
102.3937574671438995
 30
0.0
 11
4415.9840362292143254
 21
104.346513372473197
 31
0.0
  0
LINE
  5
10F44
  8
0
 10
4415.9252567017119873
 20
104.263836207243898
 30
0.0
 11
4415.9840362290133271
 21
104.263836207243898
 31
0.0
  0
LINE
  5
10F45
  8
0
 10
4415.9919102450840001
 20
104.3543873883438948
 30
0.0
 11
4417.2832488280118923
 21
104.3543873883438948
 31
0.0
  0
ARC
  5
10F46
  8
0
 10
4417.2832488282201666
 20
104.3150173101448956
 30
0.0
 40
0.0393700781989656
 50
359.9989587221791112
 51
90.0000003020307702
  0
ARC
  5
10F47
  8
0
 10
4415.9055716623615808
 20
102.411968012524099
 30
0.0
 40
0.019685039351419
 50
271.4999999822139785
 51
0.0000000574905869
  0
ARC
  5
10F48
  8
0
 10
4415.9919102450840001
 20
102.3937584021146989
 30
0.0
 40
0.0078740158707085
 50
180.0000012422160864
 51
269.9999994854637748
  0
ARC
  5
10F49
  8
0
 10
4415.6810376557823474
 20
102.3669928324761997
 30
0.0
 40
0.0193974670327564
 50
91.1542265065151298
 51
180.8411259579617081
  0
LINE
  5
10F4A
  8
0
 10
4415.6806469192133591
 20
102.3863863636714058
 30
0.0
 11
4415.9060869565682879
 21
102.3922897187427026
 31
0.0
  0
LINE
  5
10F4B
  8
0
 10
4415.9252567017119873
 20
102.4764355673438985
 30
0.0
 11
4415.9840362290133271
 21
102.4764355673438985
 31
0.0
  0
LINE
  5
10F4C
  8
0
 10
4415.9919102450840001
 20
102.3858843862438022
 30
0.0
 11
4417.2832488280118923
 21
102.3858843862438022
 31
0.0
  0
ARC
  5
10F4D
  8
0
 10
4417.2832488282201666
 20
102.4252544644429008
 30
0.0
 40
0.0393700781989656
 50
269.9999996979693151
 51
0.0010412778209689
  0
LINE
  5
10F4E
  8
0
 10
4417.322618906412572
 20
102.4252551799439033
 30
0.0
 11
4417.322618906412572
 21
104.3150165946438932
 31
0.0
  0
LINE
  5
10F4F
  8
0
 10
4415.5039968592127479
 20
101.9473121082439064
 30
0.0
 11
4415.5039968592127479
 21
101.5368592782438952
 31
0.0
  0
ARC
  5
10F50
  8
0
 10
4415.5237348952559842
 20
101.5351367479023992
 30
0.0
 40
0.0198130557375088
 50
175.0124567965276015
 51
269.8467428029009056
  0
LINE
  5
10F51
  8
0
 10
4415.5236818985131322
 20
101.5153237630438952
 30
0.0
 11
4415.54281575681307
 21
101.5153237630438952
 31
0.0
  0
CIRCLE
  5
10F52
  8
0
 10
4408.8954535521133948
 20
86.6142299080439386
 30
0.0
 40
0.1614173228000002
  0
CIRCLE
  5
10F53
  8
0
 10
4408.8954535521133948
 20
86.6142299080439386
 30
0.0
 40
0.1535433070999996
  0
CIRCLE
  5
10F54
  8
0
 10
4408.8954535521133948
 20
86.6142299080439386
 30
0.0
 40
0.0568258138999909
  0
LINE
  5
10F55
  8
0
 10
4410.6811622135128346
 20
101.5350088024438975
 30
0.0
 11
4410.6811622135128346
 21
101.9473121082439064
 31
0.0
  0
ARC
  5
10F56
  8
0
 10
4414.2764355134477228
 20
101.5250425707559003
 30
0.0
 40
0.0059405899236487
 50
270.1611994919451831
 51
357.9927436751481764
  0
ARC
  5
10F57
  8
0
 10
4414.310466237543551
 20
101.5251874786956989
 30
0.0
 40
0.0060881464351373
 50
182.642705765772206
 51
268.2625206902625905
  0
ARC
  5
10F58
  8
0
 10
4415.477219988259094
 20
101.5250522808762952
 30
0.0
 40
0.0059496049720413
 50
270.1903674223710823
 51
359.2611795046790917
  0
LINE
  5
10F59
  8
0
 10
4413.082669492488094
 20
101.6292635374439044
 30
0.0
 11
4413.1024895481878048
 21
101.6292635354792964
 31
0.0
  0
LINE
  5
10F5A
  8
0
 10
4411.8818820909118585
 20
101.6292635374439044
 30
0.0
 11
4411.9017021466142978
 21
101.6292635374439044
 31
0.0
  0
ARC
  5
10F5B
  8
0
 10
4410.6999439754390551
 20
101.6102810527433036
 30
0.0
 40
0.0190024211267562
 50
87.3503268021428454
 51
171.2599730158605951
  0
LINE
  5
10F5C
  8
0
 10
4410.7020516594129731
 20
101.5270159293439036
 30
0.0
 11
4410.7020516594129731
 21
101.9473121082439064
 31
0.0
  0
ARC
  5
10F5D
  8
0
 10
4406.6064249583050696
 20
106.3737279452016935
 30
0.0
 40
0.0196799222074967
 50
89.9851015632020648
 51
180.0061711345053936
  0
ARC
  5
10F5E
  8
0
 10
4406.7751377002532536
 20
106.2170157298669011
 30
0.0
 40
0.0193654922753162
 50
89.6056446156438113
 51
180.9460310553128011
  0
ARC
  5
10F5F
  8
0
 10
4406.7752700567898501
 20
105.4054637352171966
 30
0.0
 40
0.0196838950932656
 50
179.9980497403726929
 51
270.0025836855987222
  0
ARC
  5
10F60
  8
0
 10
4406.6064249584769641
 20
105.2484326584568066
 30
0.0
 40
0.0196799223781424
 50
179.9938290712973128
 51
270.014897939822788
  0
LINE
  5
10F61
  8
0
 10
4406.6064300756133889
 20
105.2287497386438986
 30
0.0
 11
4406.7832488277117591
 21
105.2287527367439992
 31
0.0
  0
LINE
  5
10F62
  8
0
 10
4406.5867450362129603
 20
105.2484347780439009
 30
0.0
 11
4406.5867450362129603
 21
106.3737258255439002
 31
0.0
  0
LINE
  5
10F63
  8
0
 10
4406.6064300756133889
 20
106.3934078667438996
 30
0.0
 11
4406.822618906412572
 21
106.3934078667438996
 31
0.0
  0
LINE
  5
10F64
  8
0
 10
4406.7555861617092887
 20
105.4054644052264962
 30
0.0
 11
4406.7557748476756387
 21
106.2166959938438993
 31
0.0
  0
LINE
  5
10F65
  8
0
 10
4406.7752709880087423
 20
106.2363807634439041
 30
0.0
 11
4407.2045086702992194
 21
106.2363807634439041
 31
0.0
  0
ARC
  5
10F66
  8
0
 10
4410.6610204812131997
 20
106.1943239615440007
 30
0.0
 40
0.0393700787000118
 50
90.0
 51
180.0000004886894942
  0
ARC
  5
10F67
  8
0
 10
4410.6626647202956519
 20
108.7864484431971022
 30
0.0
 40
2.5530331771624319
 50
270.8465800061960067
 51
285.4674628141165158
  0
LINE
  5
10F68
  8
0
 10
4410.6610204812131997
 20
106.2336940402438046
 30
0.0
 11
4410.7003859664046104
 21
106.233693948286998
 31
0.0
  0
ARC
  5
10F69
  8
0
 10
4410.5549040476316804
 20
106.2142755811179029
 30
0.0
 40
0.0196833627322078
 50
0.0041495261337262
 51
90.0048805965335958
  0
LINE
  5
10F6A
  8
0
 10
4410.5745874103131428
 20
106.2142770066439965
 30
0.0
 11
4410.5745874103131428
 21
106.0203637182392953
 31
0.0
  0
LINE
  5
10F6B
  8
0
 10
4410.5759259930127882
 20
106.0206828404538015
 30
0.0
 11
4410.5759259930127882
 21
106.1911590419439051
 31
0.0
  0
LINE
  5
10F6C
  8
0
 10
4410.5759259930127882
 20
106.1911590419439051
 30
0.0
 11
4410.5959259930132248
 21
106.1911590419439051
 31
0.0
  0
LINE
  5
10F6D
  8
0
 10
4410.5959259930132248
 20
106.1911590419439051
 30
0.0
 11
4410.5959259930132248
 21
106.0254698166639002
 31
0.0
  0
LINE
  5
10F6E
  8
0
 10
4410.5745874103131428
 20
106.076159041943896
 30
0.0
 11
4410.5759259930127882
 21
106.076159041943896
 31
0.0
  0
LINE
  5
10F6F
  8
0
 10
4410.5745874103131428
 20
106.1161590419440017
 30
0.0
 11
4410.5759259930127882
 21
106.1161590419440017
 31
0.0
  0
LINE
  5
10F70
  8
0
 10
4410.6216504025132963
 20
106.1943239612080987
 30
0.0
 11
4410.6216504025132963
 21
106.0316791047705038
 31
0.0
  0
LINE
  5
10F71
  8
0
 10
4410.5959259930132248
 20
106.0961590419438068
 30
0.0
 11
4410.6216504025132963
 21
106.0961590419438068
 31
0.0
  0
LINE
  5
10F72
  8
0
 10
4410.5549040476316804
 20
106.233958943850098
 30
0.0
 11
4408.8695014080130932
 21
106.233958943850098
 31
0.0
  0
ARC
  5
10F73
  8
0
 10
4408.8697233448792758
 20
106.3129060387317963
 30
0.0
 40
0.0789474068366928
 50
180.158812257166602
 51
269.838929953501804
  0
ARC
  5
10F74
  8
0
 10
4408.7710984368250138
 20
106.3737330604568001
 30
0.0
 40
0.0196748076173502
 50
359.9789309256502747
 51
90.0210693654438927
  0
LINE
  5
10F75
  8
0
 10
4408.7907762412141892
 20
106.3737258255439002
 30
0.0
 11
4408.7907762413133241
 21
106.312687212843997
 31
0.0
  0
LINE
  5
10F76
  8
0
 10
4408.5549023710127585
 20
106.3934078667438996
 30
0.0
 11
4408.7710912018119416
 21
106.3934108649439025
 31
0.0
  0
ARC
  5
10F77
  8
0
 10
4408.3029338669412027
 20
106.2913952625145981
 30
0.0
 40
0.0078740158707014
 50
270.0000005144840998
 51
359.999998757881599
  0
ARC
  5
10F78
  8
0
 10
4407.0745874103122333
 20
106.2913952623438973
 30
0.0
 40
0.0078740156999992
 50
180.000000000052097
 51
270.0
  0
LINE
  5
10F79
  8
0
 10
4407.0667133946117247
 20
106.2913952623438973
 30
0.0
 11
4407.0667133946117247
 21
107.4960936875439046
 31
0.0
  0
LINE
  5
10F7A
  8
0
 10
4408.3108078828117868
 20
107.4960936875439046
 30
0.0
 11
4408.3108078828117868
 21
106.2913952623486011
 31
0.0
  0
LINE
  5
10F7B
  8
0
 10
4408.3029338669412027
 20
106.2835212466439003
 30
0.0
 11
4407.0745874103122333
 21
106.2835212466439003
 31
0.0
  0
LINE
  5
10F7C
  8
0
 10
4406.822618906412572
 20
106.2835362073439001
 30
0.0
 11
4406.822618906412572
 21
107.4449385694439059
 31
0.0
  0
LINE
  5
10F7D
  8
0
 10
4408.3186818985132049
 20
107.4449385694439059
 30
0.0
 11
4408.3186818985132049
 21
106.2638362073438998
 31
0.0
  0
LINE
  5
10F7E
  8
0
 10
4407.0588393788120811
 20
107.4449385694439059
 30
0.0
 11
4407.0588393788120811
 21
106.2638362073438998
 31
0.0
  0
LINE
  5
10F7F
  8
0
 10
4408.5549023710127585
 20
106.2835395268497933
 30
0.0
 11
4408.5549023710127585
 21
107.4449385694439059
 31
0.0
  0
LINE
  5
10F80
  8
0
 10
4406.7752700567898501
 20
105.3857798401239023
 30
0.0
 11
4406.7832488277117591
 21
105.3857798401239023
 31
0.0
  0
ARC
  5
10F81
  8
0
 10
4406.7655305571452118
 20
106.2067525306041063
 30
0.0
 40
0.0098395869743642
 50
89.9432030762111054
 51
172.5134635482982901
  0
ARC
  5
10F82
  8
0
 10
4406.8108078830700833
 20
106.2185606170012022
 30
0.0
 40
0.0078740160572632
 50
180.0000018719094044
 51
269.9999981279929102
  0
LINE
  5
10F83
  8
0
 10
4406.7655403110602492
 20
106.2165921127438963
 30
0.0
 11
4406.8031838998131207
 21
106.2165921127438963
 31
0.0
  0
LINE
  5
10F84
  8
0
 10
4406.8108078830700833
 20
106.2106866009439017
 30
0.0
 11
4406.8540810014601448
 21
106.2106866009439017
 31
0.0
  0
LINE
  5
10F85
  8
0
 10
4406.8029338670121433
 20
106.2185606170012022
 30
0.0
 11
4406.8029338671130972
 21
106.2235378560439045
 31
0.0
  0
LINE
  5
10F86
  8
0
 10
4406.8029338671130972
 20
106.2235378560439045
 30
0.0
 11
4406.8108078828117868
 21
106.2236354575439066
 31
0.0
  0
LINE
  5
10F87
  8
0
 10
4406.8108078828117868
 20
106.2235378560439045
 30
0.0
 11
4406.8108078834766275
 21
106.2106866009439017
 31
0.0
  0
LINE
  5
10F88
  8
0
 10
4406.8108078828117868
 20
106.2236354575439066
 30
0.0
 11
4406.7569387580706461
 21
106.2236354575439066
 31
0.0
  0
ARC
  5
10F89
  8
0
 10
4406.7537212684746919
 20
106.0551747901534014
 30
0.0
 40
0.0078740159378732
 50
284.8214975480735234
 51
359.9999984750143085
  0
LINE
  5
10F8A
  8
0
 10
4406.7615952843134437
 20
106.055174789943905
 30
0.0
 11
4406.7615952844143976
 21
106.0984818765439002
 31
0.0
  0
ARC
  5
10F8B
  8
0
 10
4406.7537212686129351
 20
106.0984818765439002
 30
0.0
 40
0.0078740157000006
 50
0.0000000001042204
 51
75.0760133287256934
  0
ARC
  5
10F8C
  8
0
 10
4406.7537212684783299
 20
105.5236787271525003
 30
0.0
 40
0.0078740159347584
 50
283.8928911585330752
 51
359.99999848282431
  0
LINE
  5
10F8D
  8
0
 10
4406.7615952843134437
 20
105.5236787269439986
 30
0.0
 11
4406.7615952844143976
 21
105.5669858135438943
 31
0.0
  0
ARC
  5
10F8E
  8
0
 10
4406.7537212686129351
 20
105.5669858135438943
 30
0.0
 40
0.0078740157000303
 50
0.0000000001563306
 51
76.004934901223308
  0
LINE
  5
10F8F
  8
0
 10
4406.7832488277117591
 20
105.3985251460438946
 30
0.0
 11
4406.7568496413141474
 21
105.3985251460438946
 31
0.0
  0
ARC
  5
10F90
  8
0
 10
4406.7656738236164529
 20
105.4157895219335046
 30
0.0
 40
0.0102219031582569
 50
189.3655437040243044
 51
269.2516146561811183
  0
LINE
  5
10F91
  8
0
 10
4406.7655403110757106
 20
105.405568490743903
 30
0.0
 11
4406.7832488277117591
 21
105.405568490743903
 31
0.0
  0
LINE
  5
10F92
  8
0
 10
4406.7655403110757106
 20
105.405568490743903
 30
0.0
 11
4406.75848857278379
 21
105.3985251460438946
 31
0.0
  0
ARC
  5
10F93
  8
0
 10
4408.6022512206345709
 20
105.4054637352171966
 30
0.0
 40
0.0196838950932656
 50
269.9974163144012778
 51
0.0019502596273003
  0
LINE
  5
10F94
  8
0
 10
4408.6219351157169513
 20
105.4054644052264962
 30
0.0
 11
4408.6217418512305812
 21
106.2363807634439041
 31
0.0
  0
LINE
  5
10F95
  8
0
 10
4408.6217418512305812
 20
106.2363807634439041
 30
0.0
 11
4408.5549023710127585
 21
106.2363807634439041
 31
0.0
  0
LINE
  5
10F96
  8
0
 10
4408.6022512206345709
 20
105.3857798401239023
 30
0.0
 11
4408.5942724497126619
 21
105.3857798401239023
 31
0.0
  0
ARC
  5
10F97
  8
0
 10
4408.6119907202810282
 20
106.2067525306041063
 30
0.0
 40
0.0098395869743642
 50
7.4865364517024799
 51
90.0567969237888946
  0
ARC
  5
10F98
  8
0
 10
4408.5667133943561566
 20
106.2185606170012022
 30
0.0
 40
0.0078740160572632
 50
270.0000018720070898
 51
359.999998128090624
  0
LINE
  5
10F99
  8
0
 10
4408.6119809663659908
 20
106.2165921127438963
 30
0.0
 11
4408.5743373776131193
 21
106.2165921127438963
 31
0.0
  0
LINE
  5
10F9A
  8
0
 10
4408.5667133943561566
 20
106.2106866009439017
 30
0.0
 11
4408.5492752615919017
 21
106.2106866009439017
 31
0.0
  0
LINE
  5
10F9B
  8
0
 10
4408.5745874104131872
 20
106.2185606170012022
 30
0.0
 11
4408.5745874103131428
 21
106.2235378560439045
 31
0.0
  0
LINE
  5
10F9C
  8
0
 10
4408.5745874103131428
 20
106.2235378560439045
 30
0.0
 11
4408.5667133946117247
 21
106.2236354575439066
 31
0.0
  0
LINE
  5
10F9D
  8
0
 10
4408.5667133946117247
 20
106.2235378560439045
 30
0.0
 11
4408.5667133939477935
 21
106.2106866009439017
 31
0.0
  0
LINE
  5
10F9E
  8
0
 10
4408.5667133946117247
 20
106.2236354575439066
 30
0.0
 11
4408.6217448156876344
 21
106.2236354575439066
 31
0.0
  0
ARC
  5
10F9F
  8
0
 10
4408.6238000089506386
 20
106.0551747901534014
 30
0.0
 40
0.0078740159378732
 50
180.0000015249792114
 51
255.178502451926505
  0
LINE
  5
10FA0
  8
0
 10
4408.6159259931127963
 20
106.055174789943905
 30
0.0
 11
4408.6159259930127519
 21
106.0984818765439002
 31
0.0
  0
ARC
  5
10FA1
  8
0
 10
4408.6238000088142144
 20
106.0984818765439002
 30
0.0
 40
0.0078740157000006
 50
104.9239866712743066
 51
179.9999999998956923
  0
LINE
  5
10FA2
  8
0
 10
4408.5942724497126619
 20
105.3985251460438946
 30
0.0
 11
4408.620671636111183
 21
105.3985251460438946
 31
0.0
  0
ARC
  5
10FA3
  8
0
 10
4408.6118474538106966
 20
105.4157895219335046
 30
0.0
 40
0.0102219031582569
 50
270.7483853438188817
 51
350.6344562959756104
  0
LINE
  5
10FA4
  8
0
 10
4408.6119809663478009
 20
105.405568490743903
 30
0.0
 11
4408.5942724497126619
 21
105.405568490743903
 31
0.0
  0
LINE
  5
10FA5
  8
0
 10
4408.6119809663478009
 20
105.405568490743903
 30
0.0
 11
4408.619032704640631
 21
105.3985251460438946
 31
0.0
  0
ARC
  5
10FA6
  8
0
 10
4408.6238000089479101
 20
105.5236787271525003
 30
0.0
 40
0.0078740159347584
 50
180.0000015171756047
 51
256.1071088414669248
  0
LINE
  5
10FA7
  8
0
 10
4408.6159259931127963
 20
105.5236787269439986
 30
0.0
 11
4408.6159259930127519
 21
105.5669858135438943
 31
0.0
  0
ARC
  5
10FA8
  8
0
 10
4408.6238000088142144
 20
105.5669858135438943
 30
0.0
 40
0.0078740157000303
 50
103.9950650987767062
 51
179.999999999843709
  0
ARC
  5
10FA9
  8
0
 10
4408.8694979271385819
 20
105.3094738186616013
 30
0.0
 40
0.0787246840276712
 50
90.9400096248085248
 51
180.0003115110644103
  0
ARC
  5
10FAA
  8
0
 10
4408.7710984368168283
 20
105.2484275430404068
 30
0.0
 40
0.0196748076267047
 50
269.9789306617054763
 51
0.0210693383074988
  0
LINE
  5
10FAB
  8
0
 10
4408.5942724497126619
 20
105.2287527367439992
 30
0.0
 11
4408.7710912018119416
 21
105.2287527367439992
 31
0.0
  0
LINE
  5
10FAC
  8
0
 10
4408.790773243113108
 20
105.2484347780439009
 30
0.0
 11
4408.7907762413133241
 21
105.3094733906439018
 31
0.0
  0
LINE
  5
10FAD
  8
0
 10
4408.8682064072127105
 20
105.3881879079439017
 30
0.0
 11
4409.0547969901381293
 21
105.3881879079439017
 31
0.0
  0
ARC
  5
10FAE
  8
0
 10
4415.4855481526483345
 20
101.6107816114973019
 30
0.0
 40
0.0186026285452314
 50
7.3758368524796021
 51
93.990587608970813
  0
ARC
  5
10FAF
  8
0
 10
4415.5420504137246098
 20
102.0667332324021004
 30
0.0
 40
0.1194281247763141
 50
270.6316167778080057
 51
0.2738759392898559
  0
LINE
  5
10FB0
  8
0
 10
4415.5433669379126513
 20
101.9473121082439064
 30
0.0
 11
4408.5942724497126619
 21
101.9473121082439064
 31
0.0
  0
LINE
  5
10FB1
  8
0
 10
4415.4843118198123193
 20
101.9473121082439064
 30
0.0
 11
4415.4842431043125544
 21
101.5723544734438946
 31
0.0
  0
LINE
  5
10FB2
  8
0
 10
4415.4772396285488867
 20
101.5191020043439067
 30
0.0
 11
4414.3102816444134078
 21
101.5191021313438995
 31
0.0
  0
LINE
  5
10FB3
  8
0
 10
4414.3032781731126306
 20
101.5864853855939032
 30
0.0
 11
4414.3032781731126306
 21
101.9473121082439064
 31
0.0
  0
ARC
  5
10FB4
  8
0
 10
4416.1125896811772691
 20
101.5881943273627996
 30
0.0
 40
1.8093123151338351
 50
180.0541173375821131
 51
182.0045460341665944
  0
ARC
  5
10FB5
  8
0
 10
4411.6233222308537734
 20
101.636173877956594
 30
0.0
 40
3.8614482914440211
 50
358.3498225238470809
 51
359.0530110099966237
  0
ARC
  5
10FB6
  8
0
 10
4413.1096788360428036
 20
101.5251874786956989
 30
0.0
 40
0.0060881464351373
 50
182.642705765772206
 51
268.2625206902625905
  0
ARC
  5
10FB7
  8
0
 10
4414.2764325867592561
 20
101.5250522808762952
 30
0.0
 40
0.0059496049720413
 50
270.1903674223710823
 51
359.2611795046790917
  0
LINE
  5
10FB8
  8
0
 10
4414.2764522270481393
 20
101.5191020043439067
 30
0.0
 11
4413.1094942429117509
 21
101.5191021313438995
 31
0.0
  0
LINE
  5
10FB9
  8
0
 10
4413.1024907716118832
 20
101.5864853855939032
 30
0.0
 11
4413.1024907716118832
 21
101.9473121082439064
 31
0.0
  0
ARC
  5
10FBA
  8
0
 10
4414.9118022796783407
 20
101.5881943273627996
 30
0.0
 40
1.8093123151338351
 50
180.0541173375821131
 51
182.0045460341665944
  0
ARC
  5
10FBB
  8
0
 10
4410.4225348293539355
 20
101.636173877956594
 30
0.0
 40
3.8614482914440211
 50
358.3498225238470809
 51
359.0530110099966237
  0
ARC
  5
10FBC
  8
0
 10
4411.9088914344429213
 20
101.5251874786956989
 30
0.0
 40
0.0060881464351373
 50
182.642705765772206
 51
268.2625206902625905
  0
ARC
  5
10FBD
  8
0
 10
4413.0756451851593738
 20
101.5250522808762952
 30
0.0
 40
0.0059496049720413
 50
270.1903674223710823
 51
359.2611795046790917
  0
LINE
  5
10FBE
  8
0
 10
4413.075664825448257
 20
101.5191020043439067
 30
0.0
 11
4411.9087068413118686
 21
101.5191021313438995
 31
0.0
  0
LINE
  5
10FBF
  8
0
 10
4411.9017033700129105
 20
101.5864853855939032
 30
0.0
 11
4411.9017033700129105
 21
101.9473121082439064
 31
0.0
  0
ARC
  5
10FC0
  8
0
 10
4413.7110148780766394
 20
101.5881943273627996
 30
0.0
 40
1.8093123151338351
 50
180.0541173375821131
 51
182.0045460341665944
  0
ARC
  5
10FC1
  8
0
 10
4409.2217474277549627
 20
101.636173877956594
 30
0.0
 40
3.8614482914440211
 50
358.3498225238470809
 51
359.0530110099966237
  0
ARC
  5
10FC2
  8
0
 10
4410.7081034718921728
 20
101.5274080497457021
 30
0.0
 40
0.0060881464351373
 50
182.642705765772206
 51
268.2625206902625905
  0
ARC
  5
10FC3
  8
0
 10
4411.8748572226086253
 20
101.5272728519263978
 30
0.0
 40
0.0059496049720413
 50
270.1903674223710823
 51
359.2611795046790917
  0
LINE
  5
10FC4
  8
0
 10
4411.8748768628993275
 20
101.5213225753938957
 30
0.0
 11
4410.7079188787620296
 21
101.5213227023939027
 31
0.0
  0
LINE
  5
10FC5
  8
0
 10
4410.7009154074630715
 20
101.5887059566439063
 30
0.0
 11
4410.7009154074630715
 21
101.9495326792938954
 31
0.0
  0
ARC
  5
10FC6
  8
0
 10
4412.5102269155268004
 20
101.5904148984128028
 30
0.0
 40
1.8093123151338351
 50
180.0541173375821131
 51
182.0045460341665944
  0
ARC
  5
10FC7
  8
0
 10
4408.0209594652051237
 20
101.6383944490066966
 30
0.0
 40
3.8614482914440211
 50
358.3498225238470809
 51
359.0530110099966237
  0
LINE
  5
10FC8
  8
0
 10
4414.283455702729043
 20
101.5723677737050963
 30
0.0
 11
4414.2834569255119277
 21
101.9473121082439064
 31
0.0
  0
LINE
  5
10FC9
  8
0
 10
4413.0826683011282512
 20
101.5723677737077963
 30
0.0
 11
4413.0826695240129993
 21
101.9473121082439064
 31
0.0
  0
LINE
  5
10FCA
  8
0
 10
4411.8818803386629952
 20
101.5745750444938977
 30
0.0
 11
4411.8818803386629952
 21
101.9473121082439064
 31
0.0
  0
LINE
  5
10FCB
  8
0
 10
4414.2834564929926273
 20
101.8146880817438955
 30
0.0
 11
4414.3032769681049103
 21
101.8146880797850002
 31
0.0
  0
LINE
  5
10FCC
  8
0
 10
4414.2834569029128033
 20
101.7183893971438948
 30
0.0
 11
4414.3032769585870483
 21
101.718389395185099
 31
0.0
  0
LINE
  5
10FCD
  8
0
 10
4414.2834568940143072
 20
101.6292635374439044
 30
0.0
 11
4414.3032781731126306
 21
101.6292635374439044
 31
0.0
  0
LINE
  5
10FCE
  8
0
 10
4414.2834734309171836
 20
101.6526334044440034
 30
0.0
 11
4414.3032769521623777
 21
101.6533664430942991
 31
0.0
  0
LINE
  5
10FCF
  8
0
 10
4414.283474619248409
 20
101.6945339517548064
 30
0.0
 11
4414.303274766870345
 21
101.6938010583535004
 31
0.0
  0
LINE
  5
10FD0
  8
0
 10
4414.2834655448177728
 20
101.6806909707401019
 30
0.0
 11
4414.303276954937246
 21
101.6814435723136967
 31
0.0
  0
CIRCLE
  5
10FD1
  8
0
 10
4406.9997842607126586
 20
105.9685606167439005
 30
0.0
 40
0.1771653542999996
  0
CIRCLE
  5
10FD2
  8
0
 10
4406.9997842607126586
 20
105.9685606167439005
 30
0.0
 40
0.1476377939000004
  0
CIRCLE
  5
10FD3
  8
0
 10
4406.9997842607126586
 20
105.9685606167439005
 30
0.0
 40
0.108267716499995
  0
LINE
  5
10FD4
  8
0
 10
4406.8462409536132327
 20
106.0569462242206953
 30
0.0
 11
4406.8462409536132327
 21
105.8801750092660967
 31
0.0
  0
ARC
  5
10FD5
  8
0
 10
4413.7254268528586181
 20
-32.9307476728290709
 30
0.0
 40
139.0636898774523047
 50
88.6294124638385625
 51
90.6597144809834816
  0
ARC
  5
10FD6
  8
0
 10
4416.4546583261426349
 20
81.1397603680218822
 30
0.0
 40
24.9605369449736614
 50
83.3012322558000164
 51
88.6294124638385625
  0
ARC
  5
10FD7
  8
0
 10
4419.0909887737516328
 20
103.5859380011410025
 30
0.0
 40
2.360069503645664
 50
68.9906053761351217
 51
83.3012322558000164
  0
ARC
  5
10FD8
  8
0
 10
4419.8182789501506704
 20
105.4796655311294984
 30
0.0
 40
0.3314850320197826
 50
19.8260158207412793
 51
68.9906053761351217
  0
ARC
  5
10FD9
  8
0
 10
4419.7935936818548726
 20
105.3819185604468061
 30
0.0
 40
0.3967628210846881
 50
10.0879478733438201
 51
31.986865921740101
  0
ARC
  5
10FDA
  8
0
 10
4419.7511915074856006
 20
105.5495950360250959
 30
0.0
 40
0.44402155613696
 50
299.6189954181435269
 51
347.2254931809941922
  0
ARC
  5
10FDB
  8
0
 10
4419.2555837302461441
 20
107.1427072560774008
 30
0.0
 40
2.104328414897918
 50
269.1603590987697885
 51
289.864857440224398
  0
ARC
  5
10FDC
  8
0
 10
4419.0034871248799391
 20
115.641193140357899
 30
0.0
 40
10.6048967725659509
 50
262.4153971461497008
 51
271.195501921906498
  0
ARC
  5
10FDD
  8
0
 10
4418.9810985615131358
 20
116.1034639646024971
 30
0.0
 40
11.0604811337068192
 50
253.4435299636523098
 51
262.8464364310530073
  0
ARC
  5
10FDE
  8
0
 10
4414.2197306903035496
 20
-2.2203924275903968
 30
0.0
 40
107.7339743821334963
 50
88.655271894420494
 51
90.1266830376833781
  0
ARC
  5
10FDF
  8
0
 10
4415.9155222321796828
 20
70.0201275058835222
 30
0.0
 40
35.4735534782103201
 50
85.7379885824590815
 51
88.655271894420494
  0
ARC
  5
10FE0
  8
0
 10
4417.7847331355806091
 20
95.1022489731048353
 30
0.0
 40
10.3218782517399692
 50
80.5476322170472514
 51
85.7379885824590815
  0
ARC
  5
10FE1
  8
0
 10
4419.3077529472584501
 20
104.2501684684750956
 30
0.0
 40
1.04804299115137
 50
57.2436545776953309
 51
80.5476322170472514
  0
ARC
  5
10FE2
  8
0
 10
4423.0698120529814332
 20
128.416537384157408
 30
0.0
 40
23.4136203226410515
 50
251.5539641209605008
 51
252.2674608821884874
  0
LINE
  5
10FE3
  8
0
 10
4407.2045086702992194
 20
106.204781089143907
 30
0.0
 11
4407.2045086702992194
 21
106.2835212466439003
 31
0.0
  0
LINE
  5
10FE4
  8
0
 10
4408.1730126073989595
 20
106.204781089143907
 30
0.0
 11
4408.1730126073989595
 21
106.2835212466439003
 31
0.0
  0
LINE
  5
10FE5
  8
0
 10
4406.8423189064142207
 20
106.2638362073438998
 30
0.0
 11
4407.2045086702992194
 21
106.2638362073438998
 31
0.0
  0
ARC
  5
10FE6
  8
0
 10
4406.8540810014601448
 20
106.2185606170012022
 30
0.0
 40
0.0078740160572632
 50
270.0000018720070898
 51
359.999998128090624
  0
LINE
  5
10FE7
  8
0
 10
4406.8986012389987081
 20
106.2165921127438963
 30
0.0
 11
4406.8617049847161979
 21
106.2165921127438963
 31
0.0
  0
LINE
  5
10FE8
  8
0
 10
4406.8619550175171753
 20
106.2185606170012022
 30
0.0
 11
4406.8619550174171309
 21
106.2235378560439045
 31
0.0
  0
LINE
  5
10FE9
  8
0
 10
4407.1404189885988671
 20
106.2236354575439066
 30
0.0
 11
4406.8540810017166223
 21
106.2236354575439066
 31
0.0
  0
LINE
  5
10FEA
  8
0
 10
4406.8540810017166223
 20
106.2235378560439045
 30
0.0
 11
4406.8540810010526911
 21
106.2106866009439017
 31
0.0
  0
LINE
  5
10FEB
  8
0
 10
4407.018396828785626
 20
106.2185071150170046
 30
0.0
 11
4406.9023108624687666
 21
106.2184467832274066
 31
0.0
  0
LINE
  5
10FEC
  8
0
 10
4407.0222271250986523
 20
106.2165921128438981
 30
0.0
 11
4407.018396828785626
 21
106.2185071150170046
 31
0.0
  0
LINE
  5
10FED
  8
0
 10
4406.8986012389987081
 20
106.2165921127438963
 30
0.0
 11
4406.9023108624687666
 21
106.2184467832274066
 31
0.0
  0
ARC
  5
10FEE
  8
0
 10
4406.8423189064142207
 20
106.2835362073439001
 30
0.0
 40
0.0197
 50
180.0000000000414957
 51
270.0
  0
LINE
  5
10FEF
  8
0
 10
4407.2024985004536575
 20
106.2184674651630019
 30
0.0
 11
4407.1572735064983135
 21
106.2179753852439035
 31
0.0
  0
LINE
  5
10FF0
  8
0
 10
4407.1572735064983135
 20
106.2179753852439035
 30
0.0
 11
4407.1545067509978253
 21
106.2165921128438981
 31
0.0
  0
LINE
  5
10FF1
  8
0
 10
4407.1545067509978253
 20
106.2165921128438981
 30
0.0
 11
4407.1404189885988671
 21
106.2236354575439066
 31
0.0
  0
LINE
  5
10FF2
  8
0
 10
4407.1404189885988671
 20
106.2236354575439066
 30
0.0
 11
4407.1401984514977812
 21
106.2363807634439041
 31
0.0
  0
LINE
  5
10FF3
  8
0
 10
4408.6022502896876176
 20
106.2363807634439041
 30
0.0
 11
4408.1730126073989595
 21
106.2363807634439041
 31
0.0
  0
ARC
  5
10FF4
  8
0
 10
4408.5667133946271861
 20
106.2185606170012022
 30
0.0
 40
0.0078740160572632
 50
270.0000018720070898
 51
359.999998128090624
  0
LINE
  5
10FF5
  8
0
 10
4408.6119809666370202
 20
106.2165921127438963
 30
0.0
 11
4408.5743373778841487
 21
106.2165921127438963
 31
0.0
  0
LINE
  5
10FF6
  8
0
 10
4408.5667133946271861
 20
106.2106866009439017
 30
0.0
 11
4408.5234402762380341
 21
106.2106866009439017
 31
0.0
  0
LINE
  5
10FF7
  8
0
 10
4408.5745874106842166
 20
106.2185606170012022
 30
0.0
 11
4408.5745874105832627
 21
106.2235378560439045
 31
0.0
  0
LINE
  5
10FF8
  8
0
 10
4408.5745874105832627
 20
106.2235378560439045
 30
0.0
 11
4408.5667133948836636
 21
106.2236354575439066
 31
0.0
  0
LINE
  5
10FF9
  8
0
 10
4408.5667133948836636
 20
106.2235378560439045
 30
0.0
 11
4408.5667133942188229
 21
106.2106866009439017
 31
0.0
  0
LINE
  5
10FFA
  8
0
 10
4408.5667133948836636
 20
106.2236354575439066
 30
0.0
 11
4408.6205825196257138
 21
106.2236354575439066
 31
0.0
  0
LINE
  5
10FFB
  8
0
 10
4408.5352023712839582
 20
106.2638362073438998
 30
0.0
 11
4408.1730126073989595
 21
106.2638362073438998
 31
0.0
  0
ARC
  5
10FFC
  8
0
 10
4408.5234402762380341
 20
106.2185606170012022
 30
0.0
 40
0.0078740160572632
 50
180.0000018719094044
 51
269.9999981279929102
  0
LINE
  5
10FFD
  8
0
 10
4408.1730126073989595
 20
106.2165921127438963
 30
0.0
 11
4408.5158162929810715
 21
106.2165921127438963
 31
0.0
  0
LINE
  5
10FFE
  8
0
 10
4408.5155662601810036
 20
106.2185606170012022
 30
0.0
 11
4408.5155662602801385
 21
106.2235378560439045
 31
0.0
  0
LINE
  5
10FFF
  8
0
 10
4408.1730126073989595
 20
106.2236354575439066
 30
0.0
 11
4408.5234402759797376
 21
106.2236354575439066
 31
0.0
  0
LINE
  5
11000
  8
0
 10
4408.5234402759797376
 20
106.2235378560439045
 30
0.0
 11
4408.5234402766445783
 21
106.2106866009439017
 31
0.0
  0
ARC
  5
11001
  8
0
 10
4408.5352023712839582
 20
106.2835362073439001
 30
0.0
 40
0.0197
 50
270.0
 51
0.0096545013301648
  0
ARC
  5
11002
  8
0
 10
4407.3442724498991083
 20
105.8110803017438997
 30
0.0
 40
0.3346456692999978
 50
139.4708602753939033
 51
171.3947970989194118
  0
ARC
  5
11003
  8
0
 10
4407.3442724498991083
 20
105.8110803017438997
 30
0.0
 40
0.3156821832000012
 50
140.8150827498843114
 51
170.0505746244562886
  0
ARC
  5
11004
  8
0
 10
4407.2163196939991394
 20
105.3760409317439013
 30
0.0
 40
0.6314261047
 50
100.2340496832869974
 51
101.8131178827329961
  0
ARC
  5
11005
  8
0
 10
4407.2163196939991394
 20
105.3760409317439013
 30
0.0
 40
0.610339022199999
 50
100.2465794899161011
 51
103.7934321325951004
  0
CIRCLE
  5
11006
  8
0
 10
4408.3777370167990739
 20
105.6535999868439006
 30
0.0
 40
0.1771653542999996
  0
CIRCLE
  5
11007
  8
0
 10
4408.3777370167990739
 20
105.6535999868439006
 30
0.0
 40
0.1476377939000004
  0
CIRCLE
  5
11008
  8
0
 10
4408.3777370167990739
 20
105.6535999868439006
 30
0.0
 40
0.108267716499995
  0
LINE
  5
11009
  8
0
 10
4408.5312803238975903
 20
105.7419855943206954
 30
0.0
 11
4408.5312803238975903
 21
105.5652143793660969
 31
0.0
  0
ARC
  5
1100A
  8
0
 10
4408.0332488277981611
 20
105.8110803017438997
 30
0.0
 40
0.3346456693001215
 50
319.470860257732113
 51
351.3947971207255137
  0
ARC
  5
1100B
  8
0
 10
4408.0332488277981611
 20
105.8110803017438997
 30
0.0
 40
0.3156821831999763
 50
320.8150827226039041
 51
350.0505746558461055
  0
ENDSEC
  0
EOF
