  0
SECTION
  2
HEADER
  9
$ACADVER
  1
AC1009
  9
$INSBASE
 10
4742.4388432705927698
 20
238.455587742550307
 30
0.0
  9
$EXTMIN
 10
4739.8791491285601296
 20
238.1012570339501906
 30
0.0
  9
$EXTMAX
 10
4744.9985374126263196
 20
247.0972555636278116
 30
0.0
  9
$LIMMIN
 10
0.0
 20
0.0
  9
$LIMMAX
 10
11.6929133858000007
 20
8.2677165353999982
  9
$ORTHOMODE
 70
     1
  9
$REGENMODE
 70
     1
  9
$FILLMODE
 70
     1
  9
$QTEXTMODE
 70
     0
  9
$MIRRTEXT
 70
     0
  9
$DRAGMODE
 70
     2
  9
$LTSCALE
 40
0.6431102362
  9
$OSMODE
 70
  4095
  9
$ATTMODE
 70
     1
  9
$TEXTSIZE
 40
0.2
  9
$TRACEWID
 40
0.05
  9
$TEXTSTYLE
  7
STANDARD
  9
$CLAYER
  8
0
  9
$CELTYPE
  6
BYLAYER
  9
$CECOLOR
 62
   256
  9
$DIMSCALE
 40
1.0
  9
$DIMASZ
 40
0.1875
  9
$DIMEXO
 40
0.0625
  9
$DIMDLI
 40
0.4443307087
  9
$DIMRND
 40
0.0
  9
$DIMDLE
 40
0.0
  9
$DIMEXE
 40
0.125
  9
$DIMTP
 40
0.01
  9
$DIMTM
 40
0.01
  9
$DIMTXT
 40
2.0
  9
$DIMCEN
 40
0.1052362205
  9
$DIMTSZ
 40
0.0
  9
$DIMTOL
 70
     1
  9
$DIMLIM
 70
     0
  9
$DIMTIH
 70
     1
  9
$DIMTOH
 70
     1
  9
$DIMSE1
 70
     0
  9
$DIMSE2
 70
     0
  9
$DIMTAD
 70
     0
  9
$DIMZIN
 70
     0
  9
$DIMBLK
  1

  9
$DIMASO
 70
     1
  9
$DIMSHO
 70
     1
  9
$DIMPOST
  1
\X
  9
$DIMAPOST
  1

  9
$DIMALT
 70
     1
  9
$DIMALTD
 70
     2
  9
$DIMALTF
 40
25.3999999999999986
  9
$DIMLFAC
 40
1.0
  9
$DIMTOFL
 70
     0
  9
$DIMTVP
 40
0.0
  9
$DIMTIX
 70
     0
  9
$DIMSOXD
 70
     0
  9
$DIMSAH
 70
     0
  9
$DIMBLK1
  1

  9
$DIMBLK2
  1

  9
$DIMSTYLE
  2
STANDARD
  9
$DIMCLRD
 70
     0
  9
$DIMCLRE
 70
     0
  9
$DIMCLRT
 70
     0
  9
$DIMTFAC
 40
1.0
  9
$DIMGAP
 40
0.09
  9
$LUNITS
 70
     2
  9
$LUPREC
 70
     4
  9
$SKETCHINC
 40
0.1
  9
$FILLETRAD
 40
0.0
  9
$AUNITS
 70
     0
  9
$AUPREC
 70
     0
  9
$MENU
  1
.
  9
$ELEVATION
 40
0.0
  9
$PELEVATION
 40
0.0
  9
$THICKNESS
 40
0.0
  9
$LIMCHECK
 70
     0
  9
$BLIPMODE
 70
     0
  9
$CHAMFERA
 40
0.0
  9
$CHAMFERB
 40
0.0
  9
$SKPOLY
 70
     0
  9
$TDCREATE
 40
2458060.468368056230247
  9
$TDUPDATE
 40
2459240.7481249999254942
  9
$TDINDWG
 40
0.3534792824
  9
$TDUSRTIMER
 40
0.3534792824
  9
$USRTIMER
 70
     1
  9
$ANGBASE
 50
0.0
  9
$ANGDIR
 70
     0
  9
$PDMODE
 70
     0
  9
$PDSIZE
 40
0.3125
  9
$PLINEWID
 40
0.0
  9
$COORDS
 70
     1
  9
$SPLFRAME
 70
     0
  9
$SPLINETYPE
 70
     6
  9
$SPLINESEGS
 70
     8
  9
$ATTDIA
 70
     1
  9
$ATTREQ
 70
     1
  9
$HANDLING
 70
     1
  9
$HANDSEED
  5
D182
  9
$SURFTAB1
 70
     6
  9
$SURFTAB2
 70
     6
  9
$SURFTYPE
 70
     6
  9
$SURFU
 70
     6
  9
$SURFV
 70
     6
  9
$UCSNAME
  2

  9
$UCSORG
 10
0.0
 20
0.0
 30
0.0
  9
$UCSXDIR
 10
1.0
 20
0.0
 30
0.0
  9
$UCSYDIR
 10
0.0
 20
1.0
 30
0.0
  9
$PUCSNAME
  2

  9
$PUCSORG
 10
0.0
 20
0.0
 30
0.0
  9
$PUCSXDIR
 10
1.0
 20
0.0
 30
0.0
  9
$PUCSYDIR
 10
0.0
 20
1.0
 30
0.0
  9
$USERI1
 70
     0
  9
$USERI2
 70
     0
  9
$USERI3
 70
     0
  9
$USERI4
 70
     0
  9
$USERI5
 70
     0
  9
$USERR1
 40
0.0
  9
$USERR2
 40
0.0
  9
$USERR3
 40
0.0
  9
$USERR4
 40
0.0
  9
$USERR5
 40
0.0
  9
$WORLDVIEW
 70
     1
  9
$SHADEDGE
 70
     3
  9
$SHADEDIF
 70
    70
  9
$TILEMODE
 70
     1
  9
$MAXACTVP
 70
    64
  9
$PLIMCHECK
 70
     0
  9
$PEXTMIN
 10
1.0000000000000000E+20
 20
1.0000000000000000E+20
 30
1.0000000000000000E+20
  9
$PEXTMAX
 10
-1.0000000000000000E+20
 20
-1.0000000000000000E+20
 30
-1.0000000000000000E+20
  9
$PLIMMIN
 10
0.0
 20
0.0
  9
$PLIMMAX
 10
12.0
 20
9.0
  9
$UNITMODE
 70
     0
  9
$VISRETAIN
 70
     1
  9
$PLINEGEN
 70
     0
  9
$PSLTSCALE
 70
     1
  0
ENDSEC
  0
SECTION
  2
TABLES
  0
TABLE
  2
VPORT
 70
     1
  0
VPORT
  2
*ACTIVE
 70
     0
 10
0.0
 20
0.0
 11
1.0
 21
1.0
 12
0.0
 22
0.0
 13
0.0
 23
0.0
 14
1.0
 24
1.0
 15
0.0
 25
0.0
 16
0.0
 26
0.0
 36
29.3280104250118399
 17
4742.43896484375
 27
242.5992584228515909
 37
0.0
 40
10.3506854408894693
 41
2.1186252771618621
 42
50.0
 43
0.0
 44
0.0
 50
0.0
 51
0.0
 71
     0
 72
   100
 73
     1
 74
     1
 75
     0
 76
     0
 77
     0
 78
     0
  0
ENDTAB
  0
TABLE
  2
LTYPE
 70
     2
  0
LTYPE
  2
CONTINUOUS
 70
     0
  3
Solid line
 72
    65
 73
     0
 40
0.0
  0
LTYPE
  2
PHANTOM2
 70
     0
  3
___ _ _ ___ _ _ ___ _ _ ___ _ _
 72
    65
 73
     6
 40
1.25
 49
0.625
 49
-0.125
 49
0.125
 49
-0.125
 49
0.125
 49
-0.125
  0
ENDTAB
  0
TABLE
  2
LAYER
 70
     2
  0
LAYER
  2
0
 70
     0
 62
   255
  6
CONTINUOUS
  0
LAYER
  2
DEFPOINTS
 70
     0
 62
     7
  6
CONTINUOUS
  0
ENDTAB
  0
TABLE
  2
STYLE
 70
     1
  0
STYLE
  2
STANDARD
 70
     0
 40
0.0
 41
0.8
 50
0.0
 71
     0
 42
0.2
  3
txt
  4

  0
ENDTAB
  0
TABLE
  2
VIEW
 70
     0
  0
ENDTAB
  0
TABLE
  2
UCS
 70
     0
  0
ENDTAB
  0
TABLE
  2
APPID
 70
     9
  0
APPID
  2
ACAD
 70
     0
  0
APPID
  2
ACAD_MLEADERVER
 70
     0
  0
APPID
  2
ACAD_EXEMPT_FROM_CAD_STANDARDS
 70
     0
  0
APPID
  2
ACAD_NAV_VCDISPLAY
 70
     0
  0
APPID
  2
ACAECLAYERSTANDARD
 70
     0
  0
APPID
  2
ACCMTRANSPARENCY
 70
     0
  0
APPID
  2
ACAD_DSTYLE_DIMJAG
 70
     0
  0
APPID
  2
ACAD_DSTYLE_DIMTALN
 70
     0
  0
APPID
  2
ACDBATTR
 70
     0
  0
ENDTAB
  0
TABLE
  2
DIMSTYLE
 70
     1
  0
DIMSTYLE
  2
STANDARD
 70
     0
  3

  4

  5

  6

  7

 40
1.0
 41
0.1875
 42
0.0625
 43
0.38
 44
0.125
 45
0.0
 46
0.0
 47
0.01
 48
0.01
140
0.15625
141
0.09
142
0.0
143
25.3999999999999986
144
1.0
145
0.0
146
1.0
147
0.09
 71
     1
 72
     0
 73
     1
 74
     1
 75
     0
 76
     0
 77
     0
 78
     4
170
     0
171
     2
172
     0
173
     0
174
     0
175
     0
176
     0
177
     0
178
     0
  0
ENDTAB
  0
ENDSEC
  0
SECTION
  2
BLOCKS
  0
BLOCK
  8
0
  2
$MODEL_SPACE
 70
     0
 10
0.0
 20
0.0
 30
0.0
  3
$MODEL_SPACE
  1

  0
ENDBLK
  5
21
  8
0
  0
BLOCK
 67
     1
  8
0
  2
$PAPER_SPACE
 70
     0
 10
0.0
 20
0.0
 30
0.0
  3
$PAPER_SPACE
  1

  0
ENDBLK
  5
1D
 67
     1
  8
0
  0
ENDSEC
  0
SECTION
  2
ENTITIES
  0
ATTDEF
  5
3930
  8
DEFPOINTS
 10
4742.4338726908981698
 20
238.4534355237240106
 30
0.0
 40
0.001
  1
K-26282T-G
  3

  2
MODELNUMBER
 70
     0
1001
ACDBATTR
1070
     0
1070
     1
  0
ATTDEF
  5
3931
  8
DEFPOINTS
 10
4742.4338726908981698
 20
238.4517688570572886
 30
0.0
 40
0.001
  1

  3

  2
TRADENAME
 70
     0
1001
ACDBATTR
1070
     0
1070
     1
  0
ATTDEF
  5
3932
  8
DEFPOINTS
 10
4742.4338726908981698
 20
238.4501021903905951
 30
0.0
 40
0.001
  1
HANDSHOWER
  3

  2
PRODUCT
 70
     0
1001
ACDBATTR
1070
     0
1070
     1
  0
LINE
  5
CC29
  8
0
 10
4742.086481065793123
 20
238.1012570339501906
 30
0.0
 11
4742.7912054752932818
 21
238.1012570339501906
 31
0.0
  0
LINE
  5
CC2A
  8
0
 10
4742.8502605933927043
 20
238.3768475850502
 30
0.0
 11
4742.8128590185933717
 21
238.3768475850502
 31
0.0
  0
LINE
  5
CC2B
  8
0
 10
4741.9860185427933175
 20
238.455587742550307
 30
0.0
 11
4742.8916679983931317
 21
238.455587742550307
 31
0.0
  0
LINE
  5
CC2C
  8
0
 10
4742.0274259476937004
 20
238.1877564257503082
 30
0.0
 11
4742.0746943067933898
 21
238.1631295809503115
 31
0.0
  0
LINE
  5
CC2D
  8
0
 10
4742.0274259476937004
 20
238.3305963273502073
 30
0.0
 11
4742.0746707657926891
 21
238.305997890250211
 31
0.0
  0
LINE
  5
CC2E
  8
0
 10
4742.0274259476937004
 20
238.2592483734501911
 30
0.0
 11
4742.0746794127935573
 21
238.2346274432503037
 31
0.0
  0
LINE
  5
CC2F
  8
0
 10
4742.0716815455152755
 20
238.3790397394357115
 30
0.0
 11
4742.0746718231930572
 21
238.3774890633503105
 31
0.0
  0
LINE
  5
CC30
  8
0
 10
4742.8502605933927043
 20
238.2357988717502053
 30
0.0
 11
4742.8030125722925732
 21
238.2603881130503112
 31
0.0
  0
LINE
  5
CC31
  8
0
 10
4742.8502605933927043
 20
238.3072459311501916
 30
0.0
 11
4742.8030163920930136
 21
238.3318419223502929
 31
0.0
  0
LINE
  5
CC32
  8
0
 10
4742.8502605933927043
 20
238.164300844250306
 30
0.0
 11
4742.8029997849926076
 21
238.1888967416502112
 31
0.0
  0
LINE
  5
CC33
  8
0
 10
4742.086481065793123
 20
238.1012570339501906
 30
0.0
 11
4742.0482343433932328
 21
238.1395037563501944
 31
0.0
  0
LINE
  5
CC34
  8
0
 10
4741.9073432705927189
 20
239.0695245356502028
 30
0.0
 11
4741.9073432705927189
 21
241.9117568737501927
 31
0.0
  0
LINE
  5
CC35
  8
0
 10
4742.0274259476937004
 20
238.1877564257503082
 30
0.0
 11
4742.0274259476937004
 21
238.2000242990501988
 31
0.0
  0
LINE
  5
CC36
  8
0
 10
4742.0274259476937004
 20
238.2592483734501911
 30
0.0
 11
4742.0274259476937004
 21
238.2714028625501896
 31
0.0
  0
LINE
  5
CC37
  8
0
 10
4742.0274259476937004
 20
238.3305963273502073
 30
0.0
 11
4742.0274259476937004
 21
238.3428476806502943
 31
0.0
  0
LINE
  5
CC38
  8
0
 10
4742.0746707657926891
 20
238.305997890250211
 30
0.0
 11
4742.0746707657926891
 21
238.2967154921502981
 31
0.0
  0
LINE
  5
CC39
  8
0
 10
4742.0746718231930572
 20
238.3774890633503105
 30
0.0
 11
4742.0746718231930572
 21
238.3682011815502051
 31
0.0
  0
LINE
  5
CC3A
  8
0
 10
4742.0746794127935573
 20
238.2346274432503037
 30
0.0
 11
4742.0746794127935573
 21
238.2252857600502125
 31
0.0
  0
LINE
  5
CC3B
  8
0
 10
4742.0746943067933898
 20
238.1631295809503115
 30
0.0
 11
4742.0746943067933898
 21
238.1539247782503139
 31
0.0
  0
LINE
  5
CC3C
  8
0
 10
4742.0766385461929531
 20
238.3886586087502053
 30
0.0
 11
4742.0766385461929531
 21
238.4240916795502869
 31
0.0
  0
LINE
  5
CC3D
  8
0
 10
4742.8029997849926076
 20
238.1888967416502112
 30
0.0
 11
4742.8029997849926076
 21
238.1988919996501863
 31
0.0
  0
LINE
  5
CC3E
  8
0
 10
4742.8030125722925732
 20
238.2603881130503112
 30
0.0
 11
4742.8030125722925732
 21
238.2703175941502138
 31
0.0
  0
LINE
  5
CC3F
  8
0
 10
4742.8030163920930136
 20
238.3318419223502929
 30
0.0
 11
4742.8030163920930136
 21
238.3417345678502102
 31
0.0
  0
LINE
  5
CC40
  8
0
 10
4742.8030164988931574
 20
238.1274727423503066
 30
0.0
 11
4742.8030164988931574
 21
238.1175675295502003
 31
0.0
  0
LINE
  5
CC41
  8
0
 10
4742.8502605933927043
 20
238.16031215205021
 30
0.0
 11
4742.8502605933927043
 21
238.164300844250306
 31
0.0
  0
LINE
  5
CC42
  8
0
 10
4742.8502605933927043
 20
238.2235187229503026
 30
0.0
 11
4742.8502605933927043
 21
238.2357988717502053
 31
0.0
  0
LINE
  5
CC43
  8
0
 10
4742.8502605933927043
 20
238.2949275046501896
 30
0.0
 11
4742.8502605933927043
 21
238.3072459311501916
 31
0.0
  0
LINE
  5
CC44
  8
0
 10
4742.8502605933927043
 20
238.3663292636501865
 30
0.0
 11
4742.8502605933927043
 21
238.3768475850502
 31
0.0
  0
LINE
  5
CC45
  8
0
 10
4742.7912054752932818
 20
238.1012570339501906
 30
0.0
 11
4742.8030164988931574
 21
238.1175675295502003
 31
0.0
  0
LINE
  5
CC46
  8
0
 10
4742.8310537688930708
 20
238.1417405522502975
 30
0.0
 11
4742.8502605933927043
 21
238.16031215205021
 31
0.0
  0
LINE
  5
CC47
  8
0
 10
4742.0746718231930572
 20
238.3682011815502051
 30
0.0
 11
4742.0274259476937004
 21
238.3428476806502943
 31
0.0
  0
LINE
  5
CC48
  8
0
 10
4742.0746707657926891
 20
238.2967154921502981
 30
0.0
 11
4742.0274259476937004
 21
238.2714028625501896
 31
0.0
  0
LINE
  5
CC49
  8
0
 10
4742.0746794127935573
 20
238.2252857600502125
 30
0.0
 11
4742.0274259476937004
 21
238.2000242990501988
 31
0.0
  0
LINE
  5
CC4A
  8
0
 10
4742.0746943067933898
 20
238.1539247782503139
 30
0.0
 11
4742.0482343433932328
 21
238.1395037563501944
 31
0.0
  0
LINE
  5
CC4B
  8
0
 10
4742.8030163920930136
 20
238.3417345678502102
 30
0.0
 11
4742.8502605933927043
 21
238.3663292636501865
 31
0.0
  0
LINE
  5
CC4C
  8
0
 10
4742.8030125722925732
 20
238.2703175941502138
 30
0.0
 11
4742.8502605933927043
 21
238.2949275046501896
 31
0.0
  0
LINE
  5
CC4D
  8
0
 10
4742.8029997849926076
 20
238.1988919996501863
 30
0.0
 11
4742.8502605933927043
 21
238.2235187229503026
 31
0.0
  0
LINE
  5
CC4E
  8
0
 10
4742.8030164988931574
 20
238.1274727423503066
 30
0.0
 11
4742.8310537688930708
 21
238.1417405522502975
 31
0.0
  0
ARC
  5
CC4F
  8
0
 10
4742.0451613488467046
 20
238.424110545203888
 30
0.0
 40
0.0314772029997974
 50
359.9656601509407778
 51
90.0343398490771136
  0
ARC
  5
CC50
  8
0
 10
4742.064827522493033
 20
238.3886586087502053
 30
0.0
 40
0.0118110236
 50
305.4721582353070062
 51
0.0
  0
ARC
  5
CC51
  8
0
 10
4741.9863195532307145
 20
238.4677178292463964
 30
0.0
 40
0.0121338209374079
 50
184.7567605018427059
 51
268.578485932154706
  0
ARC
  5
CC52
  8
0
 10
4742.8128590185933717
 20
238.3886586087502053
 30
0.0
 40
0.0118110236
 50
180.0
 51
270.0
  0
ARC
  5
CC53
  8
0
 10
4742.4831065185771877
 20
243.6285286088400994
 30
0.0
 40
3.081299919382757
 50
90.8230891490430139
 51
98.2134180696353951
  0
ARC
  5
CC54
  8
0
 10
4735.5880564158424022
 20
237.8878206074440129
 30
0.0
 40
6.4123549680544647
 50
5.1795684234481953
 51
9.0280006441374425
  0
ARC
  5
CC55
  8
0
 10
4743.2264616149159338
 20
239.0837007987813934
 30
0.0
 40
1.319194516651677
 50
180.6157209343438126
 51
188.2665523266493892
  0
ARC
  5
CC56
  8
0
 10
4740.5911227089973181
 20
241.9281902271551132
 30
0.0
 40
1.3163231449275361
 50
359.2846845723926776
 51
5.3766221414511532
  0
ARC
  5
CC57
  8
0
 10
4742.4653764495742507
 20
244.9470170189881912
 30
0.0
 40
2.9498497172183362
 50
258.9828999640669167
 51
269.4846314834471173
  0
ARC
  5
CC58
  8
0
 10
4742.4170185899183707
 20
244.6070553140297932
 30
0.0
 40
2.6069709017272178
 50
230.2779002223581131
 51
258.5982679290740975
  0
ARC
  5
CC59
  8
0
 10
4742.3060417807873819
 20
244.4765225545988017
 30
0.0
 40
2.4356506518290861
 50
203.1479270891653073
 51
230.3235199715759052
  0
ARC
  5
CC5A
  8
0
 10
4742.963670991818617
 20
244.5832211520080079
 30
0.0
 40
3.0864512422479642
 50
182.4202683205070912
 51
200.1687976398353044
  0
ARC
  5
CC5B
  8
0
 10
4742.7958950018937685
 20
244.5222041301757088
 30
0.0
 40
2.9167458733332379
 50
165.4780291637648872
 51
181.3618515892879941
  0
ARC
  5
CC5C
  8
0
 10
4742.3647329321192956
 20
244.5946059729670026
 30
0.0
 40
2.4814952730844109
 50
119.6024421323448053
 51
164.6000111023552961
  0
ARC
  5
CC5D
  8
0
 10
4742.5639440548648054
 20
244.004862222621199
 30
0.0
 40
3.0949227424489618
 50
92.3166007232236865
 51
117.4153214188439023
  0
ARC
  5
CC5E
  8
0
 10
4742.5087374656786778
 20
243.7239982045554996
 30
0.0
 40
3.1421056276856412
 50
91.2746142863753818
 51
106.1097787216932034
  0
ARC
  5
CC5F
  8
0
 10
4742.4141695692269423
 20
244.2567563336668002
 30
0.0
 40
2.6046505867736331
 50
107.3631771402850035
 51
126.1241847555945981
  0
ARC
  5
CC60
  8
0
 10
4742.3485794026446456
 20
244.3469167562913924
 30
0.0
 40
2.4931564592616691
 50
126.1281619683538935
 51
143.897949984439208
  0
ARC
  5
CC61
  8
0
 10
4742.2607812293981624
 20
244.4117544212556083
 30
0.0
 40
2.3840143736508361
 50
143.9136655759920984
 51
163.1337060941326911
  0
ARC
  5
CC62
  8
0
 10
4742.6443893636605935
 20
244.363617335785591
 30
0.0
 40
2.7658572236151429
 50
164.4851647709737961
 51
178.1505041954987121
  0
ARC
  5
CC63
  8
0
 10
4742.5419042032690413
 20
243.0789474297552886
 30
0.0
 40
3.7079387371608972
 50
91.592722389488344
 51
99.0250607955886295
  0
ARC
  5
CC64
  8
0
 10
4742.4300863499893239
 20
244.228601269330909
 30
0.0
 40
2.5559335764155451
 50
100.5923813353412015
 51
117.0377301467391931
  0
ARC
  5
CC65
  8
0
 10
4742.3897563206710402
 20
244.3063137133896987
 30
0.0
 40
2.4683814920986871
 50
117.0238969413956056
 51
133.3404436924120091
  0
ARC
  5
CC66
  8
0
 10
4742.3065844702441609
 20
244.3916258950108897
 30
0.0
 40
2.3492522305889909
 50
133.2931911691190123
 51
155.8625802836909884
  0
ARC
  5
CC67
  8
0
 10
4742.2272168546041939
 20
244.4302981064413132
 30
0.0
 40
2.261011623854178
 50
155.9344333264290015
 51
175.9449741788940003
  0
ARC
  5
CC68
  8
0
 10
4742.2102621360099874
 20
244.4341259616788875
 30
0.0
 40
2.243830193773821
 50
176.011858249320909
 51
196.3234614132360889
  0
ARC
  5
CC69
  8
0
 10
4742.2733449455618029
 20
244.4553174164288123
 30
0.0
 40
2.310327688351911
 50
196.3881195298953912
 51
217.9919371222046891
  0
ARC
  5
CC6A
  8
0
 10
4742.3558954917107258
 20
244.5191248328135885
 30
0.0
 40
2.4146623074526432
 50
217.9794185961179096
 51
234.5016943037383044
  0
ARC
  5
CC6B
  8
0
 10
4742.4206134901060068
 20
244.6119391029365886
 30
0.0
 40
2.527806101565909
 50
234.5290353821106919
 51
256.2330703887503205
  0
ARC
  5
CC6C
  8
0
 10
4742.4889510417769998
 20
245.0894060291765868
 30
0.0
 40
3.0081898468339618
 50
257.1330562173156977
 51
269.0455733397300264
  0
ARC
  5
CC6D
  8
0
 10
4742.4267113068408435
 20
244.2422334208721111
 30
0.0
 40
2.4660391232930161
 50
98.9536149556322471
 51
124.7182313052305034
  0
ARC
  5
CC6E
  8
0
 10
4742.3440465669582409
 20
244.3601056815271022
 30
0.0
 40
2.322071679249047
 50
124.6981401799916966
 51
149.1389791648466883
  0
ARC
  5
CC6F
  8
0
 10
4742.2414938570000231
 20
244.4228817404413121
 30
0.0
 40
2.2018379203727481
 50
149.1723568924633128
 51
177.2196176008530131
  0
ARC
  5
CC70
  8
0
 10
4742.2255681406059011
 20
244.4289072466000903
 30
0.0
 40
2.1856449631991399
 50
177.3571366177083917
 51
206.7228150521968075
  0
ARC
  5
CC71
  8
0
 10
4742.3486349811309992
 20
244.4959464194892007
 30
0.0
 40
2.3257175788303992
 50
206.8346326919509011
 51
242.4396813083621112
  0
ARC
  5
CC72
  8
0
 10
4742.4293442256857816
 20
244.6243180218432087
 30
0.0
 40
2.4768946698977401
 50
242.1584990759303935
 51
258.6915948468222837
  0
ARC
  5
CC73
  8
0
 10
4742.5207140131051347
 20
245.4913980180689066
 30
0.0
 40
3.3460245941908289
 50
260.0689700359213248
 51
268.597943301586497
  0
ARC
  5
CC74
  8
0
 10
4742.3811269216739674
 20
244.444005430252588
 30
0.0
 40
0.8056969216168138
 50
189.799775567172702
 51
223.4670273811605909
  0
ARC
  5
CC75
  8
0
 10
4742.4258059286175921
 20
244.4857895682131073
 30
0.0
 40
0.8668685744533334
 50
223.4398852160686886
 51
251.9337135796297105
  0
ARC
  5
CC76
  8
0
 10
4742.4558886589029498
 20
244.6272123370457052
 30
0.0
 40
1.0107633096828941
 50
252.7986569032975979
 51
269.0337252079422115
  0
ARC
  5
CC77
  8
0
 10
4742.3604421804811864
 20
244.4704461432945948
 30
0.0
 40
0.7903679115568253
 50
154.5881896749230009
 51
191.9442841271416
  0
ARC
  5
CC78
  8
0
 10
4742.4042954236256264
 20
244.4470169687807015
 30
0.0
 40
0.8400354443196523
 50
123.0480194996389969
 51
154.4283160018617025
  0
ARC
  5
CC79
  8
0
 10
4742.4344107337101377
 20
244.4028150051834132
 30
0.0
 40
0.8935100006630966
 50
100.9919011769134016
 51
123.1209862395918009
  0
ARC
  5
CC7A
  8
0
 10
4742.5063773415349715
 20
243.6855278690948126
 30
0.0
 40
1.612715742186247
 50
92.4000193779737344
 51
98.6421992861317563
  0
ARC
  5
CC7B
  8
0
 10
4742.3594674522710193
 20
244.4371635427083049
 30
0.0
 40
0.7831949273474637
 50
166.0537249764375929
 51
189.5762460696072083
  0
ARC
  5
CC7C
  8
0
 10
4742.3851221486966097
 20
244.428039759269609
 30
0.0
 40
0.8102967240177003
 50
135.945567382489287
 51
165.8648065349090928
  0
ARC
  5
CC7D
  8
0
 10
4742.4280314316256408
 20
244.3846210420134071
 30
0.0
 40
0.8713266543252586
 50
106.7680198630008022
 51
135.8556420707963923
  0
ARC
  5
CC7E
  8
0
 10
4742.4921607485421191
 20
243.9928112809450909
 30
0.0
 40
1.266031413430029
 50
92.4136606382851369
 51
104.4306342398363938
  0
LINE
  5
CC7F
  8
0
 10
4742.9703432705928208
 20
239.0695245356502028
 30
0.0
 11
4742.9703432705928208
 21
241.9117568737501927
 31
0.0
  0
LINE
  5
CC80
  8
0
 10
4742.8010479949925866
 20
238.3886586087502053
 30
0.0
 11
4742.8010479949925866
 21
238.4240916795502869
 31
0.0
  0
ARC
  5
CC81
  8
0
 10
4742.8325251923397445
 20
238.424110545203888
 30
0.0
 40
0.0314772029997974
 50
89.9656601509228864
 51
180.0343398490591085
  0
ARC
  5
CC82
  8
0
 10
4742.8913669879539157
 20
238.4677178292463964
 30
0.0
 40
0.0121338209374079
 50
271.421514067845294
 51
355.2432394981572088
  0
ARC
  5
CC83
  8
0
 10
4742.3945800226092615
 20
243.6285286088400994
 30
0.0
 40
3.081299919382757
 50
81.7865819303646049
 51
89.1769108509569861
  0
ARC
  5
CC84
  8
0
 10
4749.2896301253431375
 20
237.8878206074440129
 30
0.0
 40
6.4123549680544647
 50
170.9719993558624935
 51
174.8204315765518118
  0
ARC
  5
CC85
  8
0
 10
4741.6512249262714249
 20
239.0837007987813934
 30
0.0
 40
1.319194516651677
 50
351.7334476733504971
 51
359.3842790656561874
  0
ARC
  5
CC86
  8
0
 10
4744.2865638321891311
 20
241.9281902271551132
 30
0.0
 40
1.3163231449275361
 50
174.6233778585487926
 51
180.7153154276072939
  0
ARC
  5
CC87
  8
0
 10
4742.412310091611289
 20
244.9470170189881912
 30
0.0
 40
2.9498497172183362
 50
270.5153685165528259
 51
281.0171000359330833
  0
ARC
  5
CC88
  8
0
 10
4742.4606679512680785
 20
244.6070553140297932
 30
0.0
 40
2.6069709017272178
 50
281.4017320709257888
 51
309.7220997776419154
  0
ARC
  5
CC89
  8
0
 10
4742.5716447603981578
 20
244.4765225545988017
 30
0.0
 40
2.4356506518290861
 50
309.6764800284240096
 51
336.8520729108346927
  0
ARC
  5
CC8A
  8
0
 10
4741.9140155493678321
 20
244.5832211520080079
 30
0.0
 40
3.0864512422479642
 50
339.8312023601646956
 51
357.5797316794927951
  0
ARC
  5
CC8B
  8
0
 10
4742.0817915392926807
 20
244.5222041301757088
 30
0.0
 40
2.9167458733332379
 50
358.6381484107120059
 51
14.5219708362350399
  0
ARC
  5
CC8C
  8
0
 10
4742.5129536090671536
 20
244.5946059729670026
 30
0.0
 40
2.4814952730844109
 50
15.3999888976446293
 51
60.3975578676551734
  0
ARC
  5
CC8D
  8
0
 10
4742.3137424863198248
 20
244.004862222621199
 30
0.0
 40
3.0949227424489729
 50
62.584678581156048
 51
87.6833992767763561
  0
ARC
  5
CC8E
  8
0
 10
4742.3689490755068618
 20
243.7239982045554996
 30
0.0
 40
3.1421056276856412
 50
73.8902212783067966
 51
88.7253857136246467
  0
ARC
  5
CC8F
  8
0
 10
4742.4635169719585974
 20
244.2567563336668002
 30
0.0
 40
2.6046505867736331
 50
53.8758152444053806
 51
72.6368228597149681
  0
ARC
  5
CC90
  8
0
 10
4742.5291071385408941
 20
244.3469167562913924
 30
0.0
 40
2.4931564592616691
 50
36.1020500155607635
 51
53.8718380316460284
  0
ARC
  5
CC91
  8
0
 10
4742.6169053117882868
 20
244.4117544212556083
 30
0.0
 40
2.3840143736508361
 50
16.8662939058672308
 51
36.0863344240079371
  0
ARC
  5
CC92
  8
0
 10
4742.2332971775240367
 20
244.363617335785591
 30
0.0
 40
2.7658572236151429
 50
1.8494958045012611
 51
15.5148352290262199
  0
ARC
  5
CC93
  8
0
 10
4742.3357823379174079
 20
243.0789474297552886
 30
0.0
 40
3.7079387371608972
 50
80.9749392044113563
 51
88.4072776105116418
  0
ARC
  5
CC94
  8
0
 10
4742.4476001911989442
 20
244.228601269330909
 30
0.0
 40
2.5559335764155451
 50
62.9622698532607501
 51
79.4076186646588411
  0
ARC
  5
CC95
  8
0
 10
4742.487930220515409
 20
244.3063137133896987
 30
0.0
 40
2.4683814920986871
 50
46.659556307587998
 51
62.9761030586044015
  0
ARC
  5
CC96
  8
0
 10
4742.5711020709422883
 20
244.3916258950108897
 30
0.0
 40
2.3492522305889909
 50
24.1374197163089583
 51
46.7068088308809592
  0
ARC
  5
CC97
  8
0
 10
4742.6504696865831647
 20
244.4302981064413132
 30
0.0
 40
2.261011623854178
 50
4.0550258211059687
 51
24.0655666735709701
  0
ARC
  5
CC98
  8
0
 10
4742.6674244051755522
 20
244.4341259616788875
 30
0.0
 40
2.243830193773821
 50
343.6765385867639111
 51
3.988141750679048
  0
ARC
  5
CC99
  8
0
 10
4742.6043415956228273
 20
244.4553174164288123
 30
0.0
 40
2.310327688351911
 50
322.0080628777952825
 51
343.6118804701046088
  0
ARC
  5
CC9A
  8
0
 10
4742.5217910494748139
 20
244.5191248328135885
 30
0.0
 40
2.4146623074526432
 50
305.4983056962616956
 51
322.0205814038820904
  0
ARC
  5
CC9B
  8
0
 10
4742.4570730510804424
 20
244.6119391029365886
 30
0.0
 40
2.527806101565909
 50
283.7669296112496227
 51
305.4709646178893081
  0
ARC
  5
CC9C
  8
0
 10
4742.3887354994094494
 20
245.0894060291765868
 30
0.0
 40
3.0081898468339618
 50
270.9544266602699736
 51
282.866943782684416
  0
ARC
  5
CC9D
  8
0
 10
4742.4509752343446962
 20
244.2422334208721111
 30
0.0
 40
2.4660391232930161
 50
55.2817686947694469
 51
81.0463850443677529
  0
ARC
  5
CC9E
  8
0
 10
4742.5336399742291178
 20
244.3601056815271022
 30
0.0
 40
2.322071679249047
 50
30.8610208351533011
 51
55.3018598200082394
  0
ARC
  5
CC9F
  8
0
 10
4742.636192684186426
 20
244.4228817404413121
 30
0.0
 40
2.2018379203727481
 50
2.7803823991469838
 51
30.8276431075367086
  0
ARC
  5
CCA0
  8
0
 10
4742.652118400580548
 20
244.4289072466000903
 30
0.0
 40
2.1856449631991399
 50
333.2771849478016861
 51
2.642863382291619
  0
ARC
  5
CCA1
  8
0
 10
4742.52905156005545
 20
244.4959464194892007
 30
0.0
 40
2.3257175788303992
 50
297.5603186916376899
 51
333.1653673080490989
  0
ARC
  5
CCA2
  8
0
 10
4742.4483423155006676
 20
244.6243180218432087
 30
0.0
 40
2.4768946698977401
 50
281.3084051531776026
 51
297.8415009240695781
  0
ARC
  5
CCA3
  8
0
 10
4742.3569725280813145
 20
245.4913980180689066
 30
0.0
 40
3.3460245941908289
 50
271.402056698413503
 51
279.9310299640786752
  0
ARC
  5
CCA4
  8
0
 10
4742.4965596195133912
 20
244.444005430252588
 30
0.0
 40
0.8056969216168138
 50
316.5329726188393806
 51
350.2002244328272127
  0
ARC
  5
CCA5
  8
0
 10
4742.4518806125679475
 20
244.4857895682131073
 30
0.0
 40
0.8668685744533334
 50
288.066286420370318
 51
316.560114783931283
  0
ARC
  5
CCA6
  8
0
 10
4742.4217978822844088
 20
244.6272123370457052
 30
0.0
 40
1.0107633096828941
 50
270.9662747920579022
 51
287.2013430967023737
  0
ARC
  5
CCA7
  8
0
 10
4742.5172443607052628
 20
244.4704461432945948
 30
0.0
 40
0.7903679115568253
 50
348.0557158728584
 51
25.4118103250770311
  0
ARC
  5
CCA8
  8
0
 10
4742.4733911175599133
 20
244.4470169687807015
 30
0.0
 40
0.8400354443196523
 50
25.5716839981382691
 51
56.9519805003609818
  0
ARC
  5
CCA9
  8
0
 10
4742.443275807477221
 20
244.4028150051834132
 30
0.0
 40
0.8935100006630966
 50
56.879013760408192
 51
79.0080988230865557
  0
ARC
  5
CCAA
  8
0
 10
4742.3713091996523872
 20
243.6855278690948126
 30
0.0
 40
1.612715742186247
 50
81.3578007138682437
 51
87.5999806220262656
  0
ARC
  5
CCAB
  8
0
 10
4742.5182190889154299
 20
244.4371635427083049
 30
0.0
 40
0.7831949273474637
 50
350.4237539303928202
 51
13.9462750235624195
  0
ARC
  5
CCAC
  8
0
 10
4742.4925643924898395
 20
244.428039759269609
 30
0.0
 40
0.8102967240177003
 50
14.1351934650908202
 51
44.0544326175106278
  0
ARC
  5
CCAD
  8
0
 10
4742.4496551095598988
 20
244.3846210420134071
 30
0.0
 40
0.8713266543252586
 50
44.1443579292035722
 51
73.2319801369991268
  0
ARC
  5
CCAE
  8
0
 10
4742.3855257926443301
 20
243.9928112809450909
 30
0.0
 40
1.266031413430029
 50
75.569365760163592
 51
87.5863393617149057
  0
ARC
  5
CCAF
  8
0
 10
4740.9747648296552143
 20
245.1199421435377133
 30
0.0
 40
0.0796207654095198
 50
13.5285838925254307
 51
83.1720255674712234
  0
ARC
  5
CCB0
  8
0
 10
4740.9715701514860484
 20
245.1242564021034127
 30
0.0
 40
0.0818668598602546
 50
315.7375309694792804
 51
10.0678259786158595
  0
ARC
  5
CCB1
  8
0
 10
4740.95549121170734
 20
245.1361928665320136
 30
0.0
 40
0.101747946844879
 50
244.4350516746125095
 51
317.2434380599549968
  0
ARC
  5
CCB2
  8
0
 10
4740.9446283688430412
 20
245.1104868819274998
 30
0.0
 40
0.0738823044496772
 50
161.2402122011999097
 51
243.4317579259563047
  0
ARC
  5
CCB3
  8
0
 10
4740.9694757910428962
 20
245.0988998101566096
 30
0.0
 40
0.1011800387555695
 50
81.6146726773285138
 51
159.5521557376023054
  0
ARC
  5
CCB4
  8
0
 10
4740.9477597282093484
 20
245.1031051358336867
 30
0.0
 40
0.0596684302398596
 50
23.1628839707594594
 51
99.8117291562966074
  0
ARC
  5
CCB5
  8
0
 10
4740.9516447538726425
 20
245.1061500281255121
 30
0.0
 40
0.0549135951803018
 50
301.5735714047074794
 51
21.8363327414080111
  0
ARC
  5
CCB6
  8
0
 10
4740.9473187282783329
 20
245.1112211227784883
 30
0.0
 40
0.0615077171455392
 50
225.0596149092596931
 51
302.5335012414709013
  0
ARC
  5
CCB7
  8
0
 10
4740.942201047101662
 20
245.106134716825693
 30
0.0
 40
0.054292372937462
 50
151.0239578700229117
 51
225.0908759320045078
  0
ARC
  5
CCB8
  8
0
 10
4740.9463087790845748
 20
245.1032686782295116
 30
0.0
 40
0.0592766008223859
 50
98.4565913926147118
 51
150.5239291439802116
  0
ARC
  5
CCB9
  8
0
 10
4740.9472923065313807
 20
245.1032986550108888
 30
0.0
 40
0.0223046072561604
 50
33.5491927688816673
 51
145.3291659136208978
  0
ARC
  5
CCBA
  8
0
 10
4740.9473036556119041
 20
245.1066748349927877
 30
0.0
 40
0.0223474279581275
 50
216.9440925052192028
 51
320.5708602965377167
  0
ARC
  5
CCBB
  8
0
 10
4740.9455126496395678
 20
245.1049700744545987
 30
0.0
 40
0.0198934507250523
 50
146.3725643927697035
 51
216.1202751206378991
  0
ARC
  5
CCBC
  8
0
 10
4740.9492375877007362
 20
245.1049624964234965
 30
0.0
 40
0.0197663169968197
 50
320.8443294098831871
 51
32.6459342234306504
  0
ARC
  5
CCBD
  8
0
 10
4741.2268938920842629
 20
245.4937008327063097
 30
0.0
 40
0.0796207654095198
 50
13.5285838925254307
 51
83.1720255674712234
  0
ARC
  5
CCBE
  8
0
 10
4741.2236992139141876
 20
245.4980150912720092
 30
0.0
 40
0.0818668598602546
 50
315.7375309694792804
 51
10.0678259786158595
  0
ARC
  5
CCBF
  8
0
 10
4741.2076202741345696
 20
245.5099515557004963
 30
0.0
 40
0.101747946844879
 50
244.4350516746125095
 51
317.2434380599549968
  0
ARC
  5
CCC0
  8
0
 10
4741.1967574312711804
 20
245.484245571096011
 30
0.0
 40
0.0738823044496772
 50
161.2402122011999097
 51
243.4317579259563047
  0
ARC
  5
CCC1
  8
0
 10
4741.2216048534719448
 20
245.4726584993252061
 30
0.0
 40
0.1011800387555695
 50
81.6146726773285138
 51
159.5521557376023054
  0
ARC
  5
CCC2
  8
0
 10
4741.199888790638397
 20
245.4768638250021979
 30
0.0
 40
0.0596684302398596
 50
23.1628839707594594
 51
99.8117291562966074
  0
ARC
  5
CCC3
  8
0
 10
4741.2037738163007816
 20
245.4799087172941086
 30
0.0
 40
0.0549135951803018
 50
301.5735714047074794
 51
21.8363327414080111
  0
ARC
  5
CCC4
  8
0
 10
4741.1994477907055625
 20
245.4849798119469995
 30
0.0
 40
0.0615077171455392
 50
225.0596149092596931
 51
302.5335012414709013
  0
ARC
  5
CCC5
  8
0
 10
4741.1943301095298011
 20
245.4798934059942042
 30
0.0
 40
0.054292372937462
 50
151.0239578700229117
 51
225.0908759320045078
  0
ARC
  5
CCC6
  8
0
 10
4741.1984378415136234
 20
245.4770273673979943
 30
0.0
 40
0.0592766008223859
 50
98.4565913926147118
 51
150.5239291439802116
  0
ARC
  5
CCC7
  8
0
 10
4741.1994213689586104
 20
245.4770573441795136
 30
0.0
 40
0.0223046072561604
 50
33.5491927688816673
 51
145.3291659136208978
  0
ARC
  5
CCC8
  8
0
 10
4741.1994327180400433
 20
245.4804335241614126
 30
0.0
 40
0.0223474279581275
 50
216.9440925052192028
 51
320.5708602965377167
  0
ARC
  5
CCC9
  8
0
 10
4741.197641712067707
 20
245.4787287636231952
 30
0.0
 40
0.0198934507250523
 50
146.3725643927697035
 51
216.1202751206378991
  0
ARC
  5
CCCA
  8
0
 10
4741.2013666501288753
 20
245.4787211855920077
 30
0.0
 40
0.0197663169968197
 50
320.8443294098831871
 51
32.6459342234306504
  0
ARC
  5
CCCB
  8
0
 10
4741.5780374101323105
 20
245.7821743358960873
 30
0.0
 40
0.0796207654095198
 50
13.5285838925254307
 51
83.1720255674712234
  0
ARC
  5
CCCC
  8
0
 10
4741.5748427319622351
 20
245.7864885944617015
 30
0.0
 40
0.0818668598602546
 50
315.7375309694792804
 51
10.0678259786158595
  0
ARC
  5
CCCD
  8
0
 10
4741.5587637921826172
 20
245.7984250588903024
 30
0.0
 40
0.101747946844879
 50
244.4350516746125095
 51
317.2434380599549968
  0
ARC
  5
CCCE
  8
0
 10
4741.5479009493183185
 20
245.7727190742857886
 30
0.0
 40
0.0738823044496772
 50
161.2402122011999097
 51
243.4317579259563047
  0
ARC
  5
CCCF
  8
0
 10
4741.5727483715190829
 20
245.7611320025148984
 30
0.0
 40
0.1011800387555695
 50
81.6146726773285138
 51
159.5521557376023054
  0
ARC
  5
CCD0
  8
0
 10
4741.5510323086846256
 20
245.765337328192004
 30
0.0
 40
0.0596684302398596
 50
23.1628839707594594
 51
99.8117291562966074
  0
ARC
  5
CCD1
  8
0
 10
4741.5549173343497387
 20
245.7683822204838862
 30
0.0
 40
0.0549135951803018
 50
301.5735714047074794
 51
21.8363327414080111
  0
ARC
  5
CCD2
  8
0
 10
4741.5505913087536101
 20
245.7734533151368055
 30
0.0
 40
0.0615077171455392
 50
225.0596149092596931
 51
302.5335012414709013
  0
ARC
  5
CCD3
  8
0
 10
4741.5454736275787582
 20
245.7683669091840102
 30
0.0
 40
0.054292372937462
 50
151.0239578700229117
 51
225.0908759320045078
  0
ARC
  5
CCD4
  8
0
 10
4741.5495813595625805
 20
245.7655008705878004
 30
0.0
 40
0.0592766008223859
 50
98.4565913926147118
 51
150.5239291439802116
  0
ARC
  5
CCD5
  8
0
 10
4741.5505648870057485
 20
245.765530847369206
 30
0.0
 40
0.0223046072561604
 50
33.5491927688816673
 51
145.3291659136208978
  0
ARC
  5
CCD6
  8
0
 10
4741.5505762360880908
 20
245.7689070273511902
 30
0.0
 40
0.0223474279581275
 50
216.9440925052192028
 51
320.5708602965377167
  0
ARC
  5
CCD7
  8
0
 10
4741.5487852301157545
 20
245.7672022668130012
 30
0.0
 40
0.0198934507250523
 50
146.3725643927697035
 51
216.1202751206378991
  0
ARC
  5
CCD8
  8
0
 10
4741.5525101681769229
 20
245.7671946887818137
 30
0.0
 40
0.0197663169968197
 50
320.8443294098831871
 51
32.6459342234306504
  0
ARC
  5
CCD9
  8
0
 10
4741.9934632823233187
 20
245.9522309234019133
 30
0.0
 40
0.0796207654095198
 50
13.5285838925254307
 51
83.1720255674712234
  0
ARC
  5
CCDA
  8
0
 10
4741.9902686041532434
 20
245.9565451819676127
 30
0.0
 40
0.0818668598602546
 50
315.7375309694792804
 51
10.0678259786158595
  0
ARC
  5
CCDB
  8
0
 10
4741.9741896643736254
 20
245.9684816463960999
 30
0.0
 40
0.101747946844879
 50
244.4350516746125095
 51
317.2434380599549968
  0
ARC
  5
CCDC
  8
0
 10
4741.9633268215093267
 20
245.9427756617916998
 30
0.0
 40
0.0738823044496772
 50
161.2402122011999097
 51
243.4317579259563047
  0
ARC
  5
CCDD
  8
0
 10
4741.9881742437110006
 20
245.9311885900208097
 30
0.0
 40
0.1011800387555695
 50
81.6146726773285138
 51
159.5521557376023054
  0
ARC
  5
CCDE
  8
0
 10
4741.9664581808756338
 20
245.9353939156978015
 30
0.0
 40
0.0596684302398596
 50
23.1628839707594594
 51
99.8117291562966074
  0
ARC
  5
CCDF
  8
0
 10
4741.9703432065407469
 20
245.9384388079897121
 30
0.0
 40
0.0549135951803018
 50
301.5735714047074794
 51
21.8363327414080111
  0
ARC
  5
CCE0
  8
0
 10
4741.9660171809446183
 20
245.943509902642603
 30
0.0
 40
0.0615077171455392
 50
225.0596149092596931
 51
302.5335012414709013
  0
ARC
  5
CCE1
  8
0
 10
4741.9608994997688569
 20
245.938423496689893
 30
0.0
 40
0.054292372937462
 50
151.0239578700229117
 51
225.0908759320045078
  0
ARC
  5
CCE2
  8
0
 10
4741.9650072317535887
 20
245.9355574580935979
 30
0.0
 40
0.0592766008223859
 50
98.4565913926147118
 51
150.5239291439802116
  0
ARC
  5
CCE3
  8
0
 10
4741.9659907591967567
 20
245.9355874348750888
 30
0.0
 40
0.0223046072561604
 50
33.5491927688816673
 51
145.3291659136208978
  0
ARC
  5
CCE4
  8
0
 10
4741.966002108279099
 20
245.9389636148569878
 30
0.0
 40
0.0223474279581275
 50
216.9440925052192028
 51
320.5708602965377167
  0
ARC
  5
CCE5
  8
0
 10
4741.9642111023058533
 20
245.9372588543187987
 30
0.0
 40
0.0198934507250523
 50
146.3725643927697035
 51
216.1202751206378991
  0
ARC
  5
CCE6
  8
0
 10
4741.9679360403670216
 20
245.9372512762876113
 30
0.0
 40
0.0197663169968197
 50
320.8443294098831871
 51
32.6459342234306504
  0
ARC
  5
CCE7
  8
0
 10
4742.264027247832928
 20
245.5968640789841118
 30
0.0
 40
0.0796207654095198
 50
13.5285838925254307
 51
83.1720255674712234
  0
ARC
  5
CCE8
  8
0
 10
4742.2608325696619431
 20
245.6011783375498112
 30
0.0
 40
0.0818668598602546
 50
315.7375309694792804
 51
10.0678259786158595
  0
ARC
  5
CCE9
  8
0
 10
4742.2447536298841442
 20
245.6131148019784121
 30
0.0
 40
0.101747946844879
 50
244.4350516746125095
 51
317.2434380599549968
  0
ARC
  5
CCEA
  8
0
 10
4742.2338907870180265
 20
245.5874088173738983
 30
0.0
 40
0.0738823044496772
 50
161.2402122011999097
 51
243.4317579259563047
  0
ARC
  5
CCEB
  8
0
 10
4742.2587382092206099
 20
245.5758217456030081
 30
0.0
 40
0.1011800387555695
 50
81.6146726773285138
 51
159.5521557376023054
  0
ARC
  5
CCEC
  8
0
 10
4742.2370221463861526
 20
245.58002707128
 30
0.0
 40
0.0596684302398596
 50
23.1628839707594594
 51
99.8117291562966074
  0
ARC
  5
CCED
  8
0
 10
4742.2409071720503562
 20
245.5830719635719106
 30
0.0
 40
0.0549135951803018
 50
301.5735714047074794
 51
21.8363327414080111
  0
ARC
  5
CCEE
  8
0
 10
4742.2365811464551371
 20
245.5881430582248868
 30
0.0
 40
0.0615077171455392
 50
225.0596149092596931
 51
302.5335012414709013
  0
ARC
  5
CCEF
  8
0
 10
4742.2314634652793757
 20
245.5830566522720915
 30
0.0
 40
0.054292372937462
 50
151.0239578700229117
 51
225.0908759320045078
  0
ARC
  5
CCF0
  8
0
 10
4742.235571197263198
 20
245.5801906136757964
 30
0.0
 40
0.0592766008223859
 50
98.4565913926147118
 51
150.5239291439802116
  0
ARC
  5
CCF1
  8
0
 10
4742.2365547247081849
 20
245.5802205904572872
 30
0.0
 40
0.0223046072561604
 50
33.5491927688816673
 51
145.3291659136208978
  0
ARC
  5
CCF2
  8
0
 10
4742.2365660737877988
 20
245.5835967704391862
 30
0.0
 40
0.0223474279581275
 50
216.9440925052192028
 51
320.5708602965377167
  0
ARC
  5
CCF3
  8
0
 10
4742.234775067816372
 20
245.5818920099009972
 30
0.0
 40
0.0198934507250523
 50
146.3725643927697035
 51
216.1202751206378991
  0
ARC
  5
CCF4
  8
0
 10
4742.2385000058766309
 20
245.581884431869895
 30
0.0
 40
0.0197663169968197
 50
320.8443294098831871
 51
32.6459342234306504
  0
ARC
  5
CCF5
  8
0
 10
4742.1555255775283513
 20
246.4222605895787979
 30
0.0
 40
0.0796207654095198
 50
13.5285838925254307
 51
83.1720255674712234
  0
ARC
  5
CCF6
  8
0
 10
4742.1523308993591854
 20
246.4265748481444973
 30
0.0
 40
0.0818668598602546
 50
315.7375309694792804
 51
10.0678259786158595
  0
ARC
  5
CCF7
  8
0
 10
4742.1362519595795675
 20
246.4385113125730982
 30
0.0
 40
0.101747946844879
 50
244.4350516746125095
 51
317.2434380599549968
  0
ARC
  5
CCF8
  8
0
 10
4742.1253891167143593
 20
246.4128053279686128
 30
0.0
 40
0.0738823044496772
 50
161.2402122011999097
 51
243.4317579259563047
  0
ARC
  5
CCF9
  8
0
 10
4742.1502365389169427
 20
246.4012182561976942
 30
0.0
 40
0.1011800387555695
 50
81.6146726773285138
 51
159.5521557376023054
  0
ARC
  5
CCFA
  8
0
 10
4742.1285204760815759
 20
246.4054235818747998
 30
0.0
 40
0.0596684302398596
 50
23.1628839707594594
 51
99.8117291562966074
  0
ARC
  5
CCFB
  8
0
 10
4742.1324055017457795
 20
246.4084684741665967
 30
0.0
 40
0.0549135951803018
 50
301.5735714047074794
 51
21.8363327414080111
  0
ARC
  5
CCFC
  8
0
 10
4742.1280794761523794
 20
246.4135395688196013
 30
0.0
 40
0.0615077171455392
 50
225.0596149092596931
 51
302.5335012414709013
  0
ARC
  5
CCFD
  8
0
 10
4742.122961794974799
 20
246.408453162866806
 30
0.0
 40
0.054292372937462
 50
151.0239578700229117
 51
225.0908759320045078
  0
ARC
  5
CCFE
  8
0
 10
4742.1270695269604403
 20
246.4055871242705962
 30
0.0
 40
0.0592766008223859
 50
98.4565913926147118
 51
150.5239291439802116
  0
ARC
  5
CCFF
  8
0
 10
4742.1280530544026988
 20
246.4056171010520018
 30
0.0
 40
0.0223046072561604
 50
33.5491927688816673
 51
145.3291659136208978
  0
ARC
  5
CD00
  8
0
 10
4742.1280644034850411
 20
246.4089932810339008
 30
0.0
 40
0.0223474279581275
 50
216.9440925052192028
 51
320.5708602965377167
  0
ARC
  5
CD01
  8
0
 10
4742.1262733975117953
 20
246.4072885204957117
 30
0.0
 40
0.0198934507250523
 50
146.3725643927697035
 51
216.1202751206378991
  0
ARC
  5
CD02
  8
0
 10
4742.1299983355729637
 20
246.4072809424646096
 30
0.0
 40
0.0197663169968197
 50
320.8443294098831871
 51
32.6459342234306504
  0
ARC
  5
CD03
  8
0
 10
4741.5885493499954464
 20
246.264910387339711
 30
0.0
 40
0.0796207654095198
 50
13.5285838925254307
 51
83.1720255674712234
  0
ARC
  5
CD04
  8
0
 10
4741.585354671825371
 20
246.2692246459054104
 30
0.0
 40
0.0818668598602546
 50
315.7375309694792804
 51
10.0678259786158595
  0
ARC
  5
CD05
  8
0
 10
4741.5692757320457531
 20
246.2811611103340113
 30
0.0
 40
0.101747946844879
 50
244.4350516746125095
 51
317.2434380599549968
  0
ARC
  5
CD06
  8
0
 10
4741.5584128891814544
 20
246.2554551257294975
 30
0.0
 40
0.0738823044496772
 50
161.2402122011999097
 51
243.4317579259563047
  0
ARC
  5
CD07
  8
0
 10
4741.5832603113831283
 20
246.2438680539586073
 30
0.0
 40
0.1011800387555695
 50
81.6146726773285138
 51
159.5521557376023054
  0
ARC
  5
CD08
  8
0
 10
4741.561544248548671
 20
246.2480733796355992
 30
0.0
 40
0.0596684302398596
 50
23.1628839707594594
 51
99.8117291562966074
  0
ARC
  5
CD09
  8
0
 10
4741.5654292742128746
 20
246.2511182719275098
 30
0.0
 40
0.0549135951803018
 50
301.5735714047074794
 51
21.8363327414080111
  0
ARC
  5
CD0A
  8
0
 10
4741.561103248618565
 20
246.2561893665804007
 30
0.0
 40
0.0615077171455392
 50
225.0596149092596931
 51
302.5335012414709013
  0
ARC
  5
CD0B
  8
0
 10
4741.5559855674409846
 20
246.2511029606276907
 30
0.0
 40
0.054292372937462
 50
151.0239578700229117
 51
225.0908759320045078
  0
ARC
  5
CD0C
  8
0
 10
4741.5600932994248069
 20
246.2482369220313956
 30
0.0
 40
0.0592766008223859
 50
98.4565913926147118
 51
150.5239291439802116
  0
ARC
  5
CD0D
  8
0
 10
4741.5610768268697939
 20
246.2482668988128864
 30
0.0
 40
0.0223046072561604
 50
33.5491927688816673
 51
145.3291659136208978
  0
ARC
  5
CD0E
  8
0
 10
4741.5610881759512267
 20
246.2516430787948138
 30
0.0
 40
0.0223474279581275
 50
216.9440925052192028
 51
320.5708602965377167
  0
ARC
  5
CD0F
  8
0
 10
4741.559297169977981
 20
246.2499383182565964
 30
0.0
 40
0.0198934507250523
 50
146.3725643927697035
 51
216.1202751206378991
  0
ARC
  5
CD10
  8
0
 10
4741.5630221080409683
 20
246.249930740225409
 30
0.0
 40
0.0197663169968197
 50
320.8443294098831871
 51
32.6459342234306504
  0
ARC
  5
CD11
  8
0
 10
4741.0817866744228013
 20
245.9564608542906115
 30
0.0
 40
0.0796207654095198
 50
13.5285838925254307
 51
83.1720255674712234
  0
ARC
  5
CD12
  8
0
 10
4741.0785919962518165
 20
245.9607751128563109
 30
0.0
 40
0.0818668598602546
 50
315.7375309694792804
 51
10.0678259786158595
  0
ARC
  5
CD13
  8
0
 10
4741.0625130564740175
 20
245.9727115772849118
 30
0.0
 40
0.101747946844879
 50
244.4350516746125095
 51
317.2434380599549968
  0
ARC
  5
CD14
  8
0
 10
4741.0516502136078998
 20
245.947005592680398
 30
0.0
 40
0.0738823044496772
 50
161.2402122011999097
 51
243.4317579259563047
  0
ARC
  5
CD15
  8
0
 10
4741.0764976358095737
 20
245.9354185209095078
 30
0.0
 40
0.1011800387555695
 50
81.6146726773285138
 51
159.5521557376023054
  0
ARC
  5
CD16
  8
0
 10
4741.0547815729769354
 20
245.9396238465864997
 30
0.0
 40
0.0596684302398596
 50
23.1628839707594594
 51
99.8117291562966074
  0
ARC
  5
CD17
  8
0
 10
4741.0586665986402295
 20
245.9426687388784103
 30
0.0
 40
0.0549135951803018
 50
301.5735714047074794
 51
21.8363327414080111
  0
ARC
  5
CD18
  8
0
 10
4741.0543405730459199
 20
245.9477398335313865
 30
0.0
 40
0.0615077171455392
 50
225.0596149092596931
 51
302.5335012414709013
  0
ARC
  5
CD19
  8
0
 10
4741.049222891869249
 20
245.9426534275785912
 30
0.0
 40
0.054292372937462
 50
151.0239578700229117
 51
225.0908759320045078
  0
ARC
  5
CD1A
  8
0
 10
4741.0533306238530713
 20
245.9397873889822961
 30
0.0
 40
0.0592766008223859
 50
98.4565913926147118
 51
150.5239291439802116
  0
ARC
  5
CD1B
  8
0
 10
4741.0543141512971488
 20
245.9398173657637869
 30
0.0
 40
0.0223046072561604
 50
33.5491927688816673
 51
145.3291659136208978
  0
ARC
  5
CD1C
  8
0
 10
4741.0543255003785816
 20
245.9431935457456859
 30
0.0
 40
0.0223474279581275
 50
216.9440925052192028
 51
320.5708602965377167
  0
ARC
  5
CD1D
  8
0
 10
4741.0525344944062454
 20
245.9414887852074969
 30
0.0
 40
0.0198934507250523
 50
146.3725643927697035
 51
216.1202751206378991
  0
ARC
  5
CD1E
  8
0
 10
4741.0562594324674137
 20
245.9414812071763947
 30
0.0
 40
0.0197663169968197
 50
320.8443294098831871
 51
32.6459342234306504
  0
ARC
  5
CD1F
  8
0
 10
4740.6900115021016973
 20
245.5247876677526051
 30
0.0
 40
0.0796207654095198
 50
13.5285838925254307
 51
83.1720255674712234
  0
ARC
  5
CD20
  8
0
 10
4740.6868168239316219
 20
245.5291019263183898
 30
0.0
 40
0.0818668598602546
 50
315.7375309694792804
 51
10.0678259786158595
  0
ARC
  5
CD21
  8
0
 10
4740.6707378841529135
 20
245.5410383907469054
 30
0.0
 40
0.101747946844879
 50
244.4350516746125095
 51
317.2434380599549968
  0
ARC
  5
CD22
  8
0
 10
4740.6598750412867957
 20
245.5153324061423916
 30
0.0
 40
0.0738823044496772
 50
161.2402122011999097
 51
243.4317579259563047
  0
ARC
  5
CD23
  8
0
 10
4740.6847224634893792
 20
245.5037453343715868
 30
0.0
 40
0.1011800387555695
 50
81.6146726773285138
 51
159.5521557376023054
  0
ARC
  5
CD24
  8
0
 10
4740.6630064006540124
 20
245.507950660048607
 30
0.0
 40
0.0596684302398596
 50
23.1628839707594594
 51
99.8117291562966074
  0
ARC
  5
CD25
  8
0
 10
4740.6668914263191255
 20
245.5109955523404892
 30
0.0
 40
0.0549135951803018
 50
301.5735714047074794
 51
21.8363327414080111
  0
ARC
  5
CD26
  8
0
 10
4740.6625654007239064
 20
245.5160666469934938
 30
0.0
 40
0.0615077171455392
 50
225.0596149092596931
 51
302.5335012414709013
  0
ARC
  5
CD27
  8
0
 10
4740.657447719548145
 20
245.5109802410406132
 30
0.0
 40
0.054292372937462
 50
151.0239578700229117
 51
225.0908759320045078
  0
ARC
  5
CD28
  8
0
 10
4740.6615554515319673
 20
245.5081142024444034
 30
0.0
 40
0.0592766008223859
 50
98.4565913926147118
 51
150.5239291439802116
  0
ARC
  5
CD29
  8
0
 10
4740.6625389789760447
 20
245.5081441792258943
 30
0.0
 40
0.0223046072561604
 50
33.5491927688816673
 51
145.3291659136208978
  0
ARC
  5
CD2A
  8
0
 10
4740.6625503280565681
 20
245.5115203592077933
 30
0.0
 40
0.0223474279581275
 50
216.9440925052192028
 51
320.5708602965377167
  0
ARC
  5
CD2B
  8
0
 10
4740.6607593220851413
 20
245.5098155986696042
 30
0.0
 40
0.0198934507250523
 50
146.3725643927697035
 51
216.1202751206378991
  0
ARC
  5
CD2C
  8
0
 10
4740.6644842601472192
 20
245.5098080206385021
 30
0.0
 40
0.0197663169968197
 50
320.8443294098831871
 51
32.6459342234306504
  0
ARC
  5
CD2D
  8
0
 10
4740.4386911730525753
 20
245.0039903712414002
 30
0.0
 40
0.0796207654095198
 50
13.5285838925254307
 51
83.1720255674712234
  0
ARC
  5
CD2E
  8
0
 10
4740.435496494884319
 20
245.0083046298072134
 30
0.0
 40
0.0818668598602546
 50
315.7375309694792804
 51
10.0678259786158595
  0
ARC
  5
CD2F
  8
0
 10
4740.419417555104701
 20
245.0202410942357005
 30
0.0
 40
0.101747946844879
 50
244.4350516746125095
 51
317.2434380599549968
  0
ARC
  5
CD30
  8
0
 10
4740.4085547122404023
 20
244.9945351096311867
 30
0.0
 40
0.0738823044496772
 50
161.2402122011999097
 51
243.4317579259563047
  0
ARC
  5
CD31
  8
0
 10
4740.4334021344411667
 20
244.9829480378602966
 30
0.0
 40
0.1011800387555695
 50
81.6146726773285138
 51
159.5521557376023054
  0
ARC
  5
CD32
  8
0
 10
4740.4116860716076189
 20
244.9871533635374021
 30
0.0
 40
0.0596684302398596
 50
23.1628839707594594
 51
99.8117291562966074
  0
ARC
  5
CD33
  8
0
 10
4740.415571097270913
 20
244.9901982558293128
 30
0.0
 40
0.0549135951803018
 50
301.5735714047074794
 51
21.8363327414080111
  0
ARC
  5
CD34
  8
0
 10
4740.4112450716756939
 20
244.9952693504822889
 30
0.0
 40
0.0615077171455392
 50
225.0596149092596931
 51
302.5335012414709013
  0
ARC
  5
CD35
  8
0
 10
4740.4061273904999325
 20
244.9901829445294084
 30
0.0
 40
0.054292372937462
 50
151.0239578700229117
 51
225.0908759320045078
  0
ARC
  5
CD36
  8
0
 10
4740.4102351224828453
 20
244.9873169059331985
 30
0.0
 40
0.0592766008223859
 50
98.4565913926147118
 51
150.5239291439802116
  0
ARC
  5
CD37
  8
0
 10
4740.4112186499269228
 20
244.9873468827146041
 30
0.0
 40
0.0223046072561604
 50
33.5491927688816673
 51
145.3291659136208978
  0
ARC
  5
CD38
  8
0
 10
4740.4112299990101747
 20
244.9907230626965884
 30
0.0
 40
0.0223474279581275
 50
216.9440925052192028
 51
320.5708602965377167
  0
ARC
  5
CD39
  8
0
 10
4740.4094389930369289
 20
244.9890183021583994
 30
0.0
 40
0.0198934507250523
 50
146.3725643927697035
 51
216.1202751206378991
  0
ARC
  5
CD3A
  8
0
 10
4740.4131639310990067
 20
244.9890107241272972
 30
0.0
 40
0.0197663169968197
 50
320.8443294098831871
 51
32.6459342234306504
  0
ARC
  5
CD3B
  8
0
 10
4741.3693037439343243
 20
244.8827245412433911
 30
0.0
 40
0.0796207654095198
 50
13.5285838925254307
 51
83.1720255674712234
  0
ARC
  5
CD3C
  8
0
 10
4741.366109065764249
 20
244.8870387998090905
 30
0.0
 40
0.0818668598602546
 50
315.7375309694792804
 51
10.0678259786158595
  0
ARC
  5
CD3D
  8
0
 10
4741.350030125984631
 20
244.8989752642376061
 30
0.0
 40
0.101747946844879
 50
244.4350516746125095
 51
317.2434380599549968
  0
ARC
  5
CD3E
  8
0
 10
4741.3391672831203323
 20
244.873269279633206
 30
0.0
 40
0.0738823044496772
 50
161.2402122011999097
 51
243.4317579259563047
  0
ARC
  5
CD3F
  8
0
 10
4741.3640147053220062
 20
244.8616822078622874
 30
0.0
 40
0.1011800387555695
 50
81.6146726773285138
 51
159.5521557376023054
  0
ARC
  5
CD40
  8
0
 10
4741.3422986424875489
 20
244.8658875335393077
 30
0.0
 40
0.0596684302398596
 50
23.1628839707594594
 51
99.8117291562966074
  0
ARC
  5
CD41
  8
0
 10
4741.346183668150843
 20
244.8689324258311899
 30
0.0
 40
0.0549135951803018
 50
301.5735714047074794
 51
21.8363327414080111
  0
ARC
  5
CD42
  8
0
 10
4741.3418576425583524
 20
244.8740035204841945
 30
0.0
 40
0.0615077171455392
 50
225.0596149092596931
 51
302.5335012414709013
  0
ARC
  5
CD43
  8
0
 10
4741.336739961380772
 20
244.8689171145313992
 30
0.0
 40
0.054292372937462
 50
151.0239578700229117
 51
225.0908759320045078
  0
ARC
  5
CD44
  8
0
 10
4741.3408476933636848
 20
244.8660510759351041
 30
0.0
 40
0.0592766008223859
 50
98.4565913926147118
 51
150.5239291439802116
  0
ARC
  5
CD45
  8
0
 10
4741.3418312208077623
 20
244.866081052716595
 30
0.0
 40
0.0223046072561604
 50
33.5491927688816673
 51
145.3291659136208978
  0
ARC
  5
CD46
  8
0
 10
4741.3418425698910141
 20
244.869457232698494
 30
0.0
 40
0.0223474279581275
 50
216.9440925052192028
 51
320.5708602965377167
  0
ARC
  5
CD47
  8
0
 10
4741.3400515639168589
 20
244.8677524721603049
 30
0.0
 40
0.0198934507250523
 50
146.3725643927697035
 51
216.1202751206378991
  0
ARC
  5
CD48
  8
0
 10
4741.3437765019798462
 20
244.8677448941292027
 30
0.0
 40
0.0197663169968197
 50
320.8443294098831871
 51
32.6459342234306504
  0
ARC
  5
CD49
  8
0
 10
4740.8443520104219715
 20
244.6947396455435921
 30
0.0
 40
0.0796207654095198
 50
13.5285838925254307
 51
83.1720255674712234
  0
ARC
  5
CD4A
  8
0
 10
4740.8411573322509867
 20
244.6990539041092916
 30
0.0
 40
0.0818668598602546
 50
315.7375309694792804
 51
10.0678259786158595
  0
ARC
  5
CD4B
  8
0
 10
4740.8250783924731877
 20
244.7109903685378072
 30
0.0
 40
0.101747946844879
 50
244.4350516746125095
 51
317.2434380599549968
  0
ARC
  5
CD4C
  8
0
 10
4740.81421554960707
 20
244.6852843839334071
 30
0.0
 40
0.0738823044496772
 50
161.2402122011999097
 51
243.4317579259563047
  0
ARC
  5
CD4D
  8
0
 10
4740.8390629718096534
 20
244.6736973121624885
 30
0.0
 40
0.1011800387555695
 50
81.6146726773285138
 51
159.5521557376023054
  0
ARC
  5
CD4E
  8
0
 10
4740.8173469089751961
 20
244.6779026378395088
 30
0.0
 40
0.0596684302398596
 50
23.1628839707594594
 51
99.8117291562966074
  0
ARC
  5
CD4F
  8
0
 10
4740.8212319346393997
 20
244.680947530131391
 30
0.0
 40
0.0549135951803018
 50
301.5735714047074794
 51
21.8363327414080111
  0
ARC
  5
CD50
  8
0
 10
4740.8169059090450901
 20
244.6860186247843956
 30
0.0
 40
0.0615077171455392
 50
225.0596149092596931
 51
302.5335012414709013
  0
ARC
  5
CD51
  8
0
 10
4740.8117882278684192
 20
244.6809322188316003
 30
0.0
 40
0.054292372937462
 50
151.0239578700229117
 51
225.0908759320045078
  0
ARC
  5
CD52
  8
0
 10
4740.8158959598522415
 20
244.6780661802353052
 30
0.0
 40
0.0592766008223859
 50
98.4565913926147118
 51
150.5239291439802116
  0
ARC
  5
CD53
  8
0
 10
4740.816879487296319
 20
244.678096157016796
 30
0.0
 40
0.0223046072561604
 50
33.5491927688816673
 51
145.3291659136208978
  0
ARC
  5
CD54
  8
0
 10
4740.8168908363777518
 20
244.681472336998695
 30
0.0
 40
0.0223474279581275
 50
216.9440925052192028
 51
320.5708602965377167
  0
ARC
  5
CD55
  8
0
 10
4740.8150998304054156
 20
244.679767576460506
 30
0.0
 40
0.0198934507250523
 50
146.3725643927697035
 51
216.1202751206378991
  0
ARC
  5
CD56
  8
0
 10
4740.8188247684665839
 20
244.6797599984294038
 30
0.0
 40
0.0197663169968197
 50
320.8443294098831871
 51
32.6459342234306504
  0
ARC
  5
CD57
  8
0
 10
4740.354944873041859
 20
244.4361282171693119
 30
0.0
 40
0.0796207654095198
 50
13.5285838925254307
 51
83.1720255674712234
  0
ARC
  5
CD58
  8
0
 10
4740.3517501948717836
 20
244.4404424757350114
 30
0.0
 40
0.0818668598602546
 50
315.7375309694792804
 51
10.0678259786158595
  0
ARC
  5
CD59
  8
0
 10
4740.3356712550939847
 20
244.4523789401634986
 30
0.0
 40
0.101747946844879
 50
244.4350516746125095
 51
317.2434380599549968
  0
ARC
  5
CD5A
  8
0
 10
4740.3248084122278669
 20
244.4266729555590985
 30
0.0
 40
0.0738823044496772
 50
161.2402122011999097
 51
243.4317579259563047
  0
ARC
  5
CD5B
  8
0
 10
4740.3496558344313598
 20
244.4150858837882083
 30
0.0
 40
0.1011800387555695
 50
81.6146726773285138
 51
159.5521557376023054
  0
ARC
  5
CD5C
  8
0
 10
4740.3279397715959931
 20
244.4192912094652002
 30
0.0
 40
0.0596684302398596
 50
23.1628839707594594
 51
99.8117291562966074
  0
ARC
  5
CD5D
  8
0
 10
4740.3318247972601966
 20
244.4223361017571108
 30
0.0
 40
0.0549135951803018
 50
301.5735714047074794
 51
21.8363327414080111
  0
ARC
  5
CD5E
  8
0
 10
4740.3274987716649775
 20
244.4274071964100017
 30
0.0
 40
0.0615077171455392
 50
225.0596149092596931
 51
302.5335012414709013
  0
ARC
  5
CD5F
  8
0
 10
4740.3223810904883067
 20
244.4223207904572917
 30
0.0
 40
0.054292372937462
 50
151.0239578700229117
 51
225.0908759320045078
  0
ARC
  5
CD60
  8
0
 10
4740.3264888224730385
 20
244.4194547518609966
 30
0.0
 40
0.0592766008223859
 50
98.4565913926147118
 51
150.5239291439802116
  0
ARC
  5
CD61
  8
0
 10
4740.3274723499171159
 20
244.4194847286424874
 30
0.0
 40
0.0223046072561604
 50
33.5491927688816673
 51
145.3291659136208978
  0
ARC
  5
CD62
  8
0
 10
4740.3274836989985488
 20
244.4228609086243864
 30
0.0
 40
0.0223474279581275
 50
216.9440925052192028
 51
320.5708602965377167
  0
ARC
  5
CD63
  8
0
 10
4740.325692693025303
 20
244.4211561480861974
 30
0.0
 40
0.0198934507250523
 50
146.3725643927697035
 51
216.1202751206378991
  0
ARC
  5
CD64
  8
0
 10
4740.3294176310882904
 20
244.4211485700550952
 30
0.0
 40
0.0197663169968197
 50
320.8443294098831871
 51
32.6459342234306504
  0
ARC
  5
CD65
  8
0
 10
4740.8449683069929961
 20
244.2514554406739933
 30
0.0
 40
0.0796207654095198
 50
13.5285838925254307
 51
83.1720255674712234
  0
ARC
  5
CD66
  8
0
 10
4740.8417736288229207
 20
244.2557696992396075
 30
0.0
 40
0.0818668598602546
 50
315.7375309694792804
 51
10.0678259786158595
  0
ARC
  5
CD67
  8
0
 10
4740.8256946890451218
 20
244.2677061636682083
 30
0.0
 40
0.101747946844879
 50
244.4350516746125095
 51
317.2434380599549968
  0
ARC
  5
CD68
  8
0
 10
4740.8148318461780946
 20
244.2420001790636945
 30
0.0
 40
0.0738823044496772
 50
161.2402122011999097
 51
243.4317579259563047
  0
ARC
  5
CD69
  8
0
 10
4740.8396792683815875
 20
244.2304131072928044
 30
0.0
 40
0.1011800387555695
 50
81.6146726773285138
 51
159.5521557376023054
  0
ARC
  5
CD6A
  8
0
 10
4740.8179632055471302
 20
244.2346184329699099
 30
0.0
 40
0.0596684302398596
 50
23.1628839707594594
 51
99.8117291562966074
  0
ARC
  5
CD6B
  8
0
 10
4740.8218482312113338
 20
244.2376633252617921
 30
0.0
 40
0.0549135951803018
 50
301.5735714047074794
 51
21.8363327414080111
  0
ARC
  5
CD6C
  8
0
 10
4740.8175222056161147
 20
244.2427344199147115
 30
0.0
 40
0.0615077171455392
 50
225.0596149092596931
 51
302.5335012414709013
  0
ARC
  5
CD6D
  8
0
 10
4740.8124045244394438
 20
244.2376480139618877
 30
0.0
 40
0.054292372937462
 50
151.0239578700229117
 51
225.0908759320045078
  0
ARC
  5
CD6E
  8
0
 10
4740.8165122564241756
 20
244.2347819753657063
 30
0.0
 40
0.0592766008223859
 50
98.4565913926147118
 51
150.5239291439802116
  0
ARC
  5
CD6F
  8
0
 10
4740.8174957838682531
 20
244.2348119521471119
 30
0.0
 40
0.0223046072561604
 50
33.5491927688816673
 51
145.3291659136208978
  0
ARC
  5
CD70
  8
0
 10
4740.8175071329487764
 20
244.2381881321290109
 30
0.0
 40
0.0223474279581275
 50
216.9440925052192028
 51
320.5708602965377167
  0
ARC
  5
CD71
  8
0
 10
4740.8157161269773496
 20
244.2364833715909072
 30
0.0
 40
0.0198934507250523
 50
146.3725643927697035
 51
216.1202751206378991
  0
ARC
  5
CD72
  8
0
 10
4740.8194410650376085
 20
244.2364757935596913
 30
0.0
 40
0.0197663169968197
 50
320.8443294098831871
 51
32.6459342234306504
  0
ARC
  5
CD73
  8
0
 10
4740.4402513814757185
 20
243.8715849055965919
 30
0.0
 40
0.0796207654095198
 50
13.5285838925254307
 51
83.1720255674712234
  0
ARC
  5
CD74
  8
0
 10
4740.4370567033065527
 20
243.8758991641622913
 30
0.0
 40
0.0818668598602546
 50
315.7375309694792804
 51
10.0678259786158595
  0
ARC
  5
CD75
  8
0
 10
4740.4209777635287537
 20
243.8878356285908069
 30
0.0
 40
0.101747946844879
 50
244.4350516746125095
 51
317.2434380599549968
  0
ARC
  5
CD76
  8
0
 10
4740.4101149206617265
 20
243.8621296439862931
 30
0.0
 40
0.0738823044496772
 50
161.2402122011999097
 51
243.4317579259563047
  0
ARC
  5
CD77
  8
0
 10
4740.4349623428652194
 20
243.8505425722154882
 30
0.0
 40
0.1011800387555695
 50
81.6146726773285138
 51
159.5521557376023054
  0
ARC
  5
CD78
  8
0
 10
4740.4132462800298526
 20
243.8547478978925085
 30
0.0
 40
0.0596684302398596
 50
23.1628839707594594
 51
99.8117291562966074
  0
ARC
  5
CD79
  8
0
 10
4740.4171313056949657
 20
243.8577927901843907
 30
0.0
 40
0.0549135951803018
 50
301.5735714047074794
 51
21.8363327414080111
  0
ARC
  5
CD7A
  8
0
 10
4740.4128052800997466
 20
243.86286388483731
 30
0.0
 40
0.0615077171455392
 50
225.0596149092596931
 51
302.5335012414709013
  0
ARC
  5
CD7B
  8
0
 10
4740.4076875989230757
 20
243.8577774788844863
 30
0.0
 40
0.054292372937462
 50
151.0239578700229117
 51
225.0908759320045078
  0
ARC
  5
CD7C
  8
0
 10
4740.411795330906898
 20
243.8549114402883049
 30
0.0
 40
0.0592766008223859
 50
98.4565913926147118
 51
150.5239291439802116
  0
ARC
  5
CD7D
  8
0
 10
4740.4127788583509755
 20
243.8549414170697105
 30
0.0
 40
0.0223046072561604
 50
33.5491927688816673
 51
145.3291659136208978
  0
ARC
  5
CD7E
  8
0
 10
4740.4127902074333178
 20
243.8583175970516947
 30
0.0
 40
0.0223474279581275
 50
216.9440925052192028
 51
320.5708602965377167
  0
ARC
  5
CD7F
  8
0
 10
4740.4109992014600721
 20
243.8566128365135057
 30
0.0
 40
0.0198934507250523
 50
146.3725643927697035
 51
216.1202751206378991
  0
ARC
  5
CD80
  8
0
 10
4740.4147241395221499
 20
243.8566052584822899
 30
0.0
 40
0.0197663169968197
 50
320.8443294098831871
 51
32.6459342234306504
  0
ARC
  5
CD81
  8
0
 10
4740.9762774610853739
 20
243.8244202071055042
 30
0.0
 40
0.0796207654095198
 50
13.5285838925254307
 51
83.1720255674712234
  0
ARC
  5
CD82
  8
0
 10
4740.9730827829143891
 20
243.8287344656712889
 30
0.0
 40
0.0818668598602546
 50
315.7375309694792804
 51
10.0678259786158595
  0
ARC
  5
CD83
  8
0
 10
4740.9570038431347712
 20
243.8406709300998045
 30
0.0
 40
0.101747946844879
 50
244.4350516746125095
 51
317.2434380599549968
  0
ARC
  5
CD84
  8
0
 10
4740.9461410002713819
 20
243.8149649454952907
 30
0.0
 40
0.0738823044496772
 50
161.2402122011999097
 51
243.4317579259563047
  0
ARC
  5
CD85
  8
0
 10
4740.9709884224721463
 20
243.8033778737244859
 30
0.0
 40
0.1011800387555695
 50
81.6146726773285138
 51
159.5521557376023054
  0
ARC
  5
CD86
  8
0
 10
4740.9492723596376891
 20
243.8075831994015061
 30
0.0
 40
0.0596684302398596
 50
23.1628839707594594
 51
99.8117291562966074
  0
ARC
  5
CD87
  8
0
 10
4740.9531573853018926
 20
243.8106280916933883
 30
0.0
 40
0.0549135951803018
 50
301.5735714047074794
 51
21.8363327414080111
  0
ARC
  5
CD88
  8
0
 10
4740.9488313597066735
 20
243.8156991863463077
 30
0.0
 40
0.0615077171455392
 50
225.0596149092596931
 51
302.5335012414709013
  0
ARC
  5
CD89
  8
0
 10
4740.9437136785309121
 20
243.8106127803935124
 30
0.0
 40
0.054292372937462
 50
151.0239578700229117
 51
225.0908759320045078
  0
ARC
  5
CD8A
  8
0
 10
4740.947821410513825
 20
243.8077467417973025
 30
0.0
 40
0.0592766008223859
 50
98.4565913926147118
 51
150.5239291439802116
  0
ARC
  5
CD8B
  8
0
 10
4740.9488049379588119
 20
243.8077767185787934
 30
0.0
 40
0.0223046072561604
 50
33.5491927688816673
 51
145.3291659136208978
  0
ARC
  5
CD8C
  8
0
 10
4740.9488162870411543
 20
243.8111528985606924
 30
0.0
 40
0.0223474279581275
 50
216.9440925052192028
 51
320.5708602965377167
  0
ARC
  5
CD8D
  8
0
 10
4740.9470252810679085
 20
243.8094481380223897
 30
0.0
 40
0.0198934507250523
 50
146.3725643927697035
 51
216.1202751206378991
  0
ARC
  5
CD8E
  8
0
 10
4740.9507502191299864
 20
243.8094405599912875
 30
0.0
 40
0.0197663169968197
 50
320.8443294098831871
 51
32.6459342234306504
  0
ARC
  5
CD8F
  8
0
 10
4741.3687477475668857
 20
244.124140101930692
 30
0.0
 40
0.0796207654095198
 50
13.5285838925254307
 51
83.1720255674712234
  0
ARC
  5
CD90
  8
0
 10
4741.3655530693959008
 20
244.1284543604963915
 30
0.0
 40
0.0818668598602546
 50
315.7375309694792804
 51
10.0678259786158595
  0
ARC
  5
CD91
  8
0
 10
4741.3494741296181019
 20
244.1403908249249071
 30
0.0
 40
0.101747946844879
 50
244.4350516746125095
 51
317.2434380599549968
  0
ARC
  5
CD92
  8
0
 10
4741.3386112867519842
 20
244.1146848403203933
 30
0.0
 40
0.0738823044496772
 50
161.2402122011999097
 51
243.4317579259563047
  0
ARC
  5
CD93
  8
0
 10
4741.3634587089545676
 20
244.1030977685495884
 30
0.0
 40
0.1011800387555695
 50
81.6146726773285138
 51
159.5521557376023054
  0
ARC
  5
CD94
  8
0
 10
4741.3417426461192008
 20
244.1073030942266087
 30
0.0
 40
0.0596684302398596
 50
23.1628839707594594
 51
99.8117291562966074
  0
ARC
  5
CD95
  8
0
 10
4741.3456276717843139
 20
244.1103479865184909
 30
0.0
 40
0.0549135951803018
 50
301.5735714047074794
 51
21.8363327414080111
  0
ARC
  5
CD96
  8
0
 10
4741.3413016461900042
 20
244.1154190811714102
 30
0.0
 40
0.0615077171455392
 50
225.0596149092596931
 51
302.5335012414709013
  0
ARC
  5
CD97
  8
0
 10
4741.3361839650133334
 20
244.1103326752187002
 30
0.0
 40
0.054292372937462
 50
151.0239578700229117
 51
225.0908759320045078
  0
ARC
  5
CD98
  8
0
 10
4741.3402916969971557
 20
244.1074666366224051
 30
0.0
 40
0.0592766008223859
 50
98.4565913926147118
 51
150.5239291439802116
  0
ARC
  5
CD99
  8
0
 10
4741.3412752244412331
 20
244.1074966134038107
 30
0.0
 40
0.0223046072561604
 50
33.5491927688816673
 51
145.3291659136208978
  0
ARC
  5
CD9A
  8
0
 10
4741.3412865735235755
 20
244.1108727933857949
 30
0.0
 40
0.0223474279581275
 50
216.9440925052192028
 51
320.5708602965377167
  0
ARC
  5
CD9B
  8
0
 10
4741.3394955675503297
 20
244.1091680328476059
 30
0.0
 40
0.0198934507250523
 50
146.3725643927697035
 51
216.1202751206378991
  0
ARC
  5
CD9C
  8
0
 10
4741.3432205056124076
 20
244.10916045481639
 30
0.0
 40
0.0197663169968197
 50
320.8443294098831871
 51
32.6459342234306504
  0
ARC
  5
CD9D
  8
0
 10
4740.6896995553770466
 20
243.3531761716729136
 30
0.0
 40
0.0796207654095198
 50
13.5285838925254307
 51
83.1720255674712234
  0
ARC
  5
CD9E
  8
0
 10
4740.6865048772078808
 20
243.357490430238613
 30
0.0
 40
0.0818668598602546
 50
315.7375309694792804
 51
10.0678259786158595
  0
ARC
  5
CD9F
  8
0
 10
4740.6704259374291723
 20
243.3694268946672139
 30
0.0
 40
0.101747946844879
 50
244.4350516746125095
 51
317.2434380599549968
  0
ARC
  5
CDA0
  8
0
 10
4740.6595630945630546
 20
243.3437209100627001
 30
0.0
 40
0.0738823044496772
 50
161.2402122011999097
 51
243.4317579259563047
  0
ARC
  5
CDA1
  8
0
 10
4740.684410516765638
 20
243.33213383829181
 30
0.0
 40
0.1011800387555695
 50
81.6146726773285138
 51
159.5521557376023054
  0
ARC
  5
CDA2
  8
0
 10
4740.6626944539311808
 20
243.3363391639688018
 30
0.0
 40
0.0596684302398596
 50
23.1628839707594594
 51
99.8117291562966074
  0
ARC
  5
CDA3
  8
0
 10
4740.6665794795953843
 20
243.3393840562607124
 30
0.0
 40
0.0549135951803018
 50
301.5735714047074794
 51
21.8363327414080111
  0
ARC
  5
CDA4
  8
0
 10
4740.6622534540001652
 20
243.3444551509136886
 30
0.0
 40
0.0615077171455392
 50
225.0596149092596931
 51
302.5335012414709013
  0
ARC
  5
CDA5
  8
0
 10
4740.6571357728244038
 20
243.3393687449608933
 30
0.0
 40
0.054292372937462
 50
151.0239578700229117
 51
225.0908759320045078
  0
ARC
  5
CDA6
  8
0
 10
4740.6612435048082261
 20
243.3365027063645982
 30
0.0
 40
0.0592766008223859
 50
98.4565913926147118
 51
150.5239291439802116
  0
ARC
  5
CDA7
  8
0
 10
4740.6622270322523036
 20
243.3365326831460891
 30
0.0
 40
0.0223046072561604
 50
33.5491927688816673
 51
145.3291659136208978
  0
ARC
  5
CDA8
  8
0
 10
4740.662238381332827
 20
243.3399088631279881
 30
0.0
 40
0.0223474279581275
 50
216.9440925052192028
 51
320.5708602965377167
  0
ARC
  5
CDA9
  8
0
 10
4740.6604473753614002
 20
243.338204102589799
 30
0.0
 40
0.0198934507250523
 50
146.3725643927697035
 51
216.1202751206378991
  0
ARC
  5
CDAA
  8
0
 10
4740.6641723134225685
 20
243.3381965245586969
 30
0.0
 40
0.0197663169968197
 50
320.8443294098831871
 51
32.6459342234306504
  0
ARC
  5
CDAB
  8
0
 10
4741.2256458677857154
 20
243.4516959742904021
 30
0.0
 40
0.0796207654095198
 50
13.5285838925254307
 51
83.1720255674712234
  0
ARC
  5
CDAC
  8
0
 10
4741.22245118961564
 20
243.4560102328561015
 30
0.0
 40
0.0818668598602546
 50
315.7375309694792804
 51
10.0678259786158595
  0
ARC
  5
CDAD
  8
0
 10
4741.2063722498378411
 20
243.4679466972845887
 30
0.0
 40
0.101747946844879
 50
244.4350516746125095
 51
317.2434380599549968
  0
ARC
  5
CDAE
  8
0
 10
4741.1955094069717234
 20
243.4422407126801033
 30
0.0
 40
0.0738823044496772
 50
161.2402122011999097
 51
243.4317579259563047
  0
ARC
  5
CDAF
  8
0
 10
4741.2203568291743068
 20
243.4306536409092985
 30
0.0
 40
0.1011800387555695
 50
81.6146726773285138
 51
159.5521557376023054
  0
ARC
  5
CDB0
  8
0
 10
4741.1986407663398495
 20
243.4348589665862903
 30
0.0
 40
0.0596684302398596
 50
23.1628839707594594
 51
99.8117291562966074
  0
ARC
  5
CDB1
  8
0
 10
4741.2025257920040531
 20
243.4379038588780872
 30
0.0
 40
0.0549135951803018
 50
301.5735714047074794
 51
21.8363327414080111
  0
ARC
  5
CDB2
  8
0
 10
4741.1981997664097435
 20
243.4429749535310918
 30
0.0
 40
0.0615077171455392
 50
225.0596149092596931
 51
302.5335012414709013
  0
ARC
  5
CDB3
  8
0
 10
4741.1930820852330726
 20
243.4378885475782965
 30
0.0
 40
0.054292372937462
 50
151.0239578700229117
 51
225.0908759320045078
  0
ARC
  5
CDB4
  8
0
 10
4741.1971898172159854
 20
243.4350225089820867
 30
0.0
 40
0.0592766008223859
 50
98.4565913926147118
 51
150.5239291439802116
  0
ARC
  5
CDB5
  8
0
 10
4741.1981733446609724
 20
243.4350524857634923
 30
0.0
 40
0.0223046072561604
 50
33.5491927688816673
 51
145.3291659136208978
  0
ARC
  5
CDB6
  8
0
 10
4741.1981846937433147
 20
243.4384286657453913
 30
0.0
 40
0.0223474279581275
 50
216.9440925052192028
 51
320.5708602965377167
  0
ARC
  5
CDB7
  8
0
 10
4741.1963936877700689
 20
243.4367239052072023
 30
0.0
 40
0.0198934507250523
 50
146.3725643927697035
 51
216.1202751206378991
  0
ARC
  5
CDB8
  8
0
 10
4741.2001186258321468
 20
243.4367163271761001
 30
0.0
 40
0.0197663169968197
 50
320.8443294098831871
 51
32.6459342234306504
  0
ARC
  5
CDB9
  8
0
 10
4741.5740860849637102
 20
243.7896583069820906
 30
0.0
 40
0.0796207654095198
 50
13.5285838925254307
 51
83.1720255674712234
  0
ARC
  5
CDBA
  8
0
 10
4741.5708914067936348
 20
243.7939725655477901
 30
0.0
 40
0.0818668598602546
 50
315.7375309694792804
 51
10.0678259786158595
  0
ARC
  5
CDBB
  8
0
 10
4741.5548124670158359
 20
243.8059090299763056
 30
0.0
 40
0.101747946844879
 50
244.4350516746125095
 51
317.2434380599549968
  0
ARC
  5
CDBC
  8
0
 10
4741.5439496241497181
 20
243.7802030453717919
 30
0.0
 40
0.0738823044496772
 50
161.2402122011999097
 51
243.4317579259563047
  0
ARC
  5
CDBD
  8
0
 10
4741.5687970463523015
 20
243.7686159736009017
 30
0.0
 40
0.1011800387555695
 50
81.6146726773285138
 51
159.5521557376023054
  0
ARC
  5
CDBE
  8
0
 10
4741.5470809835178443
 20
243.7728212992780072
 30
0.0
 40
0.0596684302398596
 50
23.1628839707594594
 51
99.8117291562966074
  0
ARC
  5
CDBF
  8
0
 10
4741.5509660091820479
 20
243.7758661915698895
 30
0.0
 40
0.0549135951803018
 50
301.5735714047074794
 51
21.8363327414080111
  0
ARC
  5
CDC0
  8
0
 10
4741.5466399835877382
 20
243.7809372862228088
 30
0.0
 40
0.0615077171455392
 50
225.0596149092596931
 51
302.5335012414709013
  0
ARC
  5
CDC1
  8
0
 10
4741.5415223024110674
 20
243.7758508802700135
 30
0.0
 40
0.054292372937462
 50
151.0239578700229117
 51
225.0908759320045078
  0
ARC
  5
CDC2
  8
0
 10
4741.5456300343939802
 20
243.7729848416738037
 30
0.0
 40
0.0592766008223859
 50
98.4565913926147118
 51
150.5239291439802116
  0
ARC
  5
CDC3
  8
0
 10
4741.5466135618389671
 20
243.7730148184552093
 30
0.0
 40
0.0223046072561604
 50
33.5491927688816673
 51
145.3291659136208978
  0
ARC
  5
CDC4
  8
0
 10
4741.5466249109213095
 20
243.7763909984371082
 30
0.0
 40
0.0223474279581275
 50
216.9440925052192028
 51
320.5708602965377167
  0
ARC
  5
CDC5
  8
0
 10
4741.5448339049480637
 20
243.7746862378990045
 30
0.0
 40
0.0198934507250523
 50
146.3725643927697035
 51
216.1202751206378991
  0
ARC
  5
CDC6
  8
0
 10
4741.5485588430092321
 20
243.7746786598677886
 30
0.0
 40
0.0197663169968197
 50
320.8443294098831871
 51
32.6459342234306504
  0
ARC
  5
CDC7
  8
0
 10
4741.0820461552211782
 20
242.9195768731854059
 30
0.0
 40
0.0796207654095198
 50
13.5285838925254307
 51
83.1720255674712234
  0
ARC
  5
CDC8
  8
0
 10
4741.0788514770511028
 20
242.9238911317511054
 30
0.0
 40
0.0818668598602546
 50
315.7375309694792804
 51
10.0678259786158595
  0
ARC
  5
CDC9
  8
0
 10
4741.0627725372723944
 20
242.9358275961797062
 30
0.0
 40
0.101747946844879
 50
244.4350516746125095
 51
317.2434380599549968
  0
ARC
  5
CDCA
  8
0
 10
4741.0519096944071862
 20
242.9101216115751924
 30
0.0
 40
0.0738823044496772
 50
161.2402122011999097
 51
243.4317579259563047
  0
ARC
  5
CDCB
  8
0
 10
4741.0767571166088601
 20
242.8985345398043023
 30
0.0
 40
0.1011800387555695
 50
81.6146726773285138
 51
159.5521557376023054
  0
ARC
  5
CDCC
  8
0
 10
4741.0550410537753123
 20
242.9027398654812941
 30
0.0
 40
0.0596684302398596
 50
23.1628839707594594
 51
99.8117291562966074
  0
ARC
  5
CDCD
  8
0
 10
4741.0589260794376969
 20
242.9057847577732048
 30
0.0
 40
0.0549135951803018
 50
301.5735714047074794
 51
21.8363327414080111
  0
ARC
  5
CDCE
  8
0
 10
4741.0546000538442968
 20
242.9108558524262094
 30
0.0
 40
0.0615077171455392
 50
225.0596149092596931
 51
302.5335012414709013
  0
ARC
  5
CDCF
  8
0
 10
4741.0494823726676259
 20
242.9057694464734141
 30
0.0
 40
0.054292372937462
 50
151.0239578700229117
 51
225.0908759320045078
  0
ARC
  5
CDD0
  8
0
 10
4741.0535901046514482
 20
242.9029034078770906
 30
0.0
 40
0.0592766008223859
 50
98.4565913926147118
 51
150.5239291439802116
  0
ARC
  5
CDD1
  8
0
 10
4741.0545736320946162
 20
242.9029333846586098
 30
0.0
 40
0.0223046072561604
 50
33.5491927688816673
 51
145.3291659136208978
  0
ARC
  5
CDD2
  8
0
 10
4741.054584981177868
 20
242.9063095646405088
 30
0.0
 40
0.0223474279581275
 50
216.9440925052192028
 51
320.5708602965377167
  0
ARC
  5
CDD3
  8
0
 10
4741.0527939752046223
 20
242.9046048041022914
 30
0.0
 40
0.0198934507250523
 50
146.3725643927697035
 51
216.1202751206378991
  0
ARC
  5
CDD4
  8
0
 10
4741.0565189132667001
 20
242.9045972260711892
 30
0.0
 40
0.0197663169968197
 50
320.8443294098831871
 51
32.6459342234306504
  0
ARC
  5
CDD5
  8
0
 10
4741.5794948233260584
 20
243.1595362005317895
 30
0.0
 40
0.0796207654095198
 50
13.5285838925254307
 51
83.1720255674712234
  0
ARC
  5
CDD6
  8
0
 10
4741.576300145155983
 20
243.1638504590976027
 30
0.0
 40
0.0818668598602546
 50
315.7375309694792804
 51
10.0678259786158595
  0
ARC
  5
CDD7
  8
0
 10
4741.5602212053781841
 20
243.1757869235260898
 30
0.0
 40
0.101747946844879
 50
244.4350516746125095
 51
317.2434380599549968
  0
ARC
  5
CDD8
  8
0
 10
4741.5493583625120664
 20
243.1500809389216045
 30
0.0
 40
0.0738823044496772
 50
161.2402122011999097
 51
243.4317579259563047
  0
ARC
  5
CDD9
  8
0
 10
4741.5742057847137403
 20
243.1384938671507996
 30
0.0
 40
0.1011800387555695
 50
81.6146726773285138
 51
159.5521557376023054
  0
ARC
  5
CDDA
  8
0
 10
4741.552489721879283
 20
243.1426991928277914
 30
0.0
 40
0.0596684302398596
 50
23.1628839707594594
 51
99.8117291562966074
  0
ARC
  5
CDDB
  8
0
 10
4741.5563747475443961
 20
243.145744085119702
 30
0.0
 40
0.0549135951803018
 50
301.5735714047074794
 51
21.8363327414080111
  0
ARC
  5
CDDC
  8
0
 10
4741.552048721949177
 20
243.150815179772593
 30
0.0
 40
0.0615077171455392
 50
225.0596149092596931
 51
302.5335012414709013
  0
ARC
  5
CDDD
  8
0
 10
4741.5469310407715966
 20
243.1457287738197977
 30
0.0
 40
0.054292372937462
 50
151.0239578700229117
 51
225.0908759320045078
  0
ARC
  5
CDDE
  8
0
 10
4741.5510387727563284
 20
243.1428627352235878
 30
0.0
 40
0.0592766008223859
 50
98.4565913926147118
 51
150.5239291439802116
  0
ARC
  5
CDDF
  8
0
 10
4741.5520223002004059
 20
243.1428927120049934
 30
0.0
 40
0.0223046072561604
 50
33.5491927688816673
 51
145.3291659136208978
  0
ARC
  5
CDE0
  8
0
 10
4741.5520336492818387
 20
243.1462688919868924
 30
0.0
 40
0.0223474279581275
 50
216.9440925052192028
 51
320.5708602965377167
  0
ARC
  5
CDE1
  8
0
 10
4741.550242643308593
 20
243.1445641314487887
 30
0.0
 40
0.0198934507250523
 50
146.3725643927697035
 51
216.1202751206378991
  0
ARC
  5
CDE2
  8
0
 10
4741.5539675813715803
 20
243.1445565534176012
 30
0.0
 40
0.0197663169968197
 50
320.8443294098831871
 51
32.6459342234306504
  0
ARC
  5
CDE3
  8
0
 10
4742.0052629298434113
 20
242.976556909980701
 30
0.0
 40
0.0796207654095198
 50
13.5285838925254307
 51
83.1720255674712234
  0
ARC
  5
CDE4
  8
0
 10
4742.0020682516733359
 20
242.9808711685464004
 30
0.0
 40
0.0818668598602546
 50
315.7375309694792804
 51
10.0678259786158595
  0
ARC
  5
CDE5
  8
0
 10
4741.985989311893718
 20
242.9928076329748876
 30
0.0
 40
0.101747946844879
 50
244.4350516746125095
 51
317.2434380599549968
  0
ARC
  5
CDE6
  8
0
 10
4741.9751264690276003
 20
242.9671016483704022
 30
0.0
 40
0.0738823044496772
 50
161.2402122011999097
 51
243.4317579259563047
  0
ARC
  5
CDE7
  8
0
 10
4741.9999738912310931
 20
242.9555145765995974
 30
0.0
 40
0.1011800387555695
 50
81.6146726773285138
 51
159.5521557376023054
  0
ARC
  5
CDE8
  8
0
 10
4741.9782578283957264
 20
242.9597199022765892
 30
0.0
 40
0.0596684302398596
 50
23.1628839707594594
 51
99.8117291562966074
  0
ARC
  5
CDE9
  8
0
 10
4741.9821428540608395
 20
242.9627647945684998
 30
0.0
 40
0.0549135951803018
 50
301.5735714047074794
 51
21.8363327414080111
  0
ARC
  5
CDEA
  8
0
 10
4741.9778168284647109
 20
242.9678358892213907
 30
0.0
 40
0.0615077171455392
 50
225.0596149092596931
 51
302.5335012414709013
  0
ARC
  5
CDEB
  8
0
 10
4741.9726991472889495
 20
242.9627494832685954
 30
0.0
 40
0.054292372937462
 50
151.0239578700229117
 51
225.0908759320045078
  0
ARC
  5
CDEC
  8
0
 10
4741.9768068792718623
 20
242.959883444672414
 30
0.0
 40
0.0592766008223859
 50
98.4565913926147118
 51
150.5239291439802116
  0
ARC
  5
CDED
  8
0
 10
4741.9777904067168492
 20
242.9599134214539049
 30
0.0
 40
0.0223046072561604
 50
33.5491927688816673
 51
145.3291659136208978
  0
ARC
  5
CDEE
  8
0
 10
4741.9778017557991916
 20
242.9632896014358039
 30
0.0
 40
0.0223474279581275
 50
216.9440925052192028
 51
320.5708602965377167
  0
ARC
  5
CDEF
  8
0
 10
4741.9760107498259458
 20
242.9615848408975864
 30
0.0
 40
0.0198934507250523
 50
146.3725643927697035
 51
216.1202751206378991
  0
ARC
  5
CDF0
  8
0
 10
4741.9797356878880237
 20
242.961577262866399
 30
0.0
 40
0.0197663169968197
 50
320.8443294098831871
 51
32.6459342234306504
  0
ARC
  5
CDF1
  8
0
 10
4741.5894799673142188
 20
242.6105589976027943
 30
0.0
 40
0.0796207654095198
 50
13.5285838925254307
 51
83.1720255674712234
  0
ARC
  5
CDF2
  8
0
 10
4741.5862852891441435
 20
242.6148732561684938
 30
0.0
 40
0.0818668598602546
 50
315.7375309694792804
 51
10.0678259786158595
  0
ARC
  5
CDF3
  8
0
 10
4741.570206349365435
 20
242.6268097205970093
 30
0.0
 40
0.101747946844879
 50
244.4350516746125095
 51
317.2434380599549968
  0
ARC
  5
CDF4
  8
0
 10
4741.5593435065011363
 20
242.6011037359926092
 30
0.0
 40
0.0738823044496772
 50
161.2402122011999097
 51
243.4317579259563047
  0
ARC
  5
CDF5
  8
0
 10
4741.5841909287009912
 20
242.5895166642216907
 30
0.0
 40
0.1011800387555695
 50
81.6146726773285138
 51
159.5521557376023054
  0
ARC
  5
CDF6
  8
0
 10
4741.5624748658683529
 20
242.5937219898987109
 30
0.0
 40
0.0596684302398596
 50
23.1628839707594594
 51
99.8117291562966074
  0
ARC
  5
CDF7
  8
0
 10
4741.5663598915307375
 20
242.5967668821905932
 30
0.0
 40
0.0549135951803018
 50
301.5735714047074794
 51
21.8363327414080111
  0
ARC
  5
CDF8
  8
0
 10
4741.5620338659373374
 20
242.6018379768435977
 30
0.0
 40
0.0615077171455392
 50
225.0596149092596931
 51
302.5335012414709013
  0
ARC
  5
CDF9
  8
0
 10
4741.5569161847606665
 20
242.5967515708908024
 30
0.0
 40
0.054292372937462
 50
151.0239578700229117
 51
225.0908759320045078
  0
ARC
  5
CDFA
  8
0
 10
4741.5610239167435793
 20
242.5938855322945074
 30
0.0
 40
0.0592766008223859
 50
98.4565913926147118
 51
150.5239291439802116
  0
ARC
  5
CDFB
  8
0
 10
4741.5620074441885663
 20
242.5939155090759982
 30
0.0
 40
0.0223046072561604
 50
33.5491927688816673
 51
145.3291659136208978
  0
ARC
  5
CDFC
  8
0
 10
4741.5620187932699992
 20
242.5972916890578972
 30
0.0
 40
0.0223474279581275
 50
216.9440925052192028
 51
320.5708602965377167
  0
ARC
  5
CDFD
  8
0
 10
4741.5602277872976629
 20
242.5955869285197082
 30
0.0
 40
0.0198934507250523
 50
146.3725643927697035
 51
216.1202751206378991
  0
ARC
  5
CDFE
  8
0
 10
4741.5639527253597407
 20
242.595579350488606
 30
0.0
 40
0.0197663169968197
 50
320.8443294098831871
 51
32.6459342234306504
  0
ARC
  5
CDFF
  8
0
 10
4742.1660500997177223
 20
242.4497214222706987
 30
0.0
 40
0.0796207654095198
 50
13.5285838925254307
 51
83.1720255674712234
  0
ARC
  5
CE00
  8
0
 10
4742.1628554215485565
 20
242.4540356808363981
 30
0.0
 40
0.0818668598602546
 50
315.7375309694792804
 51
10.0678259786158595
  0
ARC
  5
CE01
  8
0
 10
4742.146776481769848
 20
242.465972145264999
 30
0.0
 40
0.101747946844879
 50
244.4350516746125095
 51
317.2434380599549968
  0
ARC
  5
CE02
  8
0
 10
4742.1359136389046398
 20
242.4402661606605136
 30
0.0
 40
0.0738823044496772
 50
161.2402122011999097
 51
243.4317579259563047
  0
ARC
  5
CE03
  8
0
 10
4742.1607610611063137
 20
242.4286790888895951
 30
0.0
 40
0.1011800387555695
 50
81.6146726773285138
 51
159.5521557376023054
  0
ARC
  5
CE04
  8
0
 10
4742.139044998270947
 20
242.4328844145665869
 30
0.0
 40
0.0596684302398596
 50
23.1628839707594594
 51
99.8117291562966074
  0
ARC
  5
CE05
  8
0
 10
4742.14293002393606
 20
242.4359293068584975
 30
0.0
 40
0.0549135951803018
 50
301.5735714047074794
 51
21.8363327414080111
  0
ARC
  5
CE06
  8
0
 10
4742.1386039983399314
 20
242.4410004015115021
 30
0.0
 40
0.0615077171455392
 50
225.0596149092596931
 51
302.5335012414709013
  0
ARC
  5
CE07
  8
0
 10
4742.1334863171650795
 20
242.4359139955587068
 30
0.0
 40
0.054292372937462
 50
151.0239578700229117
 51
225.0908759320045078
  0
ARC
  5
CE08
  8
0
 10
4742.1375940491489018
 20
242.4330479569624117
 30
0.0
 40
0.0592766008223859
 50
98.4565913926147118
 51
150.5239291439802116
  0
ARC
  5
CE09
  8
0
 10
4742.1385775765929793
 20
242.4330779337439026
 30
0.0
 40
0.0223046072561604
 50
33.5491927688816673
 51
145.3291659136208978
  0
ARC
  5
CE0A
  8
0
 10
4742.1385889256753217
 20
242.4364541137258016
 30
0.0
 40
0.0223474279581275
 50
216.9440925052192028
 51
320.5708602965377167
  0
ARC
  5
CE0B
  8
0
 10
4742.1367979197020759
 20
242.4347493531876125
 30
0.0
 40
0.0198934507250523
 50
146.3725643927697035
 51
216.1202751206378991
  0
ARC
  5
CE0C
  8
0
 10
4742.1405228577632442
 20
242.4347417751565104
 30
0.0
 40
0.0197663169968197
 50
320.8443294098831871
 51
32.6459342234306504
  0
ARC
  5
CE0D
  8
0
 10
4742.2632321872697503
 20
243.4112532260949138
 30
0.0
 40
0.0796207654095198
 50
13.5285838925254307
 51
83.1720255674712234
  0
ARC
  5
CE0E
  8
0
 10
4742.2600375091005844
 20
243.4155674846606985
 30
0.0
 40
0.0818668598602546
 50
315.7375309694792804
 51
10.0678259786158595
  0
ARC
  5
CE0F
  8
0
 10
4742.243958569321876
 20
243.4275039490892141
 30
0.0
 40
0.101747946844879
 50
244.4350516746125095
 51
317.2434380599549968
  0
ARC
  5
CE10
  8
0
 10
4742.2330957264566678
 20
243.4017979644847003
 30
0.0
 40
0.0738823044496772
 50
161.2402122011999097
 51
243.4317579259563047
  0
ARC
  5
CE11
  8
0
 10
4742.2579431486601607
 20
243.3902108927138954
 30
0.0
 40
0.1011800387555695
 50
81.6146726773285138
 51
159.5521557376023054
  0
ARC
  5
CE12
  8
0
 10
4742.2362270858238844
 20
243.3944162183908873
 30
0.0
 40
0.0596684302398596
 50
23.1628839707594594
 51
99.8117291562966074
  0
ARC
  5
CE13
  8
0
 10
4742.240112111488088
 20
243.3974611106827126
 30
0.0
 40
0.0549135951803018
 50
301.5735714047074794
 51
21.8363327414080111
  0
ARC
  5
CE14
  8
0
 10
4742.2357860858937784
 20
243.4025322053356888
 30
0.0
 40
0.0615077171455392
 50
225.0596149092596931
 51
302.5335012414709013
  0
ARC
  5
CE15
  8
0
 10
4742.230668404718017
 20
243.3974457993828935
 30
0.0
 40
0.054292372937462
 50
151.0239578700229117
 51
225.0908759320045078
  0
ARC
  5
CE16
  8
0
 10
4742.2347761367018393
 20
243.3945797607865984
 30
0.0
 40
0.0592766008223859
 50
98.4565913926147118
 51
150.5239291439802116
  0
ARC
  5
CE17
  8
0
 10
4742.2357596641450073
 20
243.3946097375680893
 30
0.0
 40
0.0223046072561604
 50
33.5491927688816673
 51
145.3291659136208978
  0
ARC
  5
CE18
  8
0
 10
4742.2357710132273496
 20
243.3979859175499882
 30
0.0
 40
0.0223474279581275
 50
216.9440925052192028
 51
320.5708602965377167
  0
ARC
  5
CE19
  8
0
 10
4742.2339800072550133
 20
243.3962811570117992
 30
0.0
 40
0.0198934507250523
 50
146.3725643927697035
 51
216.1202751206378991
  0
ARC
  5
CE1A
  8
0
 10
4742.2377049453161817
 20
243.396273578980697
 30
0.0
 40
0.0197663169968197
 50
320.8443294098831871
 51
32.6459342234306504
  0
ARC
  5
CE1B
  8
0
 10
4741.5717310533818818
 20
245.2176299037741956
 30
0.0
 40
0.0796207654095198
 50
13.5285838925254307
 51
83.1720255674712234
  0
ARC
  5
CE1C
  8
0
 10
4741.5685363752108969
 20
245.221944162339895
 30
0.0
 40
0.0818668598602546
 50
315.7375309694792804
 51
10.0678259786158595
  0
ARC
  5
CE1D
  8
0
 10
4741.552457435433098
 20
245.2338806267684106
 30
0.0
 40
0.101747946844879
 50
244.4350516746125095
 51
317.2434380599549968
  0
ARC
  5
CE1E
  8
0
 10
4741.5415945925669803
 20
245.2081746421638968
 30
0.0
 40
0.0738823044496772
 50
161.2402122011999097
 51
243.4317579259563047
  0
ARC
  5
CE1F
  8
0
 10
4741.5664420147695637
 20
245.1965875703930919
 30
0.0
 40
0.1011800387555695
 50
81.6146726773285138
 51
159.5521557376023054
  0
ARC
  5
CE20
  8
0
 10
4741.5447259519360159
 20
245.2007928960701122
 30
0.0
 40
0.0596684302398596
 50
23.1628839707594594
 51
99.8117291562966074
  0
ARC
  5
CE21
  8
0
 10
4741.54861097759931
 20
245.2038377883619944
 30
0.0
 40
0.0549135951803018
 50
301.5735714047074794
 51
21.8363327414080111
  0
ARC
  5
CE22
  8
0
 10
4741.5442849520050004
 20
245.2089088830149137
 30
0.0
 40
0.0615077171455392
 50
225.0596149092596931
 51
302.5335012414709013
  0
ARC
  5
CE23
  8
0
 10
4741.5391672708283295
 20
245.2038224770622037
 30
0.0
 40
0.054292372937462
 50
151.0239578700229117
 51
225.0908759320045078
  0
ARC
  5
CE24
  8
0
 10
4741.5432750028121518
 20
245.2009564384659086
 30
0.0
 40
0.0592766008223859
 50
98.4565913926147118
 51
150.5239291439802116
  0
ARC
  5
CE25
  8
0
 10
4741.5442585302562293
 20
245.2009864152473142
 30
0.0
 40
0.0223046072561604
 50
33.5491927688816673
 51
145.3291659136208978
  0
ARC
  5
CE26
  8
0
 10
4741.5442698793376621
 20
245.2043625952292984
 30
0.0
 40
0.0223474279581275
 50
216.9440925052192028
 51
320.5708602965377167
  0
ARC
  5
CE27
  8
0
 10
4741.5424788733653259
 20
245.2026578346911094
 30
0.0
 40
0.0198934507250523
 50
146.3725643927697035
 51
216.1202751206378991
  0
ARC
  5
CE28
  8
0
 10
4741.5462038114274037
 20
245.2026502566598936
 30
0.0
 40
0.0197663169968197
 50
320.8443294098831871
 51
32.6459342234306504
  0
ARC
  5
CE29
  8
0
 10
4741.2734355002739903
 20
244.5130111884884059
 30
0.0
 40
0.0459737295141172
 50
3.3650138355133818
 51
113.5488656000411964
  0
ARC
  5
CE2A
  8
0
 10
4741.2669247940875721
 20
244.5207249603109005
 30
0.0
 40
0.0526446076710393
 50
274.9641953705523747
 51
354.5333490842916149
  0
ARC
  5
CE2B
  8
0
 10
4741.2697857491839386
 20
244.5141744952485112
 30
0.0
 40
0.0459279426040826
 50
184.5229791264762866
 51
272.1144570660991917
  0
ARC
  5
CE2C
  8
0
 10
4741.2736609484036308
 20
244.5090848812457125
 30
0.0
 40
0.0496817990950203
 50
111.9779252715070044
 51
178.3070218726419967
  0
ARC
  5
CE2D
  8
0
 10
4741.2722430310786876
 20
244.5137344464446016
 30
0.0
 40
0.0281421644099724
 50
26.179359904277721
 51
154.6863032522043966
  0
ARC
  5
CE2E
  8
0
 10
4741.2707099529161496
 20
244.517527393653296
 30
0.0
 40
0.0286005630111563
 50
217.0573802963783123
 51
323.6220595946267053
  0
ARC
  5
CE2F
  8
0
 10
4741.2735770271674483
 20
244.5165973778904913
 30
0.0
 40
0.0257582050355851
 50
321.5046201022980199
 51
21.7691776700337805
  0
ARC
  5
CE30
  8
0
 10
4741.2692559326023911
 20
244.5139610484906996
 30
0.0
 40
0.0253676728943692
 50
152.2635300715689937
 51
212.6037769964200947
  0
ARC
  5
CE31
  8
0
 10
4741.2719851939136788
 20
244.5478648126454004
 30
0.0
 40
0.0335028270365927
 50
221.2671993389164982
 51
319.5984638175444843
  0
ARC
  5
CE32
  8
0
 10
4741.8573338649075595
 20
243.5521614830657029
 30
0.0
 40
0.0459737295141172
 50
3.3650138355133818
 51
113.5488656000411964
  0
ARC
  5
CE33
  8
0
 10
4741.8508231587229602
 20
243.5598752548881976
 30
0.0
 40
0.0526446076710393
 50
274.9641953705523747
 51
354.5333490842916149
  0
ARC
  5
CE34
  8
0
 10
4741.8536841138193267
 20
243.5533247898258082
 30
0.0
 40
0.0459279426040826
 50
184.5229791264762866
 51
272.1144570660991917
  0
ARC
  5
CE35
  8
0
 10
4741.8575593130381094
 20
243.5482351758230095
 30
0.0
 40
0.0496817990950203
 50
111.9779252715070044
 51
178.3070218726419967
  0
ARC
  5
CE36
  8
0
 10
4741.8561413957122568
 20
243.5528847410218987
 30
0.0
 40
0.0281421644099724
 50
26.179359904277721
 51
154.6863032522043966
  0
ARC
  5
CE37
  8
0
 10
4741.8546083175506283
 20
243.556677688230593
 30
0.0
 40
0.0286005630111563
 50
217.0573802963783123
 51
323.6220595946267053
  0
ARC
  5
CE38
  8
0
 10
4741.8574753918019269
 20
243.555747672467902
 30
0.0
 40
0.0257582050355851
 50
321.5046201022980199
 51
21.7691776700337805
  0
ARC
  5
CE39
  8
0
 10
4741.8531542972359603
 20
243.5531113430679966
 30
0.0
 40
0.0253676728943692
 50
152.2635300715689937
 51
212.6037769964200947
  0
ARC
  5
CE3A
  8
0
 10
4741.8558835585490669
 20
243.5870151072228111
 30
0.0
 40
0.0335028270365927
 50
221.2671993389164982
 51
319.5984638175444843
  0
ARC
  5
CE3B
  8
0
 10
4741.8577584668619238
 20
245.4738491426772953
 30
0.0
 40
0.0459737295141172
 50
3.3650138355133818
 51
113.5488656000411964
  0
ARC
  5
CE3C
  8
0
 10
4741.8512477606773245
 20
245.4815629144997899
 30
0.0
 40
0.0526446076710393
 50
274.9641953705523747
 51
354.5333490842916149
  0
ARC
  5
CE3D
  8
0
 10
4741.8541087157727816
 20
245.4750124494374006
 30
0.0
 40
0.0459279426040826
 50
184.5229791264762866
 51
272.1144570660991917
  0
ARC
  5
CE3E
  8
0
 10
4741.8579839149915642
 20
245.4699228354344882
 30
0.0
 40
0.0496817990950203
 50
111.9779252715070044
 51
178.3070218726419967
  0
ARC
  5
CE3F
  8
0
 10
4741.8565659976648021
 20
245.474572400633491
 30
0.0
 40
0.0281421644099724
 50
26.179359904277721
 51
154.6863032522043966
  0
ARC
  5
CE40
  8
0
 10
4741.8550329195040831
 20
245.4783653478421002
 30
0.0
 40
0.0286005630111563
 50
217.0573802963783123
 51
323.6220595946267053
  0
ARC
  5
CE41
  8
0
 10
4741.8578999937553817
 20
245.4774353320794091
 30
0.0
 40
0.0257582050355851
 50
321.5046201022980199
 51
21.7691776700337805
  0
ARC
  5
CE42
  8
0
 10
4741.8535788991894151
 20
245.4747990026795037
 30
0.0
 40
0.0253676728943692
 50
152.2635300715689937
 51
212.6037769964200947
  0
ARC
  5
CE43
  8
0
 10
4741.8563081605016123
 20
245.5087027668342898
 30
0.0
 40
0.0335028270365927
 50
221.2671993389164982
 51
319.5984638175444843
  0
ARC
  5
CE44
  8
0
 10
4743.9029217115312349
 20
245.1199421435377133
 30
0.0
 40
0.0796207654095198
 50
96.8279744325287766
 51
166.4714161074745959
  0
ARC
  5
CE45
  8
0
 10
4743.9061163897004008
 20
245.1242564021034127
 30
0.0
 40
0.0818668598602546
 50
169.9321740213840997
 51
224.2624690305206911
  0
ARC
  5
CE46
  8
0
 10
4743.9221953294791092
 20
245.1361928665320136
 30
0.0
 40
0.101747946844879
 50
222.7565619400450032
 51
295.5649483253874905
  0
ARC
  5
CE47
  8
0
 10
4743.9330581723452269
 20
245.1104868819274998
 30
0.0
 40
0.0738823044496772
 50
296.5682420740437237
 51
18.7597877988001009
  0
ARC
  5
CE48
  8
0
 10
4743.908210750141734
 20
245.0988998101566096
 30
0.0
 40
0.1011800387555695
 50
20.4478442623976591
 51
98.385327322671472
  0
ARC
  5
CE49
  8
0
 10
4743.9299268129771008
 20
245.1031051358336867
 30
0.0
 40
0.0596684302398596
 50
80.1882708437034069
 51
156.8371160292404909
  0
ARC
  5
CE4A
  8
0
 10
4743.9260417873128972
 20
245.1061500281255121
 30
0.0
 40
0.0549135951803018
 50
158.1636672585919996
 51
238.4264285952924922
  0
ARC
  5
CE4B
  8
0
 10
4743.9303678129072068
 20
245.1112211227784883
 30
0.0
 40
0.0615077171455392
 50
237.4664987585290987
 51
314.9403850907403921
  0
ARC
  5
CE4C
  8
0
 10
4743.9354854940829682
 20
245.106134716825693
 30
0.0
 40
0.054292372937462
 50
314.9091240679954922
 51
28.9760421299771309
  0
ARC
  5
CE4D
  8
0
 10
4743.9313777621000554
 20
245.1032686782295116
 30
0.0
 40
0.0592766008223859
 50
29.4760708560197493
 51
81.543408607385274
  0
ARC
  5
CE4E
  8
0
 10
4743.9303942346568874
 20
245.1032986550108888
 30
0.0
 40
0.0223046072561604
 50
34.6708340863791022
 51
146.45080723111829
  0
ARC
  5
CE4F
  8
0
 10
4743.9303828855754546
 20
245.1066748349927877
 30
0.0
 40
0.0223474279581275
 50
219.4291397034623117
 51
323.0559074947806835
  0
ARC
  5
CE50
  8
0
 10
4743.9321738915459719
 20
245.1049700744545987
 30
0.0
 40
0.0198934507250523
 50
323.8797248793620724
 51
33.6274356072303391
  0
ARC
  5
CE51
  8
0
 10
4743.9284489534848035
 20
245.1049624964234965
 30
0.0
 40
0.0197663169968197
 50
147.3540657765693993
 51
219.1556705901168129
  0
ARC
  5
CE52
  8
0
 10
4743.6507926491030958
 20
245.4937008327063097
 30
0.0
 40
0.0796207654095198
 50
96.8279744325287766
 51
166.4714161074745959
  0
ARC
  5
CE53
  8
0
 10
4743.6539873272722616
 20
245.4980150912720092
 30
0.0
 40
0.0818668598602546
 50
169.9321740213840997
 51
224.2624690305206911
  0
ARC
  5
CE54
  8
0
 10
4743.6700662670509701
 20
245.5099515557004963
 30
0.0
 40
0.101747946844879
 50
222.7565619400450032
 51
295.5649483253874905
  0
ARC
  5
CE55
  8
0
 10
4743.6809291099161783
 20
245.484245571096011
 30
0.0
 40
0.0738823044496772
 50
296.5682420740437237
 51
18.7597877988001009
  0
ARC
  5
CE56
  8
0
 10
4743.6560816877135949
 20
245.4726584993252061
 30
0.0
 40
0.1011800387555695
 50
20.4478442623976591
 51
98.385327322671472
  0
ARC
  5
CE57
  8
0
 10
4743.6777977505489616
 20
245.4768638250021979
 30
0.0
 40
0.0596684302398596
 50
80.1882708437034069
 51
156.8371160292404909
  0
ARC
  5
CE58
  8
0
 10
4743.6739127248847581
 20
245.4799087172941086
 30
0.0
 40
0.0549135951803018
 50
158.1636672585919996
 51
238.4264285952924922
  0
ARC
  5
CE59
  8
0
 10
4743.6782387504790677
 20
245.4849798119469995
 30
0.0
 40
0.0615077171455392
 50
237.4664987585290987
 51
314.9403850907403921
  0
ARC
  5
CE5A
  8
0
 10
4743.6833564316548291
 20
245.4798934059942042
 30
0.0
 40
0.054292372937462
 50
314.9091240679954922
 51
28.9760421299771309
  0
ARC
  5
CE5B
  8
0
 10
4743.6792486996719163
 20
245.4770273673979943
 30
0.0
 40
0.0592766008223859
 50
29.4760708560197493
 51
81.543408607385274
  0
ARC
  5
CE5C
  8
0
 10
4743.6782651722287483
 20
245.4770573441795136
 30
0.0
 40
0.0223046072561604
 50
34.6708340863791022
 51
146.45080723111829
  0
ARC
  5
CE5D
  8
0
 10
4743.6782538231464059
 20
245.4804335241614126
 30
0.0
 40
0.0223474279581275
 50
219.4291397034623117
 51
323.0559074947806835
  0
ARC
  5
CE5E
  8
0
 10
4743.6800448291178327
 20
245.4787287636231952
 30
0.0
 40
0.0198934507250523
 50
323.8797248793620724
 51
33.6274356072303391
  0
ARC
  5
CE5F
  8
0
 10
4743.6763198910566643
 20
245.4787211855920077
 30
0.0
 40
0.0197663169968197
 50
147.3540657765693993
 51
219.1556705901168129
  0
ARC
  5
CE60
  8
0
 10
4743.2996491310550482
 20
245.7821743358960873
 30
0.0
 40
0.0796207654095198
 50
96.8279744325287766
 51
166.4714161074745959
  0
ARC
  5
CE61
  8
0
 10
4743.3028438092242141
 20
245.7864885944617015
 30
0.0
 40
0.0818668598602546
 50
169.9321740213840997
 51
224.2624690305206911
  0
ARC
  5
CE62
  8
0
 10
4743.3189227490029225
 20
245.7984250588903024
 30
0.0
 40
0.101747946844879
 50
222.7565619400450032
 51
295.5649483253874905
  0
ARC
  5
CE63
  8
0
 10
4743.3297855918690402
 20
245.7727190742857886
 30
0.0
 40
0.0738823044496772
 50
296.5682420740437237
 51
18.7597877988001009
  0
ARC
  5
CE64
  8
0
 10
4743.3049381696655473
 20
245.7611320025148984
 30
0.0
 40
0.1011800387555695
 50
20.4478442623976591
 51
98.385327322671472
  0
ARC
  5
CE65
  8
0
 10
4743.3266542325000046
 20
245.765337328192004
 30
0.0
 40
0.0596684302398596
 50
80.1882708437034069
 51
156.8371160292404909
  0
ARC
  5
CE66
  8
0
 10
4743.322769206835801
 20
245.7683822204838862
 30
0.0
 40
0.0549135951803018
 50
158.1636672585919996
 51
238.4264285952924922
  0
ARC
  5
CE67
  8
0
 10
4743.3270952324319296
 20
245.7734533151368055
 30
0.0
 40
0.0615077171455392
 50
237.4664987585290987
 51
314.9403850907403921
  0
ARC
  5
CE68
  8
0
 10
4743.332212913607691
 20
245.7683669091840102
 30
0.0
 40
0.054292372937462
 50
314.9091240679954922
 51
28.9760421299771309
  0
ARC
  5
CE69
  8
0
 10
4743.3281051816238687
 20
245.7655008705878004
 30
0.0
 40
0.0592766008223859
 50
29.4760708560197493
 51
81.543408607385274
  0
ARC
  5
CE6A
  8
0
 10
4743.3271216541797912
 20
245.765530847369206
 30
0.0
 40
0.0223046072561604
 50
34.6708340863791022
 51
146.45080723111829
  0
ARC
  5
CE6B
  8
0
 10
4743.3271103050983584
 20
245.7689070273511902
 30
0.0
 40
0.0223474279581275
 50
219.4291397034623117
 51
323.0559074947806835
  0
ARC
  5
CE6C
  8
0
 10
4743.3289013110706946
 20
245.7672022668130012
 30
0.0
 40
0.0198934507250523
 50
323.8797248793620724
 51
33.6274356072303391
  0
ARC
  5
CE6D
  8
0
 10
4743.3251763730086168
 20
245.7671946887818137
 30
0.0
 40
0.0197663169968197
 50
147.3540657765693993
 51
219.1556705901168129
  0
ARC
  5
CE6E
  8
0
 10
4742.88422325886404
 20
245.9522309234019133
 30
0.0
 40
0.0796207654095198
 50
96.8279744325287766
 51
166.4714161074745959
  0
ARC
  5
CE6F
  8
0
 10
4742.8874179370332058
 20
245.9565451819676127
 30
0.0
 40
0.0818668598602546
 50
169.9321740213840997
 51
224.2624690305206911
  0
ARC
  5
CE70
  8
0
 10
4742.9034968768119143
 20
245.9684816463960999
 30
0.0
 40
0.101747946844879
 50
222.7565619400450032
 51
295.5649483253874905
  0
ARC
  5
CE71
  8
0
 10
4742.914359719678032
 20
245.9427756617916998
 30
0.0
 40
0.0738823044496772
 50
296.5682420740437237
 51
18.7597877988001009
  0
ARC
  5
CE72
  8
0
 10
4742.8895122974763581
 20
245.9311885900208097
 30
0.0
 40
0.1011800387555695
 50
20.4478442623976591
 51
98.385327322671472
  0
ARC
  5
CE73
  8
0
 10
4742.9112283603089963
 20
245.9353939156978015
 30
0.0
 40
0.0596684302398596
 50
80.1882708437034069
 51
156.8371160292404909
  0
ARC
  5
CE74
  8
0
 10
4742.9073433346447928
 20
245.9384388079897121
 30
0.0
 40
0.0549135951803018
 50
158.1636672585919996
 51
238.4264285952924922
  0
ARC
  5
CE75
  8
0
 10
4742.9116693602409214
 20
245.943509902642603
 30
0.0
 40
0.0615077171455392
 50
237.4664987585290987
 51
314.9403850907403921
  0
ARC
  5
CE76
  8
0
 10
4742.9167870414166828
 20
245.938423496689893
 30
0.0
 40
0.054292372937462
 50
314.9091240679954922
 51
28.9760421299771309
  0
ARC
  5
CE77
  8
0
 10
4742.9126793094328605
 20
245.9355574580935979
 30
0.0
 40
0.0592766008223859
 50
29.4760708560197493
 51
81.543408607385274
  0
ARC
  5
CE78
  8
0
 10
4742.9116957819896925
 20
245.9355874348750888
 30
0.0
 40
0.0223046072561604
 50
34.6708340863791022
 51
146.45080723111829
  0
ARC
  5
CE79
  8
0
 10
4742.9116844329073501
 20
245.9389636148569878
 30
0.0
 40
0.0223474279581275
 50
219.4291397034623117
 51
323.0559074947806835
  0
ARC
  5
CE7A
  8
0
 10
4742.9134754388787769
 20
245.9372588543187987
 30
0.0
 40
0.0198934507250523
 50
323.8797248793620724
 51
33.6274356072303391
  0
ARC
  5
CE7B
  8
0
 10
4742.9097505008176086
 20
245.9372512762876113
 30
0.0
 40
0.0197663169968197
 50
147.3540657765693993
 51
219.1556705901168129
  0
ARC
  5
CE7C
  8
0
 10
4742.6136592933544307
 20
245.5968640789841118
 30
0.0
 40
0.0796207654095198
 50
96.8279744325287766
 51
166.4714161074745959
  0
ARC
  5
CE7D
  8
0
 10
4742.6168539715226871
 20
245.6011783375498112
 30
0.0
 40
0.0818668598602546
 50
169.9321740213840997
 51
224.2624690305206911
  0
ARC
  5
CE7E
  8
0
 10
4742.632932911302305
 20
245.6131148019784121
 30
0.0
 40
0.101747946844879
 50
222.7565619400450032
 51
295.5649483253874905
  0
ARC
  5
CE7F
  8
0
 10
4742.6437957541666037
 20
245.5874088173738983
 30
0.0
 40
0.0738823044496772
 50
296.5682420740437237
 51
18.7597877988001009
  0
ARC
  5
CE80
  8
0
 10
4742.6189483319658393
 20
245.5758217456030081
 30
0.0
 40
0.1011800387555695
 50
20.4478442623976591
 51
98.385327322671472
  0
ARC
  5
CE81
  8
0
 10
4742.6406643948012061
 20
245.58002707128
 30
0.0
 40
0.0596684302398596
 50
80.1882708437034069
 51
156.8371160292404909
  0
ARC
  5
CE82
  8
0
 10
4742.636779369136093
 20
245.5830719635719106
 30
0.0
 40
0.0549135951803018
 50
158.1636672585919996
 51
238.4264285952924922
  0
ARC
  5
CE83
  8
0
 10
4742.6411053947313121
 20
245.5881430582248868
 30
0.0
 40
0.0615077171455392
 50
237.4664987585290987
 51
314.9403850907403921
  0
ARC
  5
CE84
  8
0
 10
4742.6462230759070735
 20
245.5830566522720915
 30
0.0
 40
0.054292372937462
 50
314.9091240679954922
 51
28.9760421299771309
  0
ARC
  5
CE85
  8
0
 10
4742.6421153439232512
 20
245.5801906136757964
 30
0.0
 40
0.0592766008223859
 50
29.4760708560197493
 51
81.543408607385274
  0
ARC
  5
CE86
  8
0
 10
4742.6411318164800832
 20
245.5802205904572872
 30
0.0
 40
0.0223046072561604
 50
34.6708340863791022
 51
146.45080723111829
  0
ARC
  5
CE87
  8
0
 10
4742.6411204673968314
 20
245.5835967704391862
 30
0.0
 40
0.0223474279581275
 50
219.4291397034623117
 51
323.0559074947806835
  0
ARC
  5
CE88
  8
0
 10
4742.6429114733700771
 20
245.5818920099009972
 30
0.0
 40
0.0198934507250523
 50
323.8797248793620724
 51
33.6274356072303391
  0
ARC
  5
CE89
  8
0
 10
4742.6391865353089088
 20
245.581884431869895
 30
0.0
 40
0.0197663169968197
 50
147.3540657765693993
 51
219.1556705901168129
  0
ARC
  5
CE8A
  8
0
 10
4742.7221609636580979
 20
246.4222605895787979
 30
0.0
 40
0.0796207654095198
 50
96.8279744325287766
 51
166.4714161074745959
  0
ARC
  5
CE8B
  8
0
 10
4742.7253556418272638
 20
246.4265748481444973
 30
0.0
 40
0.0818668598602546
 50
169.9321740213840997
 51
224.2624690305206911
  0
ARC
  5
CE8C
  8
0
 10
4742.7414345816059722
 20
246.4385113125730982
 30
0.0
 40
0.101747946844879
 50
222.7565619400450032
 51
295.5649483253874905
  0
ARC
  5
CE8D
  8
0
 10
4742.7522974244720899
 20
246.4128053279686128
 30
0.0
 40
0.0738823044496772
 50
296.5682420740437237
 51
18.7597877988001009
  0
ARC
  5
CE8E
  8
0
 10
4742.727450002268597
 20
246.4012182561976942
 30
0.0
 40
0.1011800387555695
 50
20.4478442623976591
 51
98.385327322671472
  0
ARC
  5
CE8F
  8
0
 10
4742.7491660651039638
 20
246.4054235818747998
 30
0.0
 40
0.0596684302398596
 50
80.1882708437034069
 51
156.8371160292404909
  0
ARC
  5
CE90
  8
0
 10
4742.7452810394388507
 20
246.4084684741665967
 30
0.0
 40
0.0549135951803018
 50
158.1636672585919996
 51
238.4264285952924922
  0
ARC
  5
CE91
  8
0
 10
4742.7496070650349793
 20
246.4135395688196013
 30
0.0
 40
0.0615077171455392
 50
237.4664987585290987
 51
314.9403850907403921
  0
ARC
  5
CE92
  8
0
 10
4742.7547247462116502
 20
246.408453162866806
 30
0.0
 40
0.054292372937462
 50
314.9091240679954922
 51
28.9760421299771309
  0
ARC
  5
CE93
  8
0
 10
4742.7506170142269184
 20
246.4055871242705962
 30
0.0
 40
0.0592766008223859
 50
29.4760708560197493
 51
81.543408607385274
  0
ARC
  5
CE94
  8
0
 10
4742.7496334867828409
 20
246.4056171010520018
 30
0.0
 40
0.0223046072561604
 50
34.6708340863791022
 51
146.45080723111829
  0
ARC
  5
CE95
  8
0
 10
4742.7496221377014081
 20
246.4089932810339008
 30
0.0
 40
0.0223474279581275
 50
219.4291397034623117
 51
323.0559074947806835
  0
ARC
  5
CE96
  8
0
 10
4742.7514131436737443
 20
246.4072885204957117
 30
0.0
 40
0.0198934507250523
 50
323.8797248793620724
 51
33.6274356072303391
  0
ARC
  5
CE97
  8
0
 10
4742.7476882056116665
 20
246.4072809424646096
 30
0.0
 40
0.0197663169968197
 50
147.3540657765693993
 51
219.1556705901168129
  0
ARC
  5
CE98
  8
0
 10
4743.2891371911910028
 20
246.264910387339711
 30
0.0
 40
0.0796207654095198
 50
96.8279744325287766
 51
166.4714161074745959
  0
ARC
  5
CE99
  8
0
 10
4743.2923318693610781
 20
246.2692246459054104
 30
0.0
 40
0.0818668598602546
 50
169.9321740213840997
 51
224.2624690305206911
  0
ARC
  5
CE9A
  8
0
 10
4743.3084108091397866
 20
246.2811611103340113
 30
0.0
 40
0.101747946844879
 50
222.7565619400450032
 51
295.5649483253874905
  0
ARC
  5
CE9B
  8
0
 10
4743.3192736520040853
 20
246.2554551257294975
 30
0.0
 40
0.0738823044496772
 50
296.5682420740437237
 51
18.7597877988001009
  0
ARC
  5
CE9C
  8
0
 10
4743.2944262298042304
 20
246.2438680539586073
 30
0.0
 40
0.1011800387555695
 50
20.4478442623976591
 51
98.385327322671472
  0
ARC
  5
CE9D
  8
0
 10
4743.3161422926377782
 20
246.2480733796355992
 30
0.0
 40
0.0596684302398596
 50
80.1882708437034069
 51
156.8371160292404909
  0
ARC
  5
CE9E
  8
0
 10
4743.3122572669735746
 20
246.2511182719275098
 30
0.0
 40
0.0549135951803018
 50
158.1636672585919996
 51
238.4264285952924922
  0
ARC
  5
CE9F
  8
0
 10
4743.3165832925678842
 20
246.2561893665804007
 30
0.0
 40
0.0615077171455392
 50
237.4664987585290987
 51
314.9403850907403921
  0
ARC
  5
CEA0
  8
0
 10
4743.3217009737436456
 20
246.2511029606276907
 30
0.0
 40
0.054292372937462
 50
314.9091240679954922
 51
28.9760421299771309
  0
ARC
  5
CEA1
  8
0
 10
4743.3175932417598233
 20
246.2482369220313956
 30
0.0
 40
0.0592766008223859
 50
29.4760708560197493
 51
81.543408607385274
  0
ARC
  5
CEA2
  8
0
 10
4743.3166097143157458
 20
246.2482668988128864
 30
0.0
 40
0.0223046072561604
 50
34.6708340863791022
 51
146.45080723111829
  0
ARC
  5
CEA3
  8
0
 10
4743.316598365234313
 20
246.2516430787948138
 30
0.0
 40
0.0223474279581275
 50
219.4291397034623117
 51
323.0559074947806835
  0
ARC
  5
CEA4
  8
0
 10
4743.3183893712066492
 20
246.2499383182565964
 30
0.0
 40
0.0198934507250523
 50
323.8797248793620724
 51
33.6274356072303391
  0
ARC
  5
CEA5
  8
0
 10
4743.3146644331445714
 20
246.249930740225409
 30
0.0
 40
0.0197663169968197
 50
147.3540657765693993
 51
219.1556705901168129
  0
ARC
  5
CEA6
  8
0
 10
4743.7958998667627384
 20
245.9564608542906115
 30
0.0
 40
0.0796207654095198
 50
96.8279744325287766
 51
166.4714161074745959
  0
ARC
  5
CEA7
  8
0
 10
4743.7990945449328137
 20
245.9607751128563109
 30
0.0
 40
0.0818668598602546
 50
169.9321740213840997
 51
224.2624690305206911
  0
ARC
  5
CEA8
  8
0
 10
4743.8151734847124317
 20
245.9727115772849118
 30
0.0
 40
0.101747946844879
 50
222.7565619400450032
 51
295.5649483253874905
  0
ARC
  5
CEA9
  8
0
 10
4743.8260363275776399
 20
245.947005592680398
 30
0.0
 40
0.0738823044496772
 50
296.5682420740437237
 51
18.7597877988001009
  0
ARC
  5
CEAA
  8
0
 10
4743.801188905375966
 20
245.9354185209095078
 30
0.0
 40
0.1011800387555695
 50
20.4478442623976591
 51
98.385327322671472
  0
ARC
  5
CEAB
  8
0
 10
4743.8229049682113327
 20
245.9396238465864997
 30
0.0
 40
0.0596684302398596
 50
80.1882708437034069
 51
156.8371160292404909
  0
ARC
  5
CEAC
  8
0
 10
4743.8190199425462197
 20
245.9426687388784103
 30
0.0
 40
0.0549135951803018
 50
158.1636672585919996
 51
238.4264285952924922
  0
ARC
  5
CEAD
  8
0
 10
4743.8233459681414388
 20
245.9477398335313865
 30
0.0
 40
0.0615077171455392
 50
237.4664987585290987
 51
314.9403850907403921
  0
ARC
  5
CEAE
  8
0
 10
4743.8284636493172002
 20
245.9426534275785912
 30
0.0
 40
0.054292372937462
 50
314.9091240679954922
 51
28.9760421299771309
  0
ARC
  5
CEAF
  8
0
 10
4743.8243559173333779
 20
245.9397873889822961
 30
0.0
 40
0.0592766008223859
 50
29.4760708560197493
 51
81.543408607385274
  0
ARC
  5
CEB0
  8
0
 10
4743.8233723898893004
 20
245.9398173657637869
 30
0.0
 40
0.0223046072561604
 50
34.6708340863791022
 51
146.45080723111829
  0
ARC
  5
CEB1
  8
0
 10
4743.8233610408060485
 20
245.9431935457456859
 30
0.0
 40
0.0223474279581275
 50
219.4291397034623117
 51
323.0559074947806835
  0
ARC
  5
CEB2
  8
0
 10
4743.8251520467802038
 20
245.9414887852074969
 30
0.0
 40
0.0198934507250523
 50
323.8797248793620724
 51
33.6274356072303391
  0
ARC
  5
CEB3
  8
0
 10
4743.821427108718126
 20
245.9414812071763947
 30
0.0
 40
0.0197663169968197
 50
147.3540657765693993
 51
219.1556705901168129
  0
ARC
  5
CEB4
  8
0
 10
4744.1876750390847519
 20
245.5247876677526051
 30
0.0
 40
0.0796207654095198
 50
96.8279744325287766
 51
166.4714161074745959
  0
ARC
  5
CEB5
  8
0
 10
4744.1908697172548273
 20
245.5291019263183898
 30
0.0
 40
0.0818668598602546
 50
169.9321740213840997
 51
224.2624690305206911
  0
ARC
  5
CEB6
  8
0
 10
4744.2069486570326262
 20
245.5410383907469054
 30
0.0
 40
0.101747946844879
 50
222.7565619400450032
 51
295.5649483253874905
  0
ARC
  5
CEB7
  8
0
 10
4744.2178114998987439
 20
245.5153324061423916
 30
0.0
 40
0.0738823044496772
 50
296.5682420740437237
 51
18.7597877988001009
  0
ARC
  5
CEB8
  8
0
 10
4744.1929640776961605
 20
245.5037453343715868
 30
0.0
 40
0.1011800387555695
 50
20.4478442623976591
 51
98.385327322671472
  0
ARC
  5
CEB9
  8
0
 10
4744.2146801405306178
 20
245.507950660048607
 30
0.0
 40
0.0596684302398596
 50
80.1882708437034069
 51
156.8371160292404909
  0
ARC
  5
CEBA
  8
0
 10
4744.2107951148673237
 20
245.5109955523404892
 30
0.0
 40
0.0549135951803018
 50
158.1636672585919996
 51
238.4264285952924922
  0
ARC
  5
CEBB
  8
0
 10
4744.2151211404616333
 20
245.5160666469934938
 30
0.0
 40
0.0615077171455392
 50
237.4664987585290987
 51
314.9403850907403921
  0
ARC
  5
CEBC
  8
0
 10
4744.2202388216392137
 20
245.5109802410406132
 30
0.0
 40
0.054292372937462
 50
314.9091240679954922
 51
28.9760421299771309
  0
ARC
  5
CEBD
  8
0
 10
4744.2161310896535724
 20
245.5081142024444034
 30
0.0
 40
0.0592766008223859
 50
29.4760708560197493
 51
81.543408607385274
  0
ARC
  5
CEBE
  8
0
 10
4744.2151475622104044
 20
245.5081441792258943
 30
0.0
 40
0.0223046072561604
 50
34.6708340863791022
 51
146.45080723111829
  0
ARC
  5
CEBF
  8
0
 10
4744.2151362131289716
 20
245.5115203592077933
 30
0.0
 40
0.0223474279581275
 50
219.4291397034623117
 51
323.0559074947806835
  0
ARC
  5
CEC0
  8
0
 10
4744.2169272191022174
 20
245.5098155986696042
 30
0.0
 40
0.0198934507250523
 50
323.8797248793620724
 51
33.6274356072303391
  0
ARC
  5
CEC1
  8
0
 10
4744.213202281041049
 20
245.5098080206385021
 30
0.0
 40
0.0197663169968197
 50
147.3540657765693993
 51
219.1556705901168129
  0
ARC
  5
CEC2
  8
0
 10
4744.4389953681329644
 20
245.0039903712414002
 30
0.0
 40
0.0796207654095198
 50
96.8279744325287766
 51
166.4714161074745959
  0
ARC
  5
CEC3
  8
0
 10
4744.4421900463030397
 20
245.0083046298072134
 30
0.0
 40
0.0818668598602546
 50
169.9321740213840997
 51
224.2624690305206911
  0
ARC
  5
CEC4
  8
0
 10
4744.4582689860817482
 20
245.0202410942357005
 30
0.0
 40
0.101747946844879
 50
222.7565619400450032
 51
295.5649483253874905
  0
ARC
  5
CEC5
  8
0
 10
4744.4691318289469564
 20
244.9945351096311867
 30
0.0
 40
0.0738823044496772
 50
296.5682420740437237
 51
18.7597877988001009
  0
ARC
  5
CEC6
  8
0
 10
4744.4442844067452825
 20
244.9829480378602966
 30
0.0
 40
0.1011800387555695
 50
20.4478442623976591
 51
98.385327322671472
  0
ARC
  5
CEC7
  8
0
 10
4744.4660004695797397
 20
244.9871533635374021
 30
0.0
 40
0.0596684302398596
 50
80.1882708437034069
 51
156.8371160292404909
  0
ARC
  5
CEC8
  8
0
 10
4744.4621154439146267
 20
244.9901982558293128
 30
0.0
 40
0.0549135951803018
 50
158.1636672585919996
 51
238.4264285952924922
  0
ARC
  5
CEC9
  8
0
 10
4744.4664414695089363
 20
244.9952693504822889
 30
0.0
 40
0.0615077171455392
 50
237.4664987585290987
 51
314.9403850907403921
  0
ARC
  5
CECA
  8
0
 10
4744.4715591506856072
 20
244.9901829445294084
 30
0.0
 40
0.054292372937462
 50
314.9091240679954922
 51
28.9760421299771309
  0
ARC
  5
CECB
  8
0
 10
4744.4674514187017849
 20
244.9873169059331985
 30
0.0
 40
0.0592766008223859
 50
29.4760708560197493
 51
81.543408607385274
  0
ARC
  5
CECC
  8
0
 10
4744.4664678912586169
 20
244.9873468827146041
 30
0.0
 40
0.0223046072561604
 50
34.6708340863791022
 51
146.45080723111829
  0
ARC
  5
CECD
  8
0
 10
4744.4664565421762745
 20
244.9907230626965884
 30
0.0
 40
0.0223474279581275
 50
219.4291397034623117
 51
323.0559074947806835
  0
ARC
  5
CECE
  8
0
 10
4744.4682475481486108
 20
244.9890183021583994
 30
0.0
 40
0.0198934507250523
 50
323.8797248793620724
 51
33.6274356072303391
  0
ARC
  5
CECF
  8
0
 10
4744.4645226100874424
 20
244.9890107241272972
 30
0.0
 40
0.0197663169968197
 50
147.3540657765693993
 51
219.1556705901168129
  0
ARC
  5
CED0
  8
0
 10
4743.5083827972512154
 20
244.8827245412433911
 30
0.0
 40
0.0796207654095198
 50
96.8279744325287766
 51
166.4714161074745959
  0
ARC
  5
CED1
  8
0
 10
4743.5115774754222002
 20
244.8870387998090905
 30
0.0
 40
0.0818668598602546
 50
169.9321740213840997
 51
224.2624690305206911
  0
ARC
  5
CED2
  8
0
 10
4743.5276564152009087
 20
244.8989752642376061
 30
0.0
 40
0.101747946844879
 50
222.7565619400450032
 51
295.5649483253874905
  0
ARC
  5
CED3
  8
0
 10
4743.5385192580652074
 20
244.873269279633206
 30
0.0
 40
0.0738823044496772
 50
296.5682420740437237
 51
18.7597877988001009
  0
ARC
  5
CED4
  8
0
 10
4743.513671835864443
 20
244.8616822078622874
 30
0.0
 40
0.1011800387555695
 50
20.4478442623976591
 51
98.385327322671472
  0
ARC
  5
CED5
  8
0
 10
4743.5353878986979907
 20
244.8658875335393077
 30
0.0
 40
0.0596684302398596
 50
80.1882708437034069
 51
156.8371160292404909
  0
ARC
  5
CED6
  8
0
 10
4743.5315028730346967
 20
244.8689324258311899
 30
0.0
 40
0.0549135951803018
 50
158.1636672585919996
 51
238.4264285952924922
  0
ARC
  5
CED7
  8
0
 10
4743.5358288986290063
 20
244.8740035204841945
 30
0.0
 40
0.0615077171455392
 50
237.4664987585290987
 51
314.9403850907403921
  0
ARC
  5
CED8
  8
0
 10
4743.5409465798047677
 20
244.8689171145313992
 30
0.0
 40
0.054292372937462
 50
314.9091240679954922
 51
28.9760421299771309
  0
ARC
  5
CED9
  8
0
 10
4743.5368388478218549
 20
244.8660510759351041
 30
0.0
 40
0.0592766008223859
 50
29.4760708560197493
 51
81.543408607385274
  0
ARC
  5
CEDA
  8
0
 10
4743.5358553203768679
 20
244.866081052716595
 30
0.0
 40
0.0223046072561604
 50
34.6708340863791022
 51
146.45080723111829
  0
ARC
  5
CEDB
  8
0
 10
4743.5358439712963445
 20
244.869457232698494
 30
0.0
 40
0.0223474279581275
 50
219.4291397034623117
 51
323.0559074947806835
  0
ARC
  5
CEDC
  8
0
 10
4743.5376349772677713
 20
244.8677524721603049
 30
0.0
 40
0.0198934507250523
 50
323.8797248793620724
 51
33.6274356072303391
  0
ARC
  5
CEDD
  8
0
 10
4743.5339100392056935
 20
244.8677448941292027
 30
0.0
 40
0.0197663169968197
 50
147.3540657765693993
 51
219.1556705901168129
  0
ARC
  5
CEDE
  8
0
 10
4744.0333345307635682
 20
244.6947396455435921
 30
0.0
 40
0.0796207654095198
 50
96.8279744325287766
 51
166.4714161074745959
  0
ARC
  5
CEDF
  8
0
 10
4744.0365292089336435
 20
244.6990539041092916
 30
0.0
 40
0.0818668598602546
 50
169.9321740213840997
 51
224.2624690305206911
  0
ARC
  5
CEE0
  8
0
 10
4744.0526081487132615
 20
244.7109903685378072
 30
0.0
 40
0.101747946844879
 50
222.7565619400450032
 51
295.5649483253874905
  0
ARC
  5
CEE1
  8
0
 10
4744.0634709915775602
 20
244.6852843839334071
 30
0.0
 40
0.0738823044496772
 50
296.5682420740437237
 51
18.7597877988001009
  0
ARC
  5
CEE2
  8
0
 10
4744.0386235693767958
 20
244.6736973121624885
 30
0.0
 40
0.1011800387555695
 50
20.4478442623976591
 51
98.385327322671472
  0
ARC
  5
CEE3
  8
0
 10
4744.060339632211253
 20
244.6779026378395088
 30
0.0
 40
0.0596684302398596
 50
80.1882708437034069
 51
156.8371160292404909
  0
ARC
  5
CEE4
  8
0
 10
4744.0564546065470495
 20
244.680947530131391
 30
0.0
 40
0.0549135951803018
 50
158.1636672585919996
 51
238.4264285952924922
  0
ARC
  5
CEE5
  8
0
 10
4744.0607806321422686
 20
244.6860186247843956
 30
0.0
 40
0.0615077171455392
 50
237.4664987585290987
 51
314.9403850907403921
  0
ARC
  5
CEE6
  8
0
 10
4744.06589831331803
 20
244.6809322188316003
 30
0.0
 40
0.054292372937462
 50
314.9091240679954922
 51
28.9760421299771309
  0
ARC
  5
CEE7
  8
0
 10
4744.0617905813342077
 20
244.6780661802353052
 30
0.0
 40
0.0592766008223859
 50
29.4760708560197493
 51
81.543408607385274
  0
ARC
  5
CEE8
  8
0
 10
4744.0608070538901302
 20
244.678096157016796
 30
0.0
 40
0.0223046072561604
 50
34.6708340863791022
 51
146.45080723111829
  0
ARC
  5
CEE9
  8
0
 10
4744.0607957048068783
 20
244.681472336998695
 30
0.0
 40
0.0223474279581275
 50
219.4291397034623117
 51
323.0559074947806835
  0
ARC
  5
CEEA
  8
0
 10
4744.0625867107810336
 20
244.679767576460506
 30
0.0
 40
0.0198934507250523
 50
323.8797248793620724
 51
33.6274356072303391
  0
ARC
  5
CEEB
  8
0
 10
4744.0588617727189558
 20
244.6797599984294038
 30
0.0
 40
0.0197663169968197
 50
147.3540657765693993
 51
219.1556705901168129
  0
ARC
  5
CEEC
  8
0
 10
4744.5227416681436807
 20
244.4361282171693119
 30
0.0
 40
0.0796207654095198
 50
96.8279744325287766
 51
166.4714161074745959
  0
ARC
  5
CEED
  8
0
 10
4744.5259363463128466
 20
244.4404424757350114
 30
0.0
 40
0.0818668598602546
 50
169.9321740213840997
 51
224.2624690305206911
  0
ARC
  5
CEEE
  8
0
 10
4744.542015286091555
 20
244.4523789401634986
 30
0.0
 40
0.101747946844879
 50
222.7565619400450032
 51
295.5649483253874905
  0
ARC
  5
CEEF
  8
0
 10
4744.5528781289567632
 20
244.4266729555590985
 30
0.0
 40
0.0738823044496772
 50
296.5682420740437237
 51
18.7597877988001009
  0
ARC
  5
CEF0
  8
0
 10
4744.5280307067559988
 20
244.4150858837882083
 30
0.0
 40
0.1011800387555695
 50
20.4478442623976591
 51
98.385327322671472
  0
ARC
  5
CEF1
  8
0
 10
4744.5497467695913656
 20
244.4192912094652002
 30
0.0
 40
0.0596684302398596
 50
80.1882708437034069
 51
156.8371160292404909
  0
ARC
  5
CEF2
  8
0
 10
4744.5458617439262525
 20
244.4223361017571108
 30
0.0
 40
0.0549135951803018
 50
158.1636672585919996
 51
238.4264285952924922
  0
ARC
  5
CEF3
  8
0
 10
4744.5501877695205621
 20
244.4274071964100017
 30
0.0
 40
0.0615077171455392
 50
237.4664987585290987
 51
314.9403850907403921
  0
ARC
  5
CEF4
  8
0
 10
4744.555305450697233
 20
244.4223207904572917
 30
0.0
 40
0.054292372937462
 50
314.9091240679954922
 51
28.9760421299771309
  0
ARC
  5
CEF5
  8
0
 10
4744.5511977187134107
 20
244.4194547518609966
 30
0.0
 40
0.0592766008223859
 50
29.4760708560197493
 51
81.543408607385274
  0
ARC
  5
CEF6
  8
0
 10
4744.5502141912693332
 20
244.4194847286424874
 30
0.0
 40
0.0223046072561604
 50
34.6708340863791022
 51
146.45080723111829
  0
ARC
  5
CEF7
  8
0
 10
4744.5502028421869909
 20
244.4228609086243864
 30
0.0
 40
0.0223474279581275
 50
219.4291397034623117
 51
323.0559074947806835
  0
ARC
  5
CEF8
  8
0
 10
4744.5519938481602367
 20
244.4211561480861974
 30
0.0
 40
0.0198934507250523
 50
323.8797248793620724
 51
33.6274356072303391
  0
ARC
  5
CEF9
  8
0
 10
4744.5482689100981588
 20
244.4211485700550952
 30
0.0
 40
0.0197663169968197
 50
147.3540657765693993
 51
219.1556705901168129
  0
ARC
  5
CEFA
  8
0
 10
4744.0327182341934531
 20
244.2514554406739933
 30
0.0
 40
0.0796207654095198
 50
96.8279744325287766
 51
166.4714161074745959
  0
ARC
  5
CEFB
  8
0
 10
4744.0359129123617095
 20
244.2557696992396075
 30
0.0
 40
0.0818668598602546
 50
169.9321740213840997
 51
224.2624690305206911
  0
ARC
  5
CEFC
  8
0
 10
4744.0519918521422369
 20
244.2677061636682083
 30
0.0
 40
0.101747946844879
 50
222.7565619400450032
 51
295.5649483253874905
  0
ARC
  5
CEFD
  8
0
 10
4744.0628546950074451
 20
244.2420001790636945
 30
0.0
 40
0.0738823044496772
 50
296.5682420740437237
 51
18.7597877988001009
  0
ARC
  5
CEFE
  8
0
 10
4744.0380072728057712
 20
244.2304131072928044
 30
0.0
 40
0.1011800387555695
 50
20.4478442623976591
 51
98.385327322671472
  0
ARC
  5
CEFF
  8
0
 10
4744.059723335639319
 20
244.2346184329699099
 30
0.0
 40
0.0596684302398596
 50
80.1882708437034069
 51
156.8371160292404909
  0
ARC
  5
CF00
  8
0
 10
4744.0558383099760249
 20
244.2376633252617921
 30
0.0
 40
0.0549135951803018
 50
158.1636672585919996
 51
238.4264285952924922
  0
ARC
  5
CF01
  8
0
 10
4744.060164335571244
 20
244.2427344199147115
 30
0.0
 40
0.0615077171455392
 50
237.4664987585290987
 51
314.9403850907403921
  0
ARC
  5
CF02
  8
0
 10
4744.0652820167470054
 20
244.2376480139618877
 30
0.0
 40
0.054292372937462
 50
314.9091240679954922
 51
28.9760421299771309
  0
ARC
  5
CF03
  8
0
 10
4744.0611742847622736
 20
244.2347819753657063
 30
0.0
 40
0.0592766008223859
 50
29.4760708560197493
 51
81.543408607385274
  0
ARC
  5
CF04
  8
0
 10
4744.0601907573191056
 20
244.2348119521471119
 30
0.0
 40
0.0223046072561604
 50
34.6708340863791022
 51
146.45080723111829
  0
ARC
  5
CF05
  8
0
 10
4744.0601794082358538
 20
244.2381881321290109
 30
0.0
 40
0.0223474279581275
 50
219.4291397034623117
 51
323.0559074947806835
  0
ARC
  5
CF06
  8
0
 10
4744.061970414210009
 20
244.2364833715909072
 30
0.0
 40
0.0198934507250523
 50
323.8797248793620724
 51
33.6274356072303391
  0
ARC
  5
CF07
  8
0
 10
4744.0582454761479312
 20
244.2364757935596913
 30
0.0
 40
0.0197663169968197
 50
147.3540657765693993
 51
219.1556705901168129
  0
ARC
  5
CF08
  8
0
 10
4744.4374351597089117
 20
243.8715849055965919
 30
0.0
 40
0.0796207654095198
 50
96.8279744325287766
 51
166.4714161074745959
  0
ARC
  5
CF09
  8
0
 10
4744.4406298378780775
 20
243.8758991641622913
 30
0.0
 40
0.0818668598602546
 50
169.9321740213840997
 51
224.2624690305206911
  0
ARC
  5
CF0A
  8
0
 10
4744.4567087776576955
 20
243.8878356285908069
 30
0.0
 40
0.101747946844879
 50
222.7565619400450032
 51
295.5649483253874905
  0
ARC
  5
CF0B
  8
0
 10
4744.4675716205238132
 20
243.8621296439862931
 30
0.0
 40
0.0738823044496772
 50
296.5682420740437237
 51
18.7597877988001009
  0
ARC
  5
CF0C
  8
0
 10
4744.4427241983212298
 20
243.8505425722154882
 30
0.0
 40
0.1011800387555695
 50
20.4478442623976591
 51
98.385327322671472
  0
ARC
  5
CF0D
  8
0
 10
4744.464440261155687
 20
243.8547478978925085
 30
0.0
 40
0.0596684302398596
 50
80.1882708437034069
 51
156.8371160292404909
  0
ARC
  5
CF0E
  8
0
 10
4744.460555235490574
 20
243.8577927901843907
 30
0.0
 40
0.0549135951803018
 50
158.1636672585919996
 51
238.4264285952924922
  0
ARC
  5
CF0F
  8
0
 10
4744.4648812610867026
 20
243.86286388483731
 30
0.0
 40
0.0615077171455392
 50
237.4664987585290987
 51
314.9403850907403921
  0
ARC
  5
CF10
  8
0
 10
4744.4699989422633735
 20
243.8577774788844863
 30
0.0
 40
0.054292372937462
 50
314.9091240679954922
 51
28.9760421299771309
  0
ARC
  5
CF11
  8
0
 10
4744.4658912102786417
 20
243.8549114402883049
 30
0.0
 40
0.0592766008223859
 50
29.4760708560197493
 51
81.543408607385274
  0
ARC
  5
CF12
  8
0
 10
4744.4649076828345642
 20
243.8549414170697105
 30
0.0
 40
0.0223046072561604
 50
34.6708340863791022
 51
146.45080723111829
  0
ARC
  5
CF13
  8
0
 10
4744.4648963337531313
 20
243.8583175970516947
 30
0.0
 40
0.0223474279581275
 50
219.4291397034623117
 51
323.0559074947806835
  0
ARC
  5
CF14
  8
0
 10
4744.4666873397263771
 20
243.8566128365135057
 30
0.0
 40
0.0198934507250523
 50
323.8797248793620724
 51
33.6274356072303391
  0
ARC
  5
CF15
  8
0
 10
4744.4629624016642993
 20
243.8566052584822899
 30
0.0
 40
0.0197663169968197
 50
147.3540657765693993
 51
219.1556705901168129
  0
ARC
  5
CF16
  8
0
 10
4743.9014090801019847
 20
243.8244202071055042
 30
0.0
 40
0.0796207654095198
 50
96.8279744325287766
 51
166.4714161074745959
  0
ARC
  5
CF17
  8
0
 10
4743.9046037582720601
 20
243.8287344656712889
 30
0.0
 40
0.0818668598602546
 50
169.9321740213840997
 51
224.2624690305206911
  0
ARC
  5
CF18
  8
0
 10
4743.9206826980507685
 20
243.8406709300998045
 30
0.0
 40
0.101747946844879
 50
222.7565619400450032
 51
295.5649483253874905
  0
ARC
  5
CF19
  8
0
 10
4743.9315455409159767
 20
243.8149649454952907
 30
0.0
 40
0.0738823044496772
 50
296.5682420740437237
 51
18.7597877988001009
  0
ARC
  5
CF1A
  8
0
 10
4743.9066981187143028
 20
243.8033778737244859
 30
0.0
 40
0.1011800387555695
 50
20.4478442623976591
 51
98.385327322671472
  0
ARC
  5
CF1B
  8
0
 10
4743.9284141815478506
 20
243.8075831994015061
 30
0.0
 40
0.0596684302398596
 50
80.1882708437034069
 51
156.8371160292404909
  0
ARC
  5
CF1C
  8
0
 10
4743.9245291558845565
 20
243.8106280916933883
 30
0.0
 40
0.0549135951803018
 50
158.1636672585919996
 51
238.4264285952924922
  0
ARC
  5
CF1D
  8
0
 10
4743.9288551814779566
 20
243.8156991863463077
 30
0.0
 40
0.0615077171455392
 50
237.4664987585290987
 51
314.9403850907403921
  0
ARC
  5
CF1E
  8
0
 10
4743.9339728626546275
 20
243.8106127803935124
 30
0.0
 40
0.054292372937462
 50
314.9091240679954922
 51
28.9760421299771309
  0
ARC
  5
CF1F
  8
0
 10
4743.9298651306717147
 20
243.8077467417973025
 30
0.0
 40
0.0592766008223859
 50
29.4760708560197493
 51
81.543408607385274
  0
ARC
  5
CF20
  8
0
 10
4743.9288816032267277
 20
243.8077767185787934
 30
0.0
 40
0.0223046072561604
 50
34.6708340863791022
 51
146.45080723111829
  0
ARC
  5
CF21
  8
0
 10
4743.9288702541452949
 20
243.8111528985606924
 30
0.0
 40
0.0223474279581275
 50
219.4291397034623117
 51
323.0559074947806835
  0
ARC
  5
CF22
  8
0
 10
4743.9306612601176312
 20
243.8094481380223897
 30
0.0
 40
0.0198934507250523
 50
323.8797248793620724
 51
33.6274356072303391
  0
ARC
  5
CF23
  8
0
 10
4743.9269363220573723
 20
243.8094405599912875
 30
0.0
 40
0.0197663169968197
 50
147.3540657765693993
 51
219.1556705901168129
  0
ARC
  5
CF24
  8
0
 10
4743.5089387936195635
 20
244.124140101930692
 30
0.0
 40
0.0796207654095198
 50
96.8279744325287766
 51
166.4714161074745959
  0
ARC
  5
CF25
  8
0
 10
4743.5121334717896389
 20
244.1284543604963915
 30
0.0
 40
0.0818668598602546
 50
169.9321740213840997
 51
224.2624690305206911
  0
ARC
  5
CF26
  8
0
 10
4743.5282124115683473
 20
244.1403908249249071
 30
0.0
 40
0.101747946844879
 50
222.7565619400450032
 51
295.5649483253874905
  0
ARC
  5
CF27
  8
0
 10
4743.539075254432646
 20
244.1146848403203933
 30
0.0
 40
0.0738823044496772
 50
296.5682420740437237
 51
18.7597877988001009
  0
ARC
  5
CF28
  8
0
 10
4743.5142278322309721
 20
244.1030977685495884
 30
0.0
 40
0.1011800387555695
 50
20.4478442623976591
 51
98.385327322671472
  0
ARC
  5
CF29
  8
0
 10
4743.5359438950663389
 20
244.1073030942266087
 30
0.0
 40
0.0596684302398596
 50
80.1882708437034069
 51
156.8371160292404909
  0
ARC
  5
CF2A
  8
0
 10
4743.5320588694012258
 20
244.1103479865184909
 30
0.0
 40
0.0549135951803018
 50
158.1636672585919996
 51
238.4264285952924922
  0
ARC
  5
CF2B
  8
0
 10
4743.5363848949973544
 20
244.1154190811714102
 30
0.0
 40
0.0615077171455392
 50
237.4664987585290987
 51
314.9403850907403921
  0
ARC
  5
CF2C
  8
0
 10
4743.5415025761740253
 20
244.1103326752187002
 30
0.0
 40
0.054292372937462
 50
314.9091240679954922
 51
28.9760421299771309
  0
ARC
  5
CF2D
  8
0
 10
4743.5373948441892935
 20
244.1074666366224051
 30
0.0
 40
0.0592766008223859
 50
29.4760708560197493
 51
81.543408607385274
  0
ARC
  5
CF2E
  8
0
 10
4743.536411316745216
 20
244.1074966134038107
 30
0.0
 40
0.0223046072561604
 50
34.6708340863791022
 51
146.45080723111829
  0
ARC
  5
CF2F
  8
0
 10
4743.5363999676637832
 20
244.1108727933857949
 30
0.0
 40
0.0223474279581275
 50
219.4291397034623117
 51
323.0559074947806835
  0
ARC
  5
CF30
  8
0
 10
4743.5381909736361195
 20
244.1091680328476059
 30
0.0
 40
0.0198934507250523
 50
323.8797248793620724
 51
33.6274356072303391
  0
ARC
  5
CF31
  8
0
 10
4743.5344660355740416
 20
244.10916045481639
 30
0.0
 40
0.0197663169968197
 50
147.3540657765693993
 51
219.1556705901168129
  0
ARC
  5
CF32
  8
0
 10
4744.1879869858075836
 20
243.3531761716729136
 30
0.0
 40
0.0796207654095198
 50
96.8279744325287766
 51
166.4714161074745959
  0
ARC
  5
CF33
  8
0
 10
4744.1911816639776589
 20
243.357490430238613
 30
0.0
 40
0.0818668598602546
 50
169.9321740213840997
 51
224.2624690305206911
  0
ARC
  5
CF34
  8
0
 10
4744.2072606037572768
 20
243.3694268946672139
 30
0.0
 40
0.101747946844879
 50
222.7565619400450032
 51
295.5649483253874905
  0
ARC
  5
CF35
  8
0
 10
4744.2181234466215756
 20
243.3437209100627001
 30
0.0
 40
0.0738823044496772
 50
296.5682420740437237
 51
18.7597877988001009
  0
ARC
  5
CF36
  8
0
 10
4744.1932760244208112
 20
243.33213383829181
 30
0.0
 40
0.1011800387555695
 50
20.4478442623976591
 51
98.385327322671472
  0
ARC
  5
CF37
  8
0
 10
4744.2149920872552684
 20
243.3363391639688018
 30
0.0
 40
0.0596684302398596
 50
80.1882708437034069
 51
156.8371160292404909
  0
ARC
  5
CF38
  8
0
 10
4744.2111070615901554
 20
243.3393840562607124
 30
0.0
 40
0.0549135951803018
 50
158.1636672585919996
 51
238.4264285952924922
  0
ARC
  5
CF39
  8
0
 10
4744.2154330871871935
 20
243.3444551509136886
 30
0.0
 40
0.0615077171455392
 50
237.4664987585290987
 51
314.9403850907403921
  0
ARC
  5
CF3A
  8
0
 10
4744.2205507683620453
 20
243.3393687449608933
 30
0.0
 40
0.054292372937462
 50
314.9091240679954922
 51
28.9760421299771309
  0
ARC
  5
CF3B
  8
0
 10
4744.216443036378223
 20
243.3365027063645982
 30
0.0
 40
0.0592766008223859
 50
29.4760708560197493
 51
81.543408607385274
  0
ARC
  5
CF3C
  8
0
 10
4744.2154595089341456
 20
243.3365326831460891
 30
0.0
 40
0.0223046072561604
 50
34.6708340863791022
 51
146.45080723111829
  0
ARC
  5
CF3D
  8
0
 10
4744.2154481598518032
 20
243.3399088631279881
 30
0.0
 40
0.0223474279581275
 50
219.4291397034623117
 51
323.0559074947806835
  0
ARC
  5
CF3E
  8
0
 10
4744.217239165825049
 20
243.338204102589799
 30
0.0
 40
0.0198934507250523
 50
323.8797248793620724
 51
33.6274356072303391
  0
ARC
  5
CF3F
  8
0
 10
4744.2135142277638806
 20
243.3381965245586969
 30
0.0
 40
0.0197663169968197
 50
147.3540657765693993
 51
219.1556705901168129
  0
ARC
  5
CF40
  8
0
 10
4743.6520406733989148
 20
243.4516959742904021
 30
0.0
 40
0.0796207654095198
 50
96.8279744325287766
 51
166.4714161074745959
  0
ARC
  5
CF41
  8
0
 10
4743.6552353515698996
 20
243.4560102328561015
 30
0.0
 40
0.0818668598602546
 50
169.9321740213840997
 51
224.2624690305206911
  0
ARC
  5
CF42
  8
0
 10
4743.6713142913486081
 20
243.4679466972845887
 30
0.0
 40
0.101747946844879
 50
222.7565619400450032
 51
295.5649483253874905
  0
ARC
  5
CF43
  8
0
 10
4743.6821771342129068
 20
243.4422407126801033
 30
0.0
 40
0.0738823044496772
 50
296.5682420740437237
 51
18.7597877988001009
  0
ARC
  5
CF44
  8
0
 10
4743.6573297120121424
 20
243.4306536409092985
 30
0.0
 40
0.1011800387555695
 50
20.4478442623976591
 51
98.385327322671472
  0
ARC
  5
CF45
  8
0
 10
4743.6790457748456902
 20
243.4348589665862903
 30
0.0
 40
0.0596684302398596
 50
80.1882708437034069
 51
156.8371160292404909
  0
ARC
  5
CF46
  8
0
 10
4743.6751607491823961
 20
243.4379038588780872
 30
0.0
 40
0.0549135951803018
 50
158.1636672585919996
 51
238.4264285952924922
  0
ARC
  5
CF47
  8
0
 10
4743.6794867747767057
 20
243.4429749535310918
 30
0.0
 40
0.0615077171455392
 50
237.4664987585290987
 51
314.9403850907403921
  0
ARC
  5
CF48
  8
0
 10
4743.6846044559533766
 20
243.4378885475782965
 30
0.0
 40
0.054292372937462
 50
314.9091240679954922
 51
28.9760421299771309
  0
ARC
  5
CF49
  8
0
 10
4743.6804967239686448
 20
243.4350225089820867
 30
0.0
 40
0.0592766008223859
 50
29.4760708560197493
 51
81.543408607385274
  0
ARC
  5
CF4A
  8
0
 10
4743.6795131965245673
 20
243.4350524857634923
 30
0.0
 40
0.0223046072561604
 50
34.6708340863791022
 51
146.45080723111829
  0
ARC
  5
CF4B
  8
0
 10
4743.6795018474431345
 20
243.4384286657453913
 30
0.0
 40
0.0223474279581275
 50
219.4291397034623117
 51
323.0559074947806835
  0
ARC
  5
CF4C
  8
0
 10
4743.6812928534163802
 20
243.4367239052072023
 30
0.0
 40
0.0198934507250523
 50
323.8797248793620724
 51
33.6274356072303391
  0
ARC
  5
CF4D
  8
0
 10
4743.6775679153543024
 20
243.4367163271761001
 30
0.0
 40
0.0197663169968197
 50
147.3540657765693993
 51
219.1556705901168129
  0
ARC
  5
CF4E
  8
0
 10
4743.30360045622092
 20
243.7896583069820906
 30
0.0
 40
0.0796207654095198
 50
96.8279744325287766
 51
166.4714161074745959
  0
ARC
  5
CF4F
  8
0
 10
4743.3067951343919049
 20
243.7939725655477901
 30
0.0
 40
0.0818668598602546
 50
169.9321740213840997
 51
224.2624690305206911
  0
ARC
  5
CF50
  8
0
 10
4743.3228740741697038
 20
243.8059090299763056
 30
0.0
 40
0.101747946844879
 50
222.7565619400450032
 51
295.5649483253874905
  0
ARC
  5
CF51
  8
0
 10
4743.3337369170358215
 20
243.7802030453717919
 30
0.0
 40
0.0738823044496772
 50
296.5682420740437237
 51
18.7597877988001009
  0
ARC
  5
CF52
  8
0
 10
4743.3088894948341476
 20
243.7686159736009017
 30
0.0
 40
0.1011800387555695
 50
20.4478442623976591
 51
98.385327322671472
  0
ARC
  5
CF53
  8
0
 10
4743.3306055576686049
 20
243.7728212992780072
 30
0.0
 40
0.0596684302398596
 50
80.1882708437034069
 51
156.8371160292404909
  0
ARC
  5
CF54
  8
0
 10
4743.3267205320044013
 20
243.7758661915698895
 30
0.0
 40
0.0549135951803018
 50
158.1636672585919996
 51
238.4264285952924922
  0
ARC
  5
CF55
  8
0
 10
4743.3310465575987109
 20
243.7809372862228088
 30
0.0
 40
0.0615077171455392
 50
237.4664987585290987
 51
314.9403850907403921
  0
ARC
  5
CF56
  8
0
 10
4743.3361642387753818
 20
243.7758508802700135
 30
0.0
 40
0.054292372937462
 50
314.9091240679954922
 51
28.9760421299771309
  0
ARC
  5
CF57
  8
0
 10
4743.33205650679065
 20
243.7729848416738037
 30
0.0
 40
0.0592766008223859
 50
29.4760708560197493
 51
81.543408607385274
  0
ARC
  5
CF58
  8
0
 10
4743.3310729793465725
 20
243.7730148184552093
 30
0.0
 40
0.0223046072561604
 50
34.6708340863791022
 51
146.45080723111829
  0
ARC
  5
CF59
  8
0
 10
4743.3310616302660492
 20
243.7763909984371082
 30
0.0
 40
0.0223474279581275
 50
219.4291397034623117
 51
323.0559074947806835
  0
ARC
  5
CF5A
  8
0
 10
4743.3328526362383855
 20
243.7746862378990045
 30
0.0
 40
0.0198934507250523
 50
323.8797248793620724
 51
33.6274356072303391
  0
ARC
  5
CF5B
  8
0
 10
4743.3291276981763076
 20
243.7746786598677886
 30
0.0
 40
0.0197663169968197
 50
147.3540657765693993
 51
219.1556705901168129
  0
ARC
  5
CF5C
  8
0
 10
4743.795640385965271
 20
242.9195768731854059
 30
0.0
 40
0.0796207654095198
 50
96.8279744325287766
 51
166.4714161074745959
  0
ARC
  5
CF5D
  8
0
 10
4743.7988350641362558
 20
242.9238911317511054
 30
0.0
 40
0.0818668598602546
 50
169.9321740213840997
 51
224.2624690305206911
  0
ARC
  5
CF5E
  8
0
 10
4743.8149140039140548
 20
242.9358275961797062
 30
0.0
 40
0.101747946844879
 50
222.7565619400450032
 51
295.5649483253874905
  0
ARC
  5
CF5F
  8
0
 10
4743.825776846779263
 20
242.9101216115751924
 30
0.0
 40
0.0738823044496772
 50
296.5682420740437237
 51
18.7597877988001009
  0
ARC
  5
CF60
  8
0
 10
4743.8009294245766796
 20
242.8985345398043023
 30
0.0
 40
0.1011800387555695
 50
20.4478442623976591
 51
98.385327322671472
  0
ARC
  5
CF61
  8
0
 10
4743.8226454874111369
 20
242.9027398654812941
 30
0.0
 40
0.0596684302398596
 50
80.1882708437034069
 51
156.8371160292404909
  0
ARC
  5
CF62
  8
0
 10
4743.8187604617478428
 20
242.9057847577732048
 30
0.0
 40
0.0549135951803018
 50
158.1636672585919996
 51
238.4264285952924922
  0
ARC
  5
CF63
  8
0
 10
4743.8230864873421524
 20
242.9108558524262094
 30
0.0
 40
0.0615077171455392
 50
237.4664987585290987
 51
314.9403850907403921
  0
ARC
  5
CF64
  8
0
 10
4743.8282041685188233
 20
242.9057694464734141
 30
0.0
 40
0.054292372937462
 50
314.9091240679954922
 51
28.9760421299771309
  0
ARC
  5
CF65
  8
0
 10
4743.824096436535001
 20
242.9029034078770906
 30
0.0
 40
0.0592766008223859
 50
29.4760708560197493
 51
81.543408607385274
  0
ARC
  5
CF66
  8
0
 10
4743.823112909090014
 20
242.9029333846586098
 30
0.0
 40
0.0223046072561604
 50
34.6708340863791022
 51
146.45080723111829
  0
ARC
  5
CF67
  8
0
 10
4743.8231015600085811
 20
242.9063095646405088
 30
0.0
 40
0.0223474279581275
 50
219.4291397034623117
 51
323.0559074947806835
  0
ARC
  5
CF68
  8
0
 10
4743.8248925659818269
 20
242.9046048041022914
 30
0.0
 40
0.0198934507250523
 50
323.8797248793620724
 51
33.6274356072303391
  0
ARC
  5
CF69
  8
0
 10
4743.8211676279197491
 20
242.9045972260711892
 30
0.0
 40
0.0197663169968197
 50
147.3540657765693993
 51
219.1556705901168129
  0
ARC
  5
CF6A
  8
0
 10
4743.2981917178603908
 20
243.1595362005317895
 30
0.0
 40
0.0796207654095198
 50
96.8279744325287766
 51
166.4714161074745959
  0
ARC
  5
CF6B
  8
0
 10
4743.3013863960295566
 20
243.1638504590976027
 30
0.0
 40
0.0818668598602546
 50
169.9321740213840997
 51
224.2624690305206911
  0
ARC
  5
CF6C
  8
0
 10
4743.3174653358091746
 20
243.1757869235260898
 30
0.0
 40
0.101747946844879
 50
222.7565619400450032
 51
295.5649483253874905
  0
ARC
  5
CF6D
  8
0
 10
4743.3283281786743828
 20
243.1500809389216045
 30
0.0
 40
0.0738823044496772
 50
296.5682420740437237
 51
18.7597877988001009
  0
ARC
  5
CF6E
  8
0
 10
4743.3034807564717994
 20
243.1384938671507996
 30
0.0
 40
0.1011800387555695
 50
20.4478442623976591
 51
98.385327322671472
  0
ARC
  5
CF6F
  8
0
 10
4743.3251968193071662
 20
243.1426991928277914
 30
0.0
 40
0.0596684302398596
 50
80.1882708437034069
 51
156.8371160292404909
  0
ARC
  5
CF70
  8
0
 10
4743.3213117936429626
 20
243.145744085119702
 30
0.0
 40
0.0549135951803018
 50
158.1636672585919996
 51
238.4264285952924922
  0
ARC
  5
CF71
  8
0
 10
4743.3256378192372722
 20
243.150815179772593
 30
0.0
 40
0.0615077171455392
 50
237.4664987585290987
 51
314.9403850907403921
  0
ARC
  5
CF72
  8
0
 10
4743.3307555004139431
 20
243.1457287738197977
 30
0.0
 40
0.054292372937462
 50
314.9091240679954922
 51
28.9760421299771309
  0
ARC
  5
CF73
  8
0
 10
4743.3266477684292113
 20
243.1428627352235878
 30
0.0
 40
0.0592766008223859
 50
29.4760708560197493
 51
81.543408607385274
  0
ARC
  5
CF74
  8
0
 10
4743.3256642409860433
 20
243.1428927120049934
 30
0.0
 40
0.0223046072561604
 50
34.6708340863791022
 51
146.45080723111829
  0
ARC
  5
CF75
  8
0
 10
4743.3256528919027915
 20
243.1462688919868924
 30
0.0
 40
0.0223474279581275
 50
219.4291397034623117
 51
323.0559074947806835
  0
ARC
  5
CF76
  8
0
 10
4743.3274438978769467
 20
243.1445641314487887
 30
0.0
 40
0.0198934507250523
 50
323.8797248793620724
 51
33.6274356072303391
  0
ARC
  5
CF77
  8
0
 10
4743.3237189598148689
 20
243.1445565534176012
 30
0.0
 40
0.0197663169968197
 50
147.3540657765693993
 51
219.1556705901168129
  0
ARC
  5
CF78
  8
0
 10
4742.8724236113439474
 20
242.976556909980701
 30
0.0
 40
0.0796207654095198
 50
96.8279744325287766
 51
166.4714161074745959
  0
ARC
  5
CF79
  8
0
 10
4742.8756182895140228
 20
242.9808711685464004
 30
0.0
 40
0.0818668598602546
 50
169.9321740213840997
 51
224.2624690305206911
  0
ARC
  5
CF7A
  8
0
 10
4742.8916972292927312
 20
242.9928076329748876
 30
0.0
 40
0.101747946844879
 50
222.7565619400450032
 51
295.5649483253874905
  0
ARC
  5
CF7B
  8
0
 10
4742.9025600721579394
 20
242.9671016483704022
 30
0.0
 40
0.0738823044496772
 50
296.5682420740437237
 51
18.7597877988001009
  0
ARC
  5
CF7C
  8
0
 10
4742.877712649955356
 20
242.9555145765995974
 30
0.0
 40
0.1011800387555695
 50
20.4478442623976591
 51
98.385327322671472
  0
ARC
  5
CF7D
  8
0
 10
4742.8994287127898133
 20
242.9597199022765892
 30
0.0
 40
0.0596684302398596
 50
80.1882708437034069
 51
156.8371160292404909
  0
ARC
  5
CF7E
  8
0
 10
4742.8955436871256097
 20
242.9627647945684998
 30
0.0
 40
0.0549135951803018
 50
158.1636672585919996
 51
238.4264285952924922
  0
ARC
  5
CF7F
  8
0
 10
4742.8998697127199193
 20
242.9678358892213907
 30
0.0
 40
0.0615077171455392
 50
237.4664987585290987
 51
314.9403850907403921
  0
ARC
  5
CF80
  8
0
 10
4742.9049873938984092
 20
242.9627494832685954
 30
0.0
 40
0.054292372937462
 50
314.9091240679954922
 51
28.9760421299771309
  0
ARC
  5
CF81
  8
0
 10
4742.9008796619127679
 20
242.959883444672414
 30
0.0
 40
0.0592766008223859
 50
29.4760708560197493
 51
81.543408607385274
  0
ARC
  5
CF82
  8
0
 10
4742.8998961344695999
 20
242.9599134214539049
 30
0.0
 40
0.0223046072561604
 50
34.6708340863791022
 51
146.45080723111829
  0
ARC
  5
CF83
  8
0
 10
4742.8998847853872576
 20
242.9632896014358039
 30
0.0
 40
0.0223474279581275
 50
219.4291397034623117
 51
323.0559074947806835
  0
ARC
  5
CF84
  8
0
 10
4742.9016757913614128
 20
242.9615848408975864
 30
0.0
 40
0.0198934507250523
 50
323.8797248793620724
 51
33.6274356072303391
  0
ARC
  5
CF85
  8
0
 10
4742.8979508532984255
 20
242.961577262866399
 30
0.0
 40
0.0197663169968197
 50
147.3540657765693993
 51
219.1556705901168129
  0
ARC
  5
CF86
  8
0
 10
4743.2882065738722304
 20
242.6105589976027943
 30
0.0
 40
0.0796207654095198
 50
96.8279744325287766
 51
166.4714161074745959
  0
ARC
  5
CF87
  8
0
 10
4743.2914012520423057
 20
242.6148732561684938
 30
0.0
 40
0.0818668598602546
 50
169.9321740213840997
 51
224.2624690305206911
  0
ARC
  5
CF88
  8
0
 10
4743.3074801918210142
 20
242.6268097205970093
 30
0.0
 40
0.101747946844879
 50
222.7565619400450032
 51
295.5649483253874905
  0
ARC
  5
CF89
  8
0
 10
4743.3183430346862224
 20
242.6011037359926092
 30
0.0
 40
0.0738823044496772
 50
296.5682420740437237
 51
18.7597877988001009
  0
ARC
  5
CF8A
  8
0
 10
4743.293495612483639
 20
242.5895166642216907
 30
0.0
 40
0.1011800387555695
 50
20.4478442623976591
 51
98.385327322671472
  0
ARC
  5
CF8B
  8
0
 10
4743.3152116753180962
 20
242.5937219898987109
 30
0.0
 40
0.0596684302398596
 50
80.1882708437034069
 51
156.8371160292404909
  0
ARC
  5
CF8C
  8
0
 10
4743.3113266496548022
 20
242.5967668821905932
 30
0.0
 40
0.0549135951803018
 50
158.1636672585919996
 51
238.4264285952924922
  0
ARC
  5
CF8D
  8
0
 10
4743.3156526752482023
 20
242.6018379768435977
 30
0.0
 40
0.0615077171455392
 50
237.4664987585290987
 51
314.9403850907403921
  0
ARC
  5
CF8E
  8
0
 10
4743.3207703564248732
 20
242.5967515708908024
 30
0.0
 40
0.054292372937462
 50
314.9091240679954922
 51
28.9760421299771309
  0
ARC
  5
CF8F
  8
0
 10
4743.3166626244419604
 20
242.5938855322945074
 30
0.0
 40
0.0592766008223859
 50
29.4760708560197493
 51
81.543408607385274
  0
ARC
  5
CF90
  8
0
 10
4743.3156790969978829
 20
242.5939155090759982
 30
0.0
 40
0.0223046072561604
 50
34.6708340863791022
 51
146.45080723111829
  0
ARC
  5
CF91
  8
0
 10
4743.315667747914631
 20
242.5972916890578972
 30
0.0
 40
0.0223474279581275
 50
219.4291397034623117
 51
323.0559074947806835
  0
ARC
  5
CF92
  8
0
 10
4743.3174587538878768
 20
242.5955869285197082
 30
0.0
 40
0.0198934507250523
 50
323.8797248793620724
 51
33.6274356072303391
  0
ARC
  5
CF93
  8
0
 10
4743.3137338158267085
 20
242.595579350488606
 30
0.0
 40
0.0197663169968197
 50
147.3540657765693993
 51
219.1556705901168129
  0
ARC
  5
CF94
  8
0
 10
4742.7116364414687268
 20
242.4497214222706987
 30
0.0
 40
0.0796207654095198
 50
96.8279744325287766
 51
166.4714161074745959
  0
ARC
  5
CF95
  8
0
 10
4742.7148311196378927
 20
242.4540356808363981
 30
0.0
 40
0.0818668598602546
 50
169.9321740213840997
 51
224.2624690305206911
  0
ARC
  5
CF96
  8
0
 10
4742.7309100594166011
 20
242.465972145264999
 30
0.0
 40
0.101747946844879
 50
222.7565619400450032
 51
295.5649483253874905
  0
ARC
  5
CF97
  8
0
 10
4742.7417729022827189
 20
242.4402661606605136
 30
0.0
 40
0.0738823044496772
 50
296.5682420740437237
 51
18.7597877988001009
  0
ARC
  5
CF98
  8
0
 10
4742.7169254800801355
 20
242.4286790888895951
 30
0.0
 40
0.1011800387555695
 50
20.4478442623976591
 51
98.385327322671472
  0
ARC
  5
CF99
  8
0
 10
4742.7386415429136832
 20
242.4328844145665869
 30
0.0
 40
0.0596684302398596
 50
80.1882708437034069
 51
156.8371160292404909
  0
ARC
  5
CF9A
  8
0
 10
4742.7347565172503892
 20
242.4359293068584975
 30
0.0
 40
0.0549135951803018
 50
158.1636672585919996
 51
238.4264285952924922
  0
ARC
  5
CF9B
  8
0
 10
4742.7390825428446988
 20
242.4410004015115021
 30
0.0
 40
0.0615077171455392
 50
237.4664987585290987
 51
314.9403850907403921
  0
ARC
  5
CF9C
  8
0
 10
4742.7442002240213696
 20
242.4359139955587068
 30
0.0
 40
0.054292372937462
 50
314.9091240679954922
 51
28.9760421299771309
  0
ARC
  5
CF9D
  8
0
 10
4742.7400924920366379
 20
242.4330479569624117
 30
0.0
 40
0.0592766008223859
 50
29.4760708560197493
 51
81.543408607385274
  0
ARC
  5
CF9E
  8
0
 10
4742.7391089645943794
 20
242.4330779337439026
 30
0.0
 40
0.0223046072561604
 50
34.6708340863791022
 51
146.45080723111829
  0
ARC
  5
CF9F
  8
0
 10
4742.739097615512037
 20
242.4364541137258016
 30
0.0
 40
0.0223474279581275
 50
219.4291397034623117
 51
323.0559074947806835
  0
ARC
  5
CFA0
  8
0
 10
4742.7408886214843733
 20
242.4347493531876125
 30
0.0
 40
0.0198934507250523
 50
323.8797248793620724
 51
33.6274356072303391
  0
ARC
  5
CFA1
  8
0
 10
4742.7371636834232049
 20
242.4347417751565104
 30
0.0
 40
0.0197663169968197
 50
147.3540657765693993
 51
219.1556705901168129
  0
ARC
  5
CFA2
  8
0
 10
4742.6144543539148799
 20
243.4112532260949138
 30
0.0
 40
0.0796207654095198
 50
96.8279744325287766
 51
166.4714161074745959
  0
ARC
  5
CFA3
  8
0
 10
4742.6176490320849553
 20
243.4155674846606985
 30
0.0
 40
0.0818668598602546
 50
169.9321740213840997
 51
224.2624690305206911
  0
ARC
  5
CFA4
  8
0
 10
4742.6337279718627542
 20
243.4275039490892141
 30
0.0
 40
0.101747946844879
 50
222.7565619400450032
 51
295.5649483253874905
  0
ARC
  5
CFA5
  8
0
 10
4742.6445908147288719
 20
243.4017979644847003
 30
0.0
 40
0.0738823044496772
 50
296.5682420740437237
 51
18.7597877988001009
  0
ARC
  5
CFA6
  8
0
 10
4742.619743392527198
 20
243.3902108927138954
 30
0.0
 40
0.1011800387555695
 50
20.4478442623976591
 51
98.385327322671472
  0
ARC
  5
CFA7
  8
0
 10
4742.6414594553616553
 20
243.3944162183908873
 30
0.0
 40
0.0596684302398596
 50
80.1882708437034069
 51
156.8371160292404909
  0
ARC
  5
CFA8
  8
0
 10
4742.6375744296974517
 20
243.3974611106827126
 30
0.0
 40
0.0549135951803018
 50
158.1636672585919996
 51
238.4264285952924922
  0
ARC
  5
CFA9
  8
0
 10
4742.6419004552917613
 20
243.4025322053356888
 30
0.0
 40
0.0615077171455392
 50
237.4664987585290987
 51
314.9403850907403921
  0
ARC
  5
CFAA
  8
0
 10
4742.6470181364693417
 20
243.3974457993828935
 30
0.0
 40
0.054292372937462
 50
314.9091240679954922
 51
28.9760421299771309
  0
ARC
  5
CFAB
  8
0
 10
4742.6429104044846099
 20
243.3945797607865984
 30
0.0
 40
0.0592766008223859
 50
29.4760708560197493
 51
81.543408607385274
  0
ARC
  5
CFAC
  8
0
 10
4742.6419268770414419
 20
243.3946097375680893
 30
0.0
 40
0.0223046072561604
 50
34.6708340863791022
 51
146.45080723111829
  0
ARC
  5
CFAD
  8
0
 10
4742.6419155279590996
 20
243.3979859175499882
 30
0.0
 40
0.0223474279581275
 50
219.4291397034623117
 51
323.0559074947806835
  0
ARC
  5
CFAE
  8
0
 10
4742.6437065339314358
 20
243.3962811570117992
 30
0.0
 40
0.0198934507250523
 50
323.8797248793620724
 51
33.6274356072303391
  0
ARC
  5
CFAF
  8
0
 10
4742.6399815958702675
 20
243.396273578980697
 30
0.0
 40
0.0197663169968197
 50
147.3540657765693993
 51
219.1556705901168129
  0
ARC
  5
CFB0
  8
0
 10
4743.3059554878036579
 20
245.2176299037741956
 30
0.0
 40
0.0796207654095198
 50
96.8279744325287766
 51
166.4714161074745959
  0
ARC
  5
CFB1
  8
0
 10
4743.3091501659737332
 20
245.221944162339895
 30
0.0
 40
0.0818668598602546
 50
169.9321740213840997
 51
224.2624690305206911
  0
ARC
  5
CFB2
  8
0
 10
4743.3252291057533512
 20
245.2338806267684106
 30
0.0
 40
0.101747946844879
 50
222.7565619400450032
 51
295.5649483253874905
  0
ARC
  5
CFB3
  8
0
 10
4743.3360919486176499
 20
245.2081746421638968
 30
0.0
 40
0.0738823044496772
 50
296.5682420740437237
 51
18.7597877988001009
  0
ARC
  5
CFB4
  8
0
 10
4743.3112445264168855
 20
245.1965875703930919
 30
0.0
 40
0.1011800387555695
 50
20.4478442623976591
 51
98.385327322671472
  0
ARC
  5
CFB5
  8
0
 10
4743.3329605892522522
 20
245.2007928960701122
 30
0.0
 40
0.0596684302398596
 50
80.1882708437034069
 51
156.8371160292404909
  0
ARC
  5
CFB6
  8
0
 10
4743.3290755635871392
 20
245.2038377883619944
 30
0.0
 40
0.0549135951803018
 50
158.1636672585919996
 51
238.4264285952924922
  0
ARC
  5
CFB7
  8
0
 10
4743.3334015891823583
 20
245.2089088830149137
 30
0.0
 40
0.0615077171455392
 50
237.4664987585290987
 51
314.9403850907403921
  0
ARC
  5
CFB8
  8
0
 10
4743.3385192703581197
 20
245.2038224770622037
 30
0.0
 40
0.054292372937462
 50
314.9091240679954922
 51
28.9760421299771309
  0
ARC
  5
CFB9
  8
0
 10
4743.3344115383742974
 20
245.2009564384659086
 30
0.0
 40
0.0592766008223859
 50
29.4760708560197493
 51
81.543408607385274
  0
ARC
  5
CFBA
  8
0
 10
4743.3334280109302199
 20
245.2009864152473142
 30
0.0
 40
0.0223046072561604
 50
34.6708340863791022
 51
146.45080723111829
  0
ARC
  5
CFBB
  8
0
 10
4743.3334166618469681
 20
245.2043625952292984
 30
0.0
 40
0.0223474279581275
 50
219.4291397034623117
 51
323.0559074947806835
  0
ARC
  5
CFBC
  8
0
 10
4743.3352076678211233
 20
245.2026578346911094
 30
0.0
 40
0.0198934507250523
 50
323.8797248793620724
 51
33.6274356072303391
  0
ARC
  5
CFBD
  8
0
 10
4743.3314827297590455
 20
245.2026502566598936
 30
0.0
 40
0.0197663169968197
 50
147.3540657765693993
 51
219.1556705901168129
  0
ARC
  5
CFBE
  8
0
 10
4743.6042510409115494
 20
244.5130111884884059
 30
0.0
 40
0.0459737295141172
 50
66.4511343999588036
 51
176.6349861644866053
  0
ARC
  5
CFBF
  8
0
 10
4743.6107617470979676
 20
244.5207249603109005
 30
0.0
 40
0.0526446076710393
 50
185.4666509157084135
 51
265.0358046294476253
  0
ARC
  5
CFC0
  8
0
 10
4743.6079007920006916
 20
244.5141744952485112
 30
0.0
 40
0.0459279426040826
 50
267.8855429339006946
 51
355.4770208735235997
  0
ARC
  5
CFC1
  8
0
 10
4743.6040255927819089
 20
244.5090848812457125
 30
0.0
 40
0.0496817990950203
 50
1.69297812735799
 51
68.0220747284930241
  0
ARC
  5
CFC2
  8
0
 10
4743.6054435101077615
 20
244.5137344464446016
 30
0.0
 40
0.0281421644099724
 50
25.3136967477955999
 51
153.8206400957222968
  0
ARC
  5
CFC3
  8
0
 10
4743.6069765882702995
 20
244.517527393653296
 30
0.0
 40
0.0286005630111563
 50
216.3779404053732947
 51
322.942619703621574
  0
ARC
  5
CFC4
  8
0
 10
4743.6041095140190009
 20
244.5165973778904913
 30
0.0
 40
0.0257582050355851
 50
158.2308223299662018
 51
218.4953798977020085
  0
ARC
  5
CFC5
  8
0
 10
4743.6084306085849676
 20
244.5139610484906996
 30
0.0
 40
0.0253676728943692
 50
327.3962230035797916
 51
27.7364699284309602
  0
ARC
  5
CFC6
  8
0
 10
4743.6057013472718609
 20
244.5478648126454004
 30
0.0
 40
0.0335028270365927
 50
220.4015361824554873
 51
318.7328006610835018
  0
ARC
  5
CFC7
  8
0
 10
4743.0203526762770707
 20
243.5521614830657029
 30
0.0
 40
0.0459737295141172
 50
66.4511343999588036
 51
176.6349861644866053
  0
ARC
  5
CFC8
  8
0
 10
4743.0268633824625795
 20
243.5598752548881976
 30
0.0
 40
0.0526446076710393
 50
185.4666509157084135
 51
265.0358046294476253
  0
ARC
  5
CFC9
  8
0
 10
4743.0240024273671224
 20
243.5533247898258082
 30
0.0
 40
0.0459279426040826
 50
267.8855429339006946
 51
355.4770208735235997
  0
ARC
  5
CFCA
  8
0
 10
4743.0201272281474303
 20
243.5482351758230095
 30
0.0
 40
0.0496817990950203
 50
1.69297812735799
 51
68.0220747284930241
  0
ARC
  5
CFCB
  8
0
 10
4743.0215451454741924
 20
243.5528847410218987
 30
0.0
 40
0.0281421644099724
 50
25.3136967477955999
 51
153.8206400957222968
  0
ARC
  5
CFCC
  8
0
 10
4743.0230782236349114
 20
243.556677688230593
 30
0.0
 40
0.0286005630111563
 50
216.3779404053732947
 51
322.942619703621574
  0
ARC
  5
CFCD
  8
0
 10
4743.0202111493836128
 20
243.555747672467902
 30
0.0
 40
0.0257582050355851
 50
158.2308223299662018
 51
218.4953798977020085
  0
ARC
  5
CFCE
  8
0
 10
4743.0245322439495794
 20
243.5531113430679966
 30
0.0
 40
0.0253676728943692
 50
327.3962230035797916
 51
27.7364699284309602
  0
ARC
  5
CFCF
  8
0
 10
4743.0218029826382917
 20
243.5870151072228111
 30
0.0
 40
0.0335028270365927
 50
220.4015361824554873
 51
318.7328006610835018
  0
ARC
  5
CFD0
  8
0
 10
4743.0199280743236159
 20
245.4738491426772953
 30
0.0
 40
0.0459737295141172
 50
66.4511343999588036
 51
176.6349861644866053
  0
ARC
  5
CFD1
  8
0
 10
4743.0264387805100341
 20
245.4815629144997899
 30
0.0
 40
0.0526446076710393
 50
185.4666509157084135
 51
265.0358046294476253
  0
ARC
  5
CFD2
  8
0
 10
4743.0235778254136676
 20
245.4750124494374006
 30
0.0
 40
0.0459279426040826
 50
267.8855429339006946
 51
355.4770208735235997
  0
ARC
  5
CFD3
  8
0
 10
4743.0197026261939754
 20
245.4699228354344882
 30
0.0
 40
0.0496817990950203
 50
1.69297812735799
 51
68.0220747284930241
  0
ARC
  5
CFD4
  8
0
 10
4743.0211205435198281
 20
245.474572400633491
 30
0.0
 40
0.0281421644099724
 50
25.3136967477955999
 51
153.8206400957222968
  0
ARC
  5
CFD5
  8
0
 10
4743.0226536216805471
 20
245.4783653478421002
 30
0.0
 40
0.0286005630111563
 50
216.3779404053732947
 51
322.942619703621574
  0
ARC
  5
CFD6
  8
0
 10
4743.0197865474310674
 20
245.4774353320794091
 30
0.0
 40
0.0257582050355851
 50
158.2308223299662018
 51
218.4953798977020085
  0
ARC
  5
CFD7
  8
0
 10
4743.0241076419961246
 20
245.4747990026795037
 30
0.0
 40
0.0253676728943692
 50
327.3962230035797916
 51
27.7364699284309602
  0
ARC
  5
CFD8
  8
0
 10
4743.0213783806839274
 20
245.5087027668342898
 30
0.0
 40
0.0335028270365927
 50
220.4015361824554873
 51
318.7328006610835018
  0
ARC
  5
CFD9
  8
0
 10
4742.4665152862398827
 20
246.0306941604040958
 30
0.0
 40
0.0796207654095198
 50
13.5285838925254307
 51
83.1720255674712234
  0
ARC
  5
CFDA
  8
0
 10
4742.4633206080688979
 20
246.0350084189697952
 30
0.0
 40
0.0818668598602546
 50
315.7375309694792804
 51
10.0678259786158595
  0
ARC
  5
CFDB
  8
0
 10
4742.4472416682910989
 20
246.0469448833983108
 30
0.0
 40
0.101747946844879
 50
244.4350516746125095
 51
317.2434380599549968
  0
ARC
  5
CFDC
  8
0
 10
4742.4363788254258907
 20
246.0212388987939107
 30
0.0
 40
0.0738823044496772
 50
161.2402122011999097
 51
243.4317579259563047
  0
ARC
  5
CFDD
  8
0
 10
4742.4612262476266551
 20
246.0096518270229922
 30
0.0
 40
0.1011800387555695
 50
81.6146726773285138
 51
159.5521557376023054
  0
ARC
  5
CFDE
  8
0
 10
4742.4395101847940168
 20
246.0138571527000124
 30
0.0
 40
0.0596684302398596
 50
23.1628839707594594
 51
99.8117291562966074
  0
ARC
  5
CFDF
  8
0
 10
4742.4433952104564014
 20
246.0169020449918946
 30
0.0
 40
0.0549135951803018
 50
301.5735714047074794
 51
21.8363327414080111
  0
ARC
  5
CFE0
  8
0
 10
4742.4390691848620918
 20
246.0219731396448992
 30
0.0
 40
0.0615077171455392
 50
225.0596149092596931
 51
302.5335012414709013
  0
ARC
  5
CFE1
  8
0
 10
4742.4339515036863304
 20
246.0168867336921039
 30
0.0
 40
0.054292372937462
 50
151.0239578700229117
 51
225.0908759320045078
  0
ARC
  5
CFE2
  8
0
 10
4742.4380592356701527
 20
246.0140206950958941
 30
0.0
 40
0.0592766008223859
 50
98.4565913926147118
 51
150.5239291439802116
  0
ARC
  5
CFE3
  8
0
 10
4742.4390427631142302
 20
246.0140506718772997
 30
0.0
 40
0.0223046072561604
 50
33.5491927688816673
 51
145.3291659136208978
  0
ARC
  5
CFE4
  8
0
 10
4742.4390541121947535
 20
246.0174268518591987
 30
0.0
 40
0.0223474279581275
 50
216.9440925052192028
 51
320.5708602965377167
  0
ARC
  5
CFE5
  8
0
 10
4742.4372631062233268
 20
246.0157220913210097
 30
0.0
 40
0.0198934507250523
 50
146.3725643927697035
 51
216.1202751206378991
  0
ARC
  5
CFE6
  8
0
 10
4742.4409880442835856
 20
246.0157145132899075
 30
0.0
 40
0.0197663169968197
 50
320.8443294098831871
 51
32.6459342234306504
  0
ARC
  5
CFE7
  8
0
 10
4742.4674787565782026
 20
242.9112812461538056
 30
0.0
 40
0.0796207654095198
 50
13.5285838925254307
 51
83.1720255674712234
  0
ARC
  5
CFE8
  8
0
 10
4742.4642840784072177
 20
242.915595504719505
 30
0.0
 40
0.0818668598602546
 50
315.7375309694792804
 51
10.0678259786158595
  0
ARC
  5
CFE9
  8
0
 10
4742.4482051386294188
 20
242.9275319691481059
 30
0.0
 40
0.101747946844879
 50
244.4350516746125095
 51
317.2434380599549968
  0
ARC
  5
CFEA
  8
0
 10
4742.4373422957642106
 20
242.9018259845435921
 30
0.0
 40
0.0738823044496772
 50
161.2402122011999097
 51
243.4317579259563047
  0
ARC
  5
CFEB
  8
0
 10
4742.4621897179658845
 20
242.890238912772702
 30
0.0
 40
0.1011800387555695
 50
81.6146726773285138
 51
159.5521557376023054
  0
ARC
  5
CFEC
  8
0
 10
4742.4404736551323367
 20
242.8944442384498075
 30
0.0
 40
0.0596684302398596
 50
23.1628839707594594
 51
99.8117291562966074
  0
ARC
  5
CFED
  8
0
 10
4742.4443586807956308
 20
242.8974891307416044
 30
0.0
 40
0.0549135951803018
 50
301.5735714047074794
 51
21.8363327414080111
  0
ARC
  5
CFEE
  8
0
 10
4742.4400326552013212
 20
242.902560225394609
 30
0.0
 40
0.0615077171455392
 50
225.0596149092596931
 51
302.5335012414709013
  0
ARC
  5
CFEF
  8
0
 10
4742.4349149740237408
 20
242.8974738194418137
 30
0.0
 40
0.054292372937462
 50
151.0239578700229117
 51
225.0908759320045078
  0
ARC
  5
CFF0
  8
0
 10
4742.4390227060075631
 20
242.8946077808456039
 30
0.0
 40
0.0592766008223859
 50
98.4565913926147118
 51
150.5239291439802116
  0
ARC
  5
CFF1
  8
0
 10
4742.4400062334525501
 20
242.8946377576270095
 30
0.0
 40
0.0223046072561604
 50
33.5491927688816673
 51
145.3291659136208978
  0
ARC
  5
CFF2
  8
0
 10
4742.4400175825339829
 20
242.8980139376089085
 30
0.0
 40
0.0223474279581275
 50
216.9440925052192028
 51
320.5708602965377167
  0
ARC
  5
CFF3
  8
0
 10
4742.4382265765607372
 20
242.896309177070691
 30
0.0
 40
0.0198934507250523
 50
146.3725643927697035
 51
216.1202751206378991
  0
ARC
  5
CFF4
  8
0
 10
4742.441951514622815
 20
242.8963015990395888
 30
0.0
 40
0.0197663169968197
 50
320.8443294098831871
 51
32.6459342234306504
  0
ARC
  5
CFF5
  8
0
 10
4742.0058868206224361
 20
244.4291433008482102
 30
0.0
 40
0.1202308877894903
 50
10.2871824352083294
 51
92.8905537359916451
  0
ARC
  5
CFF6
  8
0
 10
4742.0131373006743161
 20
244.4346537085025943
 30
0.0
 40
0.1121888337129831
 50
300.3071762601957744
 51
8.1790020229938172
  0
ARC
  5
CFF7
  8
0
 10
4742.0052872809174005
 20
244.4441313080621114
 30
0.0
 40
0.1243485482710291
 50
212.6959177326164081
 51
301.2261891024950842
  0
ARC
  5
CFF8
  8
0
 10
4741.9941597164279301
 20
244.4353561054628017
 30
0.0
 40
0.1102525227190241
 50
145.6955117872018945
 51
211.9819277884294877
  0
ARC
  5
CFF9
  8
0
 10
4742.0034547935956653
 20
244.4261090544979993
 30
0.0
 40
0.1231656965338626
 50
91.689364061242415
 51
144.5790041971530968
  0
ARC
  5
CFFA
  8
0
 10
4741.9943712665080966
 20
244.4437033096160974
 30
0.0
 40
0.1059553089204411
 50
149.491392305567814
 51
217.6691909564478919
  0
ARC
  5
CFFB
  8
0
 10
4742.0046790004989816
 20
244.4532002386748957
 30
0.0
 40
0.1199241943835407
 50
218.251237258796408
 51
314.7182708826616135
  0
ARC
  5
CFFC
  8
0
 10
4742.014493472284812
 20
244.4436119650696071
 30
0.0
 40
0.1062055773287356
 50
314.595589938840078
 51
23.2382656483044983
  0
ARC
  5
CFFD
  8
0
 10
4742.4388432705927698
 20
244.8417213104750942
 30
0.0
 40
0.1202308877894903
 50
10.2871824352083294
 51
92.8905537359916451
  0
ARC
  5
CFFE
  8
0
 10
4742.4460937506455593
 20
244.8472317181295068
 30
0.0
 40
0.1121888337129831
 50
300.3071762601957744
 51
8.1790020229938172
  0
ARC
  5
CFFF
  8
0
 10
4742.4382437308877343
 20
244.8567093176889955
 30
0.0
 40
0.1243485482710291
 50
212.6959177326164081
 51
301.2261891024950842
  0
ARC
  5
D000
  8
0
 10
4742.4271161663991734
 20
244.8479341150897994
 30
0.0
 40
0.1102525227190241
 50
145.6955117872018945
 51
211.9819277884294877
  0
ARC
  5
D001
  8
0
 10
4742.4364112435669085
 20
244.8386870641249118
 30
0.0
 40
0.1231656965338626
 50
91.689364061242415
 51
144.5790041971530968
  0
ARC
  5
D002
  8
0
 10
4742.4273277164793399
 20
244.8562813192430099
 30
0.0
 40
0.1059553089204411
 50
149.491392305567814
 51
217.6691909564478919
  0
ARC
  5
D003
  8
0
 10
4742.4376354504702249
 20
244.8657782483016945
 30
0.0
 40
0.1199241943835407
 50
218.251237258796408
 51
314.7182708826616135
  0
ARC
  5
D004
  8
0
 10
4742.4474499222569648
 20
244.8561899746966048
 30
0.0
 40
0.1062055773287356
 50
314.595589938840078
 51
23.2382656483044983
  0
ARC
  5
D005
  8
0
 10
4742.4388432704936349
 20
244.0169612604751137
 30
0.0
 40
0.1202308877894903
 50
10.2871824352083294
 51
92.8905537359916451
  0
ARC
  5
D006
  8
0
 10
4742.4460937505464244
 20
244.0224716681294979
 30
0.0
 40
0.1121888337129831
 50
300.3071762601957744
 51
8.1790020229938172
  0
ARC
  5
D007
  8
0
 10
4742.4382437307876899
 20
244.0319492676889865
 30
0.0
 40
0.1243485482710291
 50
212.6959177326164081
 51
301.2261891024950842
  0
ARC
  5
D008
  8
0
 10
4742.427116166299129
 20
244.0231740650897052
 30
0.0
 40
0.1102525227190241
 50
145.6955117872018945
 51
211.9819277884294877
  0
ARC
  5
D009
  8
0
 10
4742.4364112434677736
 20
244.0139270141247891
 30
0.0
 40
0.1231656965338626
 50
91.689364061242415
 51
144.5790041971530968
  0
ARC
  5
D00A
  8
0
 10
4742.4273277163792955
 20
244.0315212692430009
 30
0.0
 40
0.1059553089204411
 50
149.491392305567814
 51
217.6691909564478919
  0
ARC
  5
D00B
  8
0
 10
4742.4376354503701805
 20
244.0410181983017992
 30
0.0
 40
0.1199241943835407
 50
218.251237258796408
 51
314.7182708826616135
  0
ARC
  5
D00C
  8
0
 10
4742.4474499221560109
 20
244.0314299246965959
 30
0.0
 40
0.1062055773287356
 50
314.595589938840078
 51
23.2382656483044983
  0
ARC
  5
D00D
  8
0
 10
4742.8733073153416626
 20
244.4293433613082982
 30
0.0
 40
0.1202308877894903
 50
10.2871824352083294
 51
92.8905537359916451
  0
ARC
  5
D00E
  8
0
 10
4742.8805577953953616
 20
244.4348537689627108
 30
0.0
 40
0.1121888337129831
 50
300.3071762601957744
 51
8.1790020229938172
  0
ARC
  5
D00F
  8
0
 10
4742.872707775638446
 20
244.4443313685221142
 30
0.0
 40
0.1243485482710291
 50
212.6959177326164081
 51
301.2261891024950842
  0
ARC
  5
D010
  8
0
 10
4742.8615802111480662
 20
244.4355561659228897
 30
0.0
 40
0.1102525227190241
 50
145.6955117872018945
 51
211.9819277884294877
  0
ARC
  5
D011
  8
0
 10
4742.8708752883167108
 20
244.4263091149580021
 30
0.0
 40
0.1231656965338626
 50
91.689364061242415
 51
144.5790041971530968
  0
ARC
  5
D012
  8
0
 10
4742.8617917612282326
 20
244.4439033700762138
 30
0.0
 40
0.1059553089204411
 50
149.491392305567814
 51
217.6691909564478919
  0
ARC
  5
D013
  8
0
 10
4742.8720994952200272
 20
244.4534002991348984
 30
0.0
 40
0.1199241943835407
 50
218.251237258796408
 51
314.7182708826616135
  0
ARC
  5
D014
  8
0
 10
4742.8819139670058576
 20
244.4438120255296951
 30
0.0
 40
0.1062055773287356
 50
314.595589938840078
 51
23.2382656483044983
  0
CIRCLE
  5
D015
  8
0
 10
4741.9752630017901538
 20
244.4971501620117067
 30
0.0
 40
0.0312634065051237
  0
CIRCLE
  5
D016
  8
0
 10
4742.0636161528364028
 20
244.4477590119238073
 30
0.0
 40
0.0312634065051237
  0
CIRCLE
  5
D017
  8
0
 10
4741.9755954338661468
 20
244.3998895216018923
 30
0.0
 40
0.0312634065051237
  0
CIRCLE
  5
D018
  8
0
 10
4742.387504581200119
 20
244.8889619072571975
 30
0.0
 40
0.0312634065051237
  0
CIRCLE
  5
D019
  8
0
 10
4742.4388432705927698
 20
244.8057792092405123
 30
0.0
 40
0.0312634065051237
  0
CIRCLE
  5
D01A
  8
0
 10
4742.4902575728638112
 20
244.8889966966241047
 30
0.0
 40
0.0312634065051237
  0
CIRCLE
  5
D01B
  8
0
 10
4742.813917468364707
 20
244.4479419954217008
 30
0.0
 40
0.0312634065051237
  0
CIRCLE
  5
D01C
  8
0
 10
4742.9025196596930982
 20
244.4963780095112043
 30
0.0
 40
0.0312634065051237
  0
CIRCLE
  5
D01D
  8
0
 10
4742.9027332092773577
 20
244.4001460842538052
 30
0.0
 40
0.0312634065051237
  0
CIRCLE
  5
D01E
  8
0
 10
4742.4388432705927698
 20
244.0908385729329098
 30
0.0
 40
0.0312634065051237
  0
CIRCLE
  5
D01F
  8
0
 10
4742.3880068237876912
 20
244.0070246300674057
 30
0.0
 40
0.0312634065051237
  0
CIRCLE
  5
D020
  8
0
 10
4742.4897108344730441
 20
244.0076648044251044
 30
0.0
 40
0.0312634065051237
  0
LINE
  5
D021
  8
0
 10
4742.0746943067933898
 20
238.1585271796002132
 30
0.0
 11
4742.8029997849926076
 21
238.1938943706502982
 31
0.0
  0
LINE
  5
D022
  8
0
 10
4742.0746794127935573
 20
238.2299566016502865
 30
0.0
 11
4742.8030125722925732
 21
238.2653528536002057
 31
0.0
  0
LINE
  5
D023
  8
0
 10
4742.0746707657926891
 20
238.3013566912003114
 30
0.0
 11
4742.8030163920930136
 21
238.3367882451003084
 31
0.0
  0
LINE
  5
D024
  8
0
 10
4742.0746718231930572
 20
238.3728451224502862
 30
0.0
 11
4742.8010479949925866
 21
238.406375144150303
 31
0.0
  0
LINE
  5
D025
  8
0
 10
4742.0274259476937004
 20
238.1938903624003103
 30
0.0
 11
4742.8502605933927043
 21
238.2296587973501971
 31
0.0
  0
LINE
  5
D026
  8
0
 10
4742.0274259476937004
 20
238.2653256180001904
 30
0.0
 11
4742.8502605933927043
 21
238.3010867179002048
 31
0.0
  0
LINE
  5
D027
  8
0
 10
4742.0274259476937004
 20
238.3367220040001939
 30
0.0
 11
4742.8502605933927043
 21
238.3715884243501932
 31
0.0
  0
LINE
  5
D028
  8
0
 10
4742.0636310628433421
 20
238.1241070369003978
 30
0.0
 11
4742.8502605933927043
 21
238.1623064981502864
 31
0.0
  0
ENDSEC
  0
EOF
