  0
SECTION
  2
HEADER
  9
$ACADVER
  1
AC1009
  9
$INSBASE
 10
4770.1541315405283967
 20
245.2919822042298961
 30
0.0
  9
$EXTMIN
 10
4767.7605328269428355
 20
244.9376514956298934
 30
0.0
  9
$EXTMAX
 10
4770.9234223834191653
 20
254.3348828589047912
 30
0.0
  9
$LIMMIN
 10
0.0
 20
0.0
  9
$LIMMAX
 10
11.6929133858000007
 20
8.2677165353999982
  9
$ORTHOMODE
 70
     1
  9
$REGENMODE
 70
     1
  9
$FILLMODE
 70
     1
  9
$QTEXTMODE
 70
     0
  9
$MIRRTEXT
 70
     0
  9
$DRAGMODE
 70
     2
  9
$LTSCALE
 40
0.6431102362
  9
$OSMODE
 70
  4095
  9
$ATTMODE
 70
     1
  9
$TEXTSIZE
 40
0.2
  9
$TRACEWID
 40
0.05
  9
$TEXTSTYLE
  7
STANDARD
  9
$CLAYER
  8
0
  9
$CELTYPE
  6
BYLAYER
  9
$CECOLOR
 62
   256
  9
$DIMSCALE
 40
1.0
  9
$DIMASZ
 40
0.1875
  9
$DIMEXO
 40
0.0625
  9
$DIMDLI
 40
0.4443307087
  9
$DIMRND
 40
0.0
  9
$DIMDLE
 40
0.0
  9
$DIMEXE
 40
0.125
  9
$DIMTP
 40
0.01
  9
$DIMTM
 40
0.01
  9
$DIMTXT
 40
2.0
  9
$DIMCEN
 40
0.1052362205
  9
$DIMTSZ
 40
0.0
  9
$DIMTOL
 70
     1
  9
$DIMLIM
 70
     0
  9
$DIMTIH
 70
     1
  9
$DIMTOH
 70
     1
  9
$DIMSE1
 70
     0
  9
$DIMSE2
 70
     0
  9
$DIMTAD
 70
     0
  9
$DIMZIN
 70
     0
  9
$DIMBLK
  1

  9
$DIMASO
 70
     1
  9
$DIMSHO
 70
     1
  9
$DIMPOST
  1
\X
  9
$DIMAPOST
  1

  9
$DIMALT
 70
     1
  9
$DIMALTD
 70
     2
  9
$DIMALTF
 40
25.3999999999999986
  9
$DIMLFAC
 40
1.0
  9
$DIMTOFL
 70
     0
  9
$DIMTVP
 40
0.0
  9
$DIMTIX
 70
     0
  9
$DIMSOXD
 70
     0
  9
$DIMSAH
 70
     0
  9
$DIMBLK1
  1

  9
$DIMBLK2
  1

  9
$DIMSTYLE
  2
STANDARD
  9
$DIMCLRD
 70
     0
  9
$DIMCLRE
 70
     0
  9
$DIMCLRT
 70
     0
  9
$DIMTFAC
 40
1.0
  9
$DIMGAP
 40
0.09
  9
$LUNITS
 70
     2
  9
$LUPREC
 70
     4
  9
$SKETCHINC
 40
0.1
  9
$FILLETRAD
 40
0.0
  9
$AUNITS
 70
     0
  9
$AUPREC
 70
     0
  9
$MENU
  1
.
  9
$ELEVATION
 40
0.0
  9
$PELEVATION
 40
0.0
  9
$THICKNESS
 40
0.0
  9
$LIMCHECK
 70
     0
  9
$BLIPMODE
 70
     0
  9
$CHAMFERA
 40
0.0
  9
$CHAMFERB
 40
0.0
  9
$SKPOLY
 70
     0
  9
$TDCREATE
 40
2458060.468368056230247
  9
$TDUPDATE
 40
2459240.7766435178928077
  9
$TDINDWG
 40
0.355909838
  9
$TDUSRTIMER
 40
0.355909838
  9
$USRTIMER
 70
     1
  9
$ANGBASE
 50
0.0
  9
$ANGDIR
 70
     0
  9
$PDMODE
 70
     0
  9
$PDSIZE
 40
0.3125
  9
$PLINEWID
 40
0.0
  9
$COORDS
 70
     1
  9
$SPLFRAME
 70
     0
  9
$SPLINETYPE
 70
     6
  9
$SPLINESEGS
 70
     8
  9
$ATTDIA
 70
     1
  9
$ATTREQ
 70
     1
  9
$HANDLING
 70
     1
  9
$HANDSEED
  5
DB14
  9
$SURFTAB1
 70
     6
  9
$SURFTAB2
 70
     6
  9
$SURFTYPE
 70
     6
  9
$SURFU
 70
     6
  9
$SURFV
 70
     6
  9
$UCSNAME
  2

  9
$UCSORG
 10
0.0
 20
0.0
 30
0.0
  9
$UCSXDIR
 10
1.0
 20
0.0
 30
0.0
  9
$UCSYDIR
 10
0.0
 20
1.0
 30
0.0
  9
$PUCSNAME
  2

  9
$PUCSORG
 10
0.0
 20
0.0
 30
0.0
  9
$PUCSXDIR
 10
1.0
 20
0.0
 30
0.0
  9
$PUCSYDIR
 10
0.0
 20
1.0
 30
0.0
  9
$USERI1
 70
     0
  9
$USERI2
 70
     0
  9
$USERI3
 70
     0
  9
$USERI4
 70
     0
  9
$USERI5
 70
     0
  9
$USERR1
 40
0.0
  9
$USERR2
 40
0.0
  9
$USERR3
 40
0.0
  9
$USERR4
 40
0.0
  9
$USERR5
 40
0.0
  9
$WORLDVIEW
 70
     1
  9
$SHADEDGE
 70
     3
  9
$SHADEDIF
 70
    70
  9
$TILEMODE
 70
     1
  9
$MAXACTVP
 70
    64
  9
$PLIMCHECK
 70
     0
  9
$PEXTMIN
 10
1.0000000000000000E+20
 20
1.0000000000000000E+20
 30
1.0000000000000000E+20
  9
$PEXTMAX
 10
-1.0000000000000000E+20
 20
-1.0000000000000000E+20
 30
-1.0000000000000000E+20
  9
$PLIMMIN
 10
0.0
 20
0.0
  9
$PLIMMAX
 10
12.0
 20
9.0
  9
$UNITMODE
 70
     0
  9
$VISRETAIN
 70
     1
  9
$PLINEGEN
 70
     0
  9
$PSLTSCALE
 70
     1
  0
ENDSEC
  0
SECTION
  2
TABLES
  0
TABLE
  2
VPORT
 70
     1
  0
VPORT
  2
*ACTIVE
 70
     0
 10
0.0
 20
0.0
 11
1.0
 21
1.0
 12
0.0
 22
0.0
 13
0.0
 23
0.0
 14
1.0
 24
1.0
 15
0.0
 25
0.0
 16
0.0
 26
0.0
 36
28.0943167073382902
 17
4769.342041015625
 27
249.6362686157227131
 37
0.0
 40
9.9191961832096354
 41
2.1186252771618621
 42
50.0
 43
0.0
 44
0.0
 50
0.0
 51
0.0
 71
     0
 72
   100
 73
     1
 74
     1
 75
     0
 76
     0
 77
     0
 78
     0
  0
ENDTAB
  0
TABLE
  2
LTYPE
 70
     2
  0
LTYPE
  2
CONTINUOUS
 70
     0
  3
Solid line
 72
    65
 73
     0
 40
0.0
  0
LTYPE
  2
PHANTOM2
 70
     0
  3
___ _ _ ___ _ _ ___ _ _ ___ _ _
 72
    65
 73
     6
 40
1.25
 49
0.625
 49
-0.125
 49
0.125
 49
-0.125
 49
0.125
 49
-0.125
  0
ENDTAB
  0
TABLE
  2
LAYER
 70
     2
  0
LAYER
  2
0
 70
     0
 62
   255
  6
CONTINUOUS
  0
LAYER
  2
DEFPOINTS
 70
     0
 62
     7
  6
CONTINUOUS
  0
ENDTAB
  0
TABLE
  2
STYLE
 70
     1
  0
STYLE
  2
STANDARD
 70
     0
 40
0.0
 41
0.8
 50
0.0
 71
     0
 42
0.2
  3
txt
  4

  0
ENDTAB
  0
TABLE
  2
VIEW
 70
     0
  0
ENDTAB
  0
TABLE
  2
UCS
 70
     0
  0
ENDTAB
  0
TABLE
  2
APPID
 70
     9
  0
APPID
  2
ACAD
 70
     0
  0
APPID
  2
ACAD_MLEADERVER
 70
     0
  0
APPID
  2
ACAD_EXEMPT_FROM_CAD_STANDARDS
 70
     0
  0
APPID
  2
ACAD_NAV_VCDISPLAY
 70
     0
  0
APPID
  2
ACAECLAYERSTANDARD
 70
     0
  0
APPID
  2
ACCMTRANSPARENCY
 70
     0
  0
APPID
  2
ACAD_DSTYLE_DIMJAG
 70
     0
  0
APPID
  2
ACAD_DSTYLE_DIMTALN
 70
     0
  0
APPID
  2
ACDBATTR
 70
     0
  0
ENDTAB
  0
TABLE
  2
DIMSTYLE
 70
     1
  0
DIMSTYLE
  2
STANDARD
 70
     0
  3

  4

  5

  6

  7

 40
1.0
 41
0.1875
 42
0.0625
 43
0.38
 44
0.125
 45
0.0
 46
0.0
 47
0.01
 48
0.01
140
0.15625
141
0.09
142
0.0
143
25.3999999999999986
144
1.0
145
0.0
146
1.0
147
0.09
 71
     1
 72
     0
 73
     1
 74
     1
 75
     0
 76
     0
 77
     0
 78
     4
170
     0
171
     2
172
     0
173
     0
174
     0
175
     0
176
     0
177
     0
178
     0
  0
ENDTAB
  0
ENDSEC
  0
SECTION
  2
BLOCKS
  0
BLOCK
  8
0
  2
$MODEL_SPACE
 70
     0
 10
0.0
 20
0.0
 30
0.0
  3
$MODEL_SPACE
  1

  0
ENDBLK
  5
21
  8
0
  0
BLOCK
 67
     1
  8
0
  2
$PAPER_SPACE
 70
     0
 10
0.0
 20
0.0
 30
0.0
  3
$PAPER_SPACE
  1

  0
ENDBLK
  5
1D
 67
     1
  8
0
  0
ENDSEC
  0
SECTION
  2
ENTITIES
  0
ATTDEF
  5
3930
  8
DEFPOINTS
 10
4770.15062906264302
 20
245.302661377020911
 30
0.0
 40
0.001
  1
K-26284T
  3

  2
MODELNUMBER
 70
     0
1001
ACDBATTR
1070
     0
1070
     1
  0
ATTDEF
  5
3931
  8
DEFPOINTS
 10
4770.15062906264302
 20
245.300994710354189
 30
0.0
 40
0.001
  1

  3

  2
TRADENAME
 70
     0
1001
ACDBATTR
1070
     0
1070
     1
  0
ATTDEF
  5
3932
  8
DEFPOINTS
 10
4770.15062906264302
 20
245.2993280436876091
 30
0.0
 40
0.001
  1
HANDSHOWER
  3

  2
PRODUCT
 70
     0
1001
ACDBATTR
1070
     0
1070
     1
  0
LINE
  5
D992
  8
0
 10
4767.8531193454045933
 20
253.7995656168033065
 30
0.0
 11
4767.8342594945288511
 21
253.7786196304300006
 31
0.0
  0
LINE
  5
D993
  8
0
 10
4767.8640449981294296
 20
253.6982789945298862
 30
0.0
 11
4767.8801997589016537
 21
253.7162206740013062
 31
0.0
  0
LINE
  5
D994
  8
0
 10
4767.9490086219284422
 20
253.4669977654299089
 30
0.0
 11
4767.9579504453431582
 21
253.476928666345799
 31
0.0
  0
LINE
  5
D995
  8
0
 10
4770.3623706559283164
 20
250.9596205201299028
 30
0.0
 11
4770.313801908527239
 21
250.9447715639300043
 31
0.0
  0
LINE
  5
D996
  8
0
 10
4770.5927306921275886
 20
250.5619897378298901
 30
0.0
 11
4770.5194163879286862
 21
250.5388738264298922
 31
0.0
  0
LINE
  5
D997
  8
0
 10
4767.8326224344282309
 20
253.7709175583298986
 30
0.0
 11
4767.8650941955283997
 21
253.670979753529906
 31
0.0
  0
LINE
  5
D998
  8
0
 10
4767.862411953828996
 20
253.6905645629300068
 30
0.0
 11
4767.8948756911286182
 21
253.5906514531299933
 31
0.0
  0
LINE
  5
D999
  8
0
 10
4767.9473750031283998
 20
253.4592851021299964
 30
0.0
 11
4767.979839891328993
 21
253.3593684502299084
 31
0.0
  0
LINE
  5
D99A
  8
0
 10
4767.7614962813286184
 20
254.0815524127299909
 30
0.0
 11
4769.4669966630290219
 21
248.8325619654299032
 31
0.0
  0
LINE
  5
D99B
  8
0
 10
4770.9100269945283799
 20
249.5855639661299961
 30
0.0
 11
4770.8370897852282724
 21
249.5611756412299087
 31
0.0
  0
LINE
  5
D99C
  8
0
 10
4770.8619814944277095
 20
249.4845668376298988
 30
0.0
 11
4770.3868475894287258
 21
250.9468786350300036
 31
0.0
  0
LINE
  5
D99D
  8
0
 10
4770.9224516067279183
 20
249.6103593316298941
 30
0.0
 11
4770.617449992128968
 21
250.5490576697299048
 31
0.0
  0
LINE
  5
D99E
  8
0
 10
4767.9856949012282712
 20
253.3540890077298968
 30
0.0
 11
4767.9987662253906819
 21
253.3513106120379916
 31
0.0
  0
LINE
  5
D99F
  8
0
 10
4767.9007312773283047
 20
253.5853702369298901
 30
0.0
 11
4767.9243466079587961
 21
253.5803506434446888
 31
0.0
  0
ARC
  5
D9A0
  8
0
 10
4770.281516502204795
 20
251.0735197404819132
 30
0.0
 40
0.1327344734112801
 50
200.5135046774749128
 51
284.0774344502540885
  0
ARC
  5
D9A1
  8
0
 10
4770.8407023977142671
 20
249.4796995861354105
 30
0.0
 40
0.0218286530522104
 50
296.289524879032399
 51
12.8838498065628304
  0
ARC
  5
D9A2
  8
0
 10
4770.3681260044277224
 20
250.9407956233299899
 30
0.0
 40
0.0196850394
 50
17.9999999999949907
 51
106.9999999998163958
  0
ARC
  5
D9A3
  8
0
 10
4767.8725828738160999
 20
253.6734128229986993
 30
0.0
 40
0.0078740160997598
 50
197.9989646650068948
 51
254.264249266828898
  0
ARC
  5
D9A4
  8
0
 10
4767.8401110288714335
 20
253.7733508854063018
 30
0.0
 40
0.0078740159631989
 50
138.0000005623707864
 51
198.0009359508462126
  0
ARC
  5
D9A5
  8
0
 10
4767.8698965700959889
 20
253.6930102303350907
 30
0.0
 40
0.0078740567523988
 50
138.000080041460194
 51
198.0952810530305896
  0
ARC
  5
D9A6
  8
0
 10
4767.9023683965588134
 20
253.5930722242732998
 30
0.0
 40
0.0078740566169661
 50
197.9048001321085906
 51
257.9999202225985186
  0
ARC
  5
D9A7
  8
0
 10
4767.954860183758683
 20
253.461729006300402
 30
0.0
 40
0.0078740457624711
 50
138.0000586140533869
 51
198.0818098751221044
  0
ARC
  5
D9A8
  8
0
 10
4767.9873320151818916
 20
253.3617909849108969
 30
0.0
 40
0.0078740456000926
 50
197.9183121169618005
 51
257.9999417025156845
  0
LINE
  5
D9A9
  8
0
 10
4769.8017693357278404
 20
244.9376514956298934
 30
0.0
 11
4770.5064937452289087
 21
244.9376514956298934
 31
0.0
  0
LINE
  5
D9AA
  8
0
 10
4770.5655488633283312
 20
245.2132420467299028
 30
0.0
 11
4770.5281472885289986
 21
245.2132420467299028
 31
0.0
  0
LINE
  5
D9AB
  8
0
 10
4769.7013068127289444
 20
245.2919822042298961
 30
0.0
 11
4770.6069562683287586
 21
245.2919822042298961
 31
0.0
  0
LINE
  5
D9AC
  8
0
 10
4769.7427142176284178
 20
245.0241508874298972
 30
0.0
 11
4769.7899825767290167
 21
244.9995240426299006
 31
0.0
  0
LINE
  5
D9AD
  8
0
 10
4769.7427142176284178
 20
245.16699078902991
 30
0.0
 11
4769.7899590357283159
 21
245.1423923519299137
 31
0.0
  0
LINE
  5
D9AE
  8
0
 10
4769.7427142176284178
 20
245.0956428351298939
 30
0.0
 11
4769.7899676827282747
 21
245.0710219049298928
 31
0.0
  0
LINE
  5
D9AF
  8
0
 10
4769.7869698154509024
 20
245.2154342011153858
 30
0.0
 11
4769.7899600931277746
 21
245.2138835250298996
 31
0.0
  0
LINE
  5
D9B0
  8
0
 10
4770.5655488633283312
 20
245.0721933334299081
 30
0.0
 11
4770.5183008422282001
 21
245.0967825747299003
 31
0.0
  0
LINE
  5
D9B1
  8
0
 10
4770.5655488633283312
 20
245.1436403928298944
 30
0.0
 11
4770.518304662027731
 21
245.1682363840299956
 31
0.0
  0
LINE
  5
D9B2
  8
0
 10
4770.5655488633283312
 20
245.0006953059298951
 30
0.0
 11
4770.5182880549282345
 21
245.025291203329914
 31
0.0
  0
LINE
  5
D9B3
  8
0
 10
4769.8017693357278404
 20
244.9376514956298934
 30
0.0
 11
4769.7635226133279502
 21
244.9758982180298972
 31
0.0
  0
LINE
  5
D9B4
  8
0
 10
4769.6226315405283458
 20
245.9059189973299056
 30
0.0
 11
4769.6226315405283458
 21
248.7137615866249121
 31
0.0
  0
LINE
  5
D9B5
  8
0
 10
4769.7427142176284178
 20
245.0241508874298972
 30
0.0
 11
4769.7427142176284178
 21
245.0364187607299016
 31
0.0
  0
LINE
  5
D9B6
  8
0
 10
4769.7427142176284178
 20
245.0956428351298939
 30
0.0
 11
4769.7427142176284178
 21
245.1077973242298924
 31
0.0
  0
LINE
  5
D9B7
  8
0
 10
4769.7427142176284178
 20
245.16699078902991
 30
0.0
 11
4769.7427142176284178
 21
245.179242142329997
 31
0.0
  0
LINE
  5
D9B8
  8
0
 10
4769.7899590357283159
 20
245.1423923519299137
 30
0.0
 11
4769.7899590357283159
 21
245.1331099538298872
 31
0.0
  0
LINE
  5
D9B9
  8
0
 10
4769.7899600931277746
 20
245.2138835250298996
 30
0.0
 11
4769.7899600931277746
 21
245.2045956432299931
 31
0.0
  0
LINE
  5
D9BA
  8
0
 10
4769.7899676827282747
 20
245.0710219049298928
 30
0.0
 11
4769.7899676827282747
 21
245.0616802217298869
 31
0.0
  0
LINE
  5
D9BB
  8
0
 10
4769.7899825767290167
 20
244.9995240426299006
 30
0.0
 11
4769.7899825767290167
 21
244.990319239929903
 31
0.0
  0
LINE
  5
D9BC
  8
0
 10
4769.7919268161276705
 20
245.2250530704299081
 30
0.0
 11
4769.7919268161276705
 21
245.2604861412299044
 31
0.0
  0
LINE
  5
D9BD
  8
0
 10
4770.5182880549282345
 20
245.025291203329914
 30
0.0
 11
4770.5182880549282345
 21
245.0352864613300028
 31
0.0
  0
LINE
  5
D9BE
  8
0
 10
4770.5183008422282001
 20
245.0967825747299003
 30
0.0
 11
4770.5183008422282001
 21
245.1067120558298882
 31
0.0
  0
LINE
  5
D9BF
  8
0
 10
4770.518304662027731
 20
245.1682363840299956
 30
0.0
 11
4770.518304662027731
 21
245.1781290295299129
 31
0.0
  0
LINE
  5
D9C0
  8
0
 10
4770.5183047688278748
 20
244.9638672040298957
 30
0.0
 11
4770.5183047688278748
 21
244.9539619912299031
 31
0.0
  0
LINE
  5
D9C1
  8
0
 10
4770.5655488633283312
 20
244.996706613729998
 30
0.0
 11
4770.5655488633283312
 21
245.0006953059298951
 31
0.0
  0
LINE
  5
D9C2
  8
0
 10
4770.5655488633283312
 20
245.0599131846300054
 30
0.0
 11
4770.5655488633283312
 21
245.0721933334299081
 31
0.0
  0
LINE
  5
D9C3
  8
0
 10
4770.5655488633283312
 20
245.1313219663298923
 30
0.0
 11
4770.5655488633283312
 21
245.1436403928298944
 31
0.0
  0
LINE
  5
D9C4
  8
0
 10
4770.5655488633283312
 20
245.2027237253298892
 30
0.0
 11
4770.5655488633283312
 21
245.2132420467299028
 31
0.0
  0
LINE
  5
D9C5
  8
0
 10
4770.5064937452289087
 20
244.9376514956298934
 30
0.0
 11
4770.5183047688278748
 21
244.9539619912299031
 31
0.0
  0
LINE
  5
D9C6
  8
0
 10
4770.5463420388286977
 20
244.9781350139298866
 30
0.0
 11
4770.5655488633283312
 21
244.996706613729998
 31
0.0
  0
LINE
  5
D9C7
  8
0
 10
4769.7899600931277746
 20
245.2045956432299931
 30
0.0
 11
4769.7427142176284178
 21
245.179242142329997
 31
0.0
  0
LINE
  5
D9C8
  8
0
 10
4769.7899590357283159
 20
245.1331099538298872
 30
0.0
 11
4769.7427142176284178
 21
245.1077973242298924
 31
0.0
  0
LINE
  5
D9C9
  8
0
 10
4769.7899676827282747
 20
245.0616802217298869
 30
0.0
 11
4769.7427142176284178
 21
245.0364187607299016
 31
0.0
  0
LINE
  5
D9CA
  8
0
 10
4769.7899825767290167
 20
244.990319239929903
 30
0.0
 11
4769.7635226133279502
 21
244.9758982180298972
 31
0.0
  0
LINE
  5
D9CB
  8
0
 10
4770.518304662027731
 20
245.1781290295299129
 30
0.0
 11
4770.5655488633283312
 21
245.2027237253298892
 31
0.0
  0
LINE
  5
D9CC
  8
0
 10
4770.5183008422282001
 20
245.1067120558298882
 30
0.0
 11
4770.5655488633283312
 21
245.1313219663298923
 31
0.0
  0
LINE
  5
D9CD
  8
0
 10
4770.5182880549282345
 20
245.0352864613300028
 30
0.0
 11
4770.5655488633283312
 21
245.0599131846300054
 31
0.0
  0
LINE
  5
D9CE
  8
0
 10
4770.5183047688278748
 20
244.9638672040298957
 30
0.0
 11
4770.5463420388286977
 21
244.9781350139298866
 31
0.0
  0
ARC
  5
D9CF
  8
0
 10
4769.760449618781422
 20
245.2605050068835908
 30
0.0
 40
0.0314772029997974
 50
359.9656601509407778
 51
90.0343398490771136
  0
ARC
  5
D9D0
  8
0
 10
4769.7801157924277504
 20
245.2250530704299081
 30
0.0
 40
0.0118110236
 50
305.4721582353070062
 51
0.0
  0
ARC
  5
D9D1
  8
0
 10
4769.7016078231663414
 20
245.3041122909260991
 30
0.0
 40
0.0121338209374079
 50
184.7567605018427059
 51
268.578485932154706
  0
ARC
  5
D9D2
  8
0
 10
4770.5281472885289986
 20
245.2250530704299081
 30
0.0
 40
0.0118110236
 50
180.0
 51
270.0
  0
ARC
  5
D9D3
  8
0
 10
4763.3033446857780291
 20
244.724215069123602
 30
0.0
 40
6.4123549680544647
 50
5.1795684234481953
 51
9.0280006441374425
  0
ARC
  5
D9D4
  8
0
 10
4770.9417498848497416
 20
245.9200952604610961
 30
0.0
 40
1.319194516651677
 50
180.6157209343438126
 51
188.2665523266493892
  0
LINE
  5
D9D5
  8
0
 10
4770.6856315405284477
 20
245.9059189973299056
 30
0.0
 11
4770.6856315405284477
 21
249.1338111385350942
 31
0.0
  0
LINE
  5
D9D6
  8
0
 10
4770.5163362649282135
 20
245.2250530704299081
 30
0.0
 11
4770.5163362649282135
 21
245.2604861412299044
 31
0.0
  0
ARC
  5
D9D7
  8
0
 10
4770.5478134622735524
 20
245.2605050068835908
 30
0.0
 40
0.0314772029997974
 50
89.9656601509228864
 51
180.0343398490591085
  0
ARC
  5
D9D8
  8
0
 10
4770.606655257890452
 20
245.3041122909260991
 30
0.0
 40
0.0121338209374079
 50
271.421514067845294
 51
355.2432394981555035
  0
ARC
  5
D9D9
  8
0
 10
4777.0049183952778549
 20
244.724215069123602
 30
0.0
 40
6.4123549680544647
 50
170.9719993558624935
 51
174.8204315765518118
  0
ARC
  5
D9DA
  8
0
 10
4769.3665131962061423
 20
245.9200952604610961
 30
0.0
 40
1.319194516651677
 50
351.7334476733504971
 51
359.3842790656561874
  0
LINE
  5
D9DB
  8
0
 10
4769.7899825767290167
 20
244.9949216412798876
 30
0.0
 11
4770.5182880549282345
 21
245.030288832330001
 31
0.0
  0
LINE
  5
D9DC
  8
0
 10
4769.7899676827282747
 20
245.066351063329904
 30
0.0
 11
4770.5183008422282001
 21
245.1017473152799084
 31
0.0
  0
LINE
  5
D9DD
  8
0
 10
4769.7899590357283159
 20
245.1377511528799005
 30
0.0
 11
4770.518304662027731
 21
245.1731827067798974
 31
0.0
  0
LINE
  5
D9DE
  8
0
 10
4769.7899600931277746
 20
245.2092395841299037
 30
0.0
 11
4770.5163362649282135
 21
245.2427696058300057
 31
0.0
  0
LINE
  5
D9DF
  8
0
 10
4769.7427142176284178
 20
245.0302848240798994
 30
0.0
 11
4770.5655488633283312
 21
245.0660532590298999
 31
0.0
  0
LINE
  5
D9E0
  8
0
 10
4769.7427142176284178
 20
245.1017200796798932
 30
0.0
 11
4770.5655488633283312
 21
245.1374811795799076
 31
0.0
  0
LINE
  5
D9E1
  8
0
 10
4769.7427142176284178
 20
245.1731164656798967
 30
0.0
 11
4770.5655488633283312
 21
245.207982886029896
 31
0.0
  0
LINE
  5
D9E2
  8
0
 10
4769.7789193327780595
 20
244.9605014985801006
 30
0.0
 11
4770.5655488633283312
 21
244.9987009598299039
 31
0.0
  0
ARC
  5
D9E4
  8
0
 10
4767.7802178663214363
 20
254.0876354243767992
 30
0.0
 40
0.0196850393787588
 50
107.6000854586207964
 51
197.9999998284141896
  0
ARC
  5
D9E5
  8
0
 10
4772.1841189971710264
 20
240.5223568744295051
 30
0.0
 40
14.2819118852840106
 50
105.0071991339679016
 51
107.9852361368049003
  0
ARC
  5
D9E6
  8
0
 10
4768.6294787130082113
 20
253.7448814394159058
 30
0.0
 40
0.5900014194889418
 50
67.8957706327081354
 51
104.079037804517796
  0
ARC
  5
D9E7
  8
0
 10
4768.4795037713120109
 20
253.6369270408630996
 30
0.0
 40
0.7529042717104276
 50
20.8587686916926103
 51
60.3914924407904508
  0
ARC
  5
D9E8
  8
0
 10
4714.6435616081007538
 20
233.8408369113570018
 30
0.0
 40
58.1130649150274721
 50
17.2017213594034608
 51
20.1977274738242514
  0
ARC
  5
D9E9
  8
0
 10
4613.305689380750664
 20
205.9382542470366104
 30
0.0
 40
163.2035279002313928
 50
15.8506690586924499
 51
16.037899542663169
  0
ARC
  5
D9EA
  8
0
 10
4765.817244539866806
 20
249.2087672028343093
 30
0.0
 40
4.6725232348625223
 50
6.9307651943108191
 51
16.2236098934259587
  0
ARC
  5
D9EB
  8
0
 10
4769.6125774981110226
 20
249.6454270802219924
 30
0.0
 40
0.8525847237515888
 50
346.4261353308493199
 51
8.5783478969461342
  0
ARC
  5
D9EC
  8
0
 10
4770.0461808910831678
 20
249.6019526967386071
 30
0.0
 40
0.4250750168528236
 50
291.0248696384622917
 51
338.3788880824881744
  0
ARC
  5
D9ED
  8
0
 10
4772.0546959026105469
 20
244.7868832137905883
 30
0.0
 40
4.7922951208538791
 50
112.7859999348621045
 51
119.0542240569858023
  0
ARC
  5
D9EE
  8
0
 10
4770.7303884798402578
 20
247.197766970653106
 30
0.0
 40
2.041705312938094
 50
119.4234600082462947
 51
127.4148459247095957
  0
ARC
  5
D9EF
  8
0
 10
4769.4857525135921605
 20
248.8387045939848861
 30
0.0
 40
0.0197361043755579
 50
198.1338628225371963
 51
282.0887430554309958
  0
ARC
  5
D9F0
  8
0
 10
4769.5128150106993417
 20
248.7119955385917933
 30
0.0
 40
0.1098307295309339
 50
0.9213401395098998
 51
102.0502132945297973
  0
LINE
  5
D9F1
  8
0
 10
4769.3750385834500776
 20
249.1155798330522941
 30
0.0
 11
4769.3478407068232627
 21
249.1212237002727079
 31
0.0
  0
LINE
  5
D9F2
  8
0
 10
4769.3243162487851805
 20
249.2036154102655985
 30
0.0
 11
4769.3480331939572352
 21
249.1986938757094947
 31
0.0
  0
LINE
  5
D9F3
  8
0
 10
4769.2559649114109561
 20
249.4403387065052868
 30
0.0
 11
4769.2704979092441135
 21
249.4373229450158931
 31
0.0
  0
LINE
  5
D9F4
  8
0
 10
4769.3419637418583079
 20
249.1264642310873114
 30
0.0
 11
4769.3090094549988862
 21
249.226243963872605
 31
0.0
  0
LINE
  5
D9F5
  8
0
 10
4769.3184352082653277
 20
249.2088682810044986
 30
0.0
 11
4769.2854890646049171
 21
249.3086233579043949
 31
0.0
  0
LINE
  5
D9F6
  8
0
 10
4769.2500844540290927
 20
249.4455898117739991
 30
0.0
 11
4769.2171371423710298
 21
249.5453484251723921
 31
0.0
  0
LINE
  5
D9F7
  8
0
 10
4769.2187334794525668
 20
249.5530688760632927
 30
0.0
 11
4769.2291090644175711
 21
249.5647047113592123
 31
0.0
  0
LINE
  5
D9F8
  8
0
 10
4769.2870848168049633
 20
249.316345579683798
 30
0.0
 11
4769.3037377512146122
 21
249.3350212306033882
 31
0.0
  0
ARC
  5
D9F9
  8
0
 10
4769.3164861998975539
 20
249.2287134608338022
 30
0.0
 40
0.0078740160997598
 50
142.012608019197387
 51
198.2778926209940948
  0
ARC
  5
D9FA
  8
0
 10
4769.3494405715882749
 20
249.1289334707635135
 30
0.0
 40
0.0078740159631989
 50
198.2759213351529013
 51
258.2768567235909813
  0
ARC
  5
D9FB
  8
0
 10
4769.3259161325386231
 20
249.2113252184740873
 30
0.0
 40
0.0078740567523988
 50
198.1815762329574966
 51
258.2767772445346282
  0
ARC
  5
D9FC
  8
0
 10
4769.2929617792888166
 20
249.3111051521846093
 30
0.0
 40
0.0078740566169661
 50
138.2769370633822916
 51
198.3720571538700028
  0
ARC
  5
D9FD
  8
0
 10
4769.2575647899921023
 20
249.4480485046319984
 30
0.0
 40
0.0078740457624711
 50
198.1950474108664935
 51
258.2767986719534861
  0
ARC
  5
D9FE
  8
0
 10
4769.2246104316700439
 20
249.5478284536337128
 30
0.0
 40
0.0078740456000926
 50
138.2769155834544108
 51
198.3585451690267973
  0
ARC
  5
D9FF
  8
0
 10
4771.0702078769827494
 20
249.1444031154728975
 30
0.0
 40
0.3847221705807676
 50
124.8492094465944007
 51
181.5776378767027097
  0
ARC
  5
DA00
  8
0
 10
4770.9036954878492907
 20
249.6042471787015131
 30
0.0
 40
0.0197268955698052
 50
288.7208758606424794
 51
18.0495016753730191
  0
ARC
  5
DA01
  8
0
 10
4770.5987322043365566
 20
250.5433702945734069
 30
0.0
 40
0.0195627660613622
 50
16.9013350638235309
 51
107.8654291918725932
  0
ENDSEC
  0
EOF
