  0
SECTION
  2
HEADER
  9
$ACADVER
  1
AC1009
  9
$INSBASE
 10
4771.4829139960129396
 20
251.6319224445643954
 30
0.0
  9
$EXTMIN
 10
4769.6788966482863543
 20
249.238297354941011
 30
0.0
  9
$EXTMAX
 10
4773.2869313437431629
 20
252.4012224445644108
 30
0.0
  9
$LIMMIN
 10
0.0
 20
0.0
  9
$LIMMAX
 10
11.6929133858000007
 20
8.2677165353999982
  9
$ORTHOMODE
 70
     1
  9
$REGENMODE
 70
     1
  9
$FILLMODE
 70
     1
  9
$QTEXTMODE
 70
     0
  9
$MIRRTEXT
 70
     0
  9
$DRAGMODE
 70
     2
  9
$LTSCALE
 40
0.6431102362
  9
$OSMODE
 70
  4095
  9
$ATTMODE
 70
     1
  9
$TEXTSIZE
 40
0.2
  9
$TRACEWID
 40
0.05
  9
$TEXTSTYLE
  7
STANDARD
  9
$CLAYER
  8
0
  9
$CELTYPE
  6
BYLAYER
  9
$CECOLOR
 62
   256
  9
$DIMSCALE
 40
1.0
  9
$DIMASZ
 40
0.1875
  9
$DIMEXO
 40
0.0625
  9
$DIMDLI
 40
0.4443307087
  9
$DIMRND
 40
0.0
  9
$DIMDLE
 40
0.0
  9
$DIMEXE
 40
0.125
  9
$DIMTP
 40
0.01
  9
$DIMTM
 40
0.01
  9
$DIMTXT
 40
2.0
  9
$DIMCEN
 40
0.1052362205
  9
$DIMTSZ
 40
0.0
  9
$DIMTOL
 70
     1
  9
$DIMLIM
 70
     0
  9
$DIMTIH
 70
     1
  9
$DIMTOH
 70
     1
  9
$DIMSE1
 70
     0
  9
$DIMSE2
 70
     0
  9
$DIMTAD
 70
     0
  9
$DIMZIN
 70
     0
  9
$DIMBLK
  1

  9
$DIMASO
 70
     1
  9
$DIMSHO
 70
     1
  9
$DIMPOST
  1
\X
  9
$DIMAPOST
  1

  9
$DIMALT
 70
     1
  9
$DIMALTD
 70
     2
  9
$DIMALTF
 40
25.3999999999999986
  9
$DIMLFAC
 40
1.0
  9
$DIMTOFL
 70
     0
  9
$DIMTVP
 40
0.0
  9
$DIMTIX
 70
     0
  9
$DIMSOXD
 70
     0
  9
$DIMSAH
 70
     0
  9
$DIMBLK1
  1

  9
$DIMBLK2
  1

  9
$DIMSTYLE
  2
STANDARD
  9
$DIMCLRD
 70
     0
  9
$DIMCLRE
 70
     0
  9
$DIMCLRT
 70
     0
  9
$DIMTFAC
 40
1.0
  9
$DIMGAP
 40
0.09
  9
$LUNITS
 70
     2
  9
$LUPREC
 70
     4
  9
$SKETCHINC
 40
0.1
  9
$FILLETRAD
 40
0.0
  9
$AUNITS
 70
     0
  9
$AUPREC
 70
     0
  9
$MENU
  1
.
  9
$ELEVATION
 40
0.0
  9
$PELEVATION
 40
0.0
  9
$THICKNESS
 40
0.0
  9
$LIMCHECK
 70
     0
  9
$BLIPMODE
 70
     0
  9
$CHAMFERA
 40
0.0
  9
$CHAMFERB
 40
0.0
  9
$SKPOLY
 70
     0
  9
$TDCREATE
 40
2458060.468368056230247
  9
$TDUPDATE
 40
2459240.7786805559881032
  9
$TDINDWG
 40
0.3556783565
  9
$TDUSRTIMER
 40
0.3556783565
  9
$USRTIMER
 70
     1
  9
$ANGBASE
 50
0.0
  9
$ANGDIR
 70
     0
  9
$PDMODE
 70
     0
  9
$PDSIZE
 40
0.3125
  9
$PLINEWID
 40
0.0
  9
$COORDS
 70
     1
  9
$SPLFRAME
 70
     0
  9
$SPLINETYPE
 70
     6
  9
$SPLINESEGS
 70
     8
  9
$ATTDIA
 70
     1
  9
$ATTREQ
 70
     1
  9
$HANDLING
 70
     1
  9
$HANDSEED
  5
DB14
  9
$SURFTAB1
 70
     6
  9
$SURFTAB2
 70
     6
  9
$SURFTYPE
 70
     6
  9
$SURFU
 70
     6
  9
$SURFV
 70
     6
  9
$UCSNAME
  2

  9
$UCSORG
 10
0.0
 20
0.0
 30
0.0
  9
$UCSXDIR
 10
1.0
 20
0.0
 30
0.0
  9
$UCSYDIR
 10
0.0
 20
1.0
 30
0.0
  9
$PUCSNAME
  2

  9
$PUCSORG
 10
0.0
 20
0.0
 30
0.0
  9
$PUCSXDIR
 10
1.0
 20
0.0
 30
0.0
  9
$PUCSYDIR
 10
0.0
 20
1.0
 30
0.0
  9
$USERI1
 70
     0
  9
$USERI2
 70
     0
  9
$USERI3
 70
     0
  9
$USERI4
 70
     0
  9
$USERI5
 70
     0
  9
$USERR1
 40
0.0
  9
$USERR2
 40
0.0
  9
$USERR3
 40
0.0
  9
$USERR4
 40
0.0
  9
$USERR5
 40
0.0
  9
$WORLDVIEW
 70
     1
  9
$SHADEDGE
 70
     3
  9
$SHADEDIF
 70
    70
  9
$TILEMODE
 70
     1
  9
$MAXACTVP
 70
    64
  9
$PLIMCHECK
 70
     0
  9
$PEXTMIN
 10
1.0000000000000000E+20
 20
1.0000000000000000E+20
 30
1.0000000000000000E+20
  9
$PEXTMAX
 10
-1.0000000000000000E+20
 20
-1.0000000000000000E+20
 30
-1.0000000000000000E+20
  9
$PLIMMIN
 10
0.0
 20
0.0
  9
$PLIMMAX
 10
12.0
 20
9.0
  9
$UNITMODE
 70
     0
  9
$VISRETAIN
 70
     1
  9
$PLINEGEN
 70
     0
  9
$PSLTSCALE
 70
     1
  0
ENDSEC
  0
SECTION
  2
TABLES
  0
TABLE
  2
VPORT
 70
     1
  0
VPORT
  2
*ACTIVE
 70
     0
 10
0.0
 20
0.0
 11
1.0
 21
1.0
 12
0.0
 22
0.0
 13
0.0
 23
0.0
 14
1.0
 24
1.0
 15
0.0
 25
0.0
 16
0.0
 26
0.0
 36
13.5961673931466898
 17
4771.48291015625
 27
250.8197631835936932
 37
0.0
 40
4.798931296555466
 41
2.1186252771618621
 42
50.0
 43
0.0
 44
0.0
 50
0.0
 51
0.0
 71
     0
 72
   100
 73
     1
 74
     1
 75
     0
 76
     0
 77
     0
 78
     0
  0
ENDTAB
  0
TABLE
  2
LTYPE
 70
     2
  0
LTYPE
  2
CONTINUOUS
 70
     0
  3
Solid line
 72
    65
 73
     0
 40
0.0
  0
LTYPE
  2
PHANTOM2
 70
     0
  3
___ _ _ ___ _ _ ___ _ _ ___ _ _
 72
    65
 73
     6
 40
1.25
 49
0.625
 49
-0.125
 49
0.125
 49
-0.125
 49
0.125
 49
-0.125
  0
ENDTAB
  0
TABLE
  2
LAYER
 70
     2
  0
LAYER
  2
0
 70
     0
 62
   255
  6
CONTINUOUS
  0
LAYER
  2
DEFPOINTS
 70
     0
 62
     7
  6
CONTINUOUS
  0
ENDTAB
  0
TABLE
  2
STYLE
 70
     1
  0
STYLE
  2
STANDARD
 70
     0
 40
0.0
 41
0.8
 50
0.0
 71
     0
 42
0.2
  3
txt
  4

  0
ENDTAB
  0
TABLE
  2
VIEW
 70
     0
  0
ENDTAB
  0
TABLE
  2
UCS
 70
     0
  0
ENDTAB
  0
TABLE
  2
APPID
 70
     9
  0
APPID
  2
ACAD
 70
     0
  0
APPID
  2
ACAD_MLEADERVER
 70
     0
  0
APPID
  2
ACAD_EXEMPT_FROM_CAD_STANDARDS
 70
     0
  0
APPID
  2
ACAD_NAV_VCDISPLAY
 70
     0
  0
APPID
  2
ACAECLAYERSTANDARD
 70
     0
  0
APPID
  2
ACCMTRANSPARENCY
 70
     0
  0
APPID
  2
ACAD_DSTYLE_DIMJAG
 70
     0
  0
APPID
  2
ACAD_DSTYLE_DIMTALN
 70
     0
  0
APPID
  2
ACDBATTR
 70
     0
  0
ENDTAB
  0
TABLE
  2
DIMSTYLE
 70
     1
  0
DIMSTYLE
  2
STANDARD
 70
     0
  3

  4

  5

  6

  7

 40
1.0
 41
0.1875
 42
0.0625
 43
0.38
 44
0.125
 45
0.0
 46
0.0
 47
0.01
 48
0.01
140
0.15625
141
0.09
142
0.0
143
25.3999999999999986
144
1.0
145
0.0
146
1.0
147
0.09
 71
     1
 72
     0
 73
     1
 74
     1
 75
     0
 76
     0
 77
     0
 78
     4
170
     0
171
     2
172
     0
173
     0
174
     0
175
     0
176
     0
177
     0
178
     0
  0
ENDTAB
  0
ENDSEC
  0
SECTION
  2
BLOCKS
  0
BLOCK
  8
0
  2
$MODEL_SPACE
 70
     0
 10
0.0
 20
0.0
 30
0.0
  3
$MODEL_SPACE
  1

  0
ENDBLK
  5
21
  8
0
  0
BLOCK
 67
     1
  8
0
  2
$PAPER_SPACE
 70
     0
 10
0.0
 20
0.0
 30
0.0
  3
$PAPER_SPACE
  1

  0
ENDBLK
  5
1D
 67
     1
  8
0
  0
ENDSEC
  0
SECTION
  2
ENTITIES
  0
ATTDEF
  5
3930
  8
DEFPOINTS
 10
4771.4798470516434463
 20
251.6360513160244921
 30
0.0
 40
0.001
  1
K-26284W-G
  3

  2
MODELNUMBER
 70
     0
1001
ACDBATTR
1070
     0
1070
     1
  0
ATTDEF
  5
3931
  8
DEFPOINTS
 10
4771.4798470516434463
 20
251.6343846493577985
 30
0.0
 40
0.001
  1

  3

  2
TRADENAME
 70
     0
1001
ACDBATTR
1070
     0
1070
     1
  0
ATTDEF
  5
3932
  8
DEFPOINTS
 10
4771.4798470516434463
 20
251.6327179826911902
 30
0.0
 40
0.001
  1
HANDSHOWER
  3

  2
PRODUCT
 70
     0
1001
ACDBATTR
1070
     0
1070
     1
  0
ARC
  5
D992
  8
0
 10
4771.4822092896120012
 20
243.5006765525141077
 30
0.0
 40
8.8400365963313394
 50
89.9352156515064252
 51
90.0556494768856766
  0
LINE
  5
D993
  8
0
 10
4770.6947241085135829
 20
252.0929427764280888
 30
0.0
 11
4770.6929694846639904
 21
251.9988047404692963
 31
0.0
  0
LINE
  5
D994
  8
0
 10
4770.8673925510129266
 20
252.0734787087282029
 30
0.0
 11
4770.8666828407140201
 21
251.9860336987281926
 31
0.0
  0
LINE
  5
D995
  8
0
 10
4770.7879280725137505
 20
252.1738109934281908
 30
0.0
 11
4770.7867751892135857
 21
252.0481699521280916
 31
0.0
  0
LINE
  5
D996
  8
0
 10
4771.2157015729126215
 20
252.0818051788280911
 30
0.0
 11
4771.2164840727700721
 21
251.9923204530194027
 31
0.0
  0
LINE
  5
D997
  8
0
 10
4770.9122419759141849
 20
251.9870120704281931
 30
0.0
 11
4771.2247625987138235
 21
251.9924648958281921
 31
0.0
  0
LINE
  5
D998
  8
0
 10
4770.8921030889141548
 20
252.0715384876280893
 30
0.0
 11
4771.206559569312958
 21
252.0768257081280979
 31
0.0
  0
ARC
  5
D999
  8
0
 10
4770.7922882534630844
 20
252.0958502687410032
 30
0.0
 40
0.0976074581743703
 50
181.7069564860231026
 51
223.1319803619140885
  0
ARC
  5
D99A
  8
0
 10
4771.0309778944192658
 20
252.3604318491919116
 30
0.0
 40
0.4536743293831392
 50
226.9107372045399984
 51
256.8556067548087185
  0
ARC
  5
D99B
  8
0
 10
4771.3762695285822701
 20
253.4502849272139997
 30
0.0
 40
1.595945144308156
 50
253.6801307702525889
 51
264.1237258885263941
  0
ARC
  5
D99C
  8
0
 10
4771.5015910269576125
 20
254.6725090162892968
 30
0.0
 40
2.8245773421351479
 50
264.1332413917036206
 51
269.6211387703178843
  0
ARC
  5
D99D
  8
0
 10
4770.8120146017517982
 20
252.0839769579172867
 30
0.0
 40
0.1176326727814848
 50
130.2389961286143887
 51
175.6287464216711953
  0
ARC
  5
D99E
  8
0
 10
4770.9446975339278652
 20
251.9468006375527978
 30
0.0
 40
0.3083177940288064
 50
117.7534978849372038
 51
132.5944645634911012
  0
ARC
  5
D99F
  8
0
 10
4770.8438832996216661
 20
252.0851251555826877
 30
0.0
 40
0.0692626025345171
 50
144.5175826052008858
 51
194.7295193791009922
  0
ARC
  5
D9A0
  8
0
 10
4770.8467489831946295
 20
252.0909898201466035
 30
0.0
 40
0.0736912278467113
 50
198.57589256253641
 51
215.525937488593712
  0
ARC
  5
D9A1
  8
0
 10
4770.9597111892553585
 20
252.1881178210427095
 30
0.0
 40
0.2224685733399309
 50
218.9813974804787904
 51
245.2812726977711861
  0
ARC
  5
D9A2
  8
0
 10
4771.2706092082589748
 20
252.8530625245892907
 30
0.0
 40
0.9565016964292768
 50
245.0204025911542089
 51
261.5792542452670091
  0
ARC
  5
D9A3
  8
0
 10
4771.4535409936179349
 20
253.805921513677788
 30
0.0
 40
1.9263224221314561
 50
260.3471243934026802
 51
266.0890536926207233
  0
ARC
  5
D9A4
  8
0
 10
4771.4912704673406552
 20
254.4301277145708866
 30
0.0
 40
2.5516531538652099
 50
266.1998196597515971
 51
269.8123603147993776
  0
ARC
  5
D9A5
  8
0
 10
4770.881265153190725
 20
252.1717603460380985
 30
0.0
 40
0.0933596046698338
 50
149.1393617269725951
 51
178.7413947296298034
  0
ARC
  5
D9A6
  8
0
 10
4770.9655193075632269
 20
252.1128641445922938
 30
0.0
 40
0.1960331825096723
 50
118.8308286140943011
 51
146.9937821701099949
  0
ARC
  5
D9A7
  8
0
 10
4771.2002641705157657
 20
251.694759292333913
 30
0.0
 40
0.6755246967545333
 50
103.4463184872973045
 51
119.1723836297174017
  0
ARC
  5
D9A8
  8
0
 10
4771.4160733093312956
 20
250.8659852143017872
 30
0.0
 40
1.5318598939332939
 50
95.4915158627591296
 51
104.0887273588905941
  0
ARC
  5
D9A9
  8
0
 10
4771.4800954678130438
 20
250.2960285304419017
 30
0.0
 40
2.1053475417258989
 50
90.6922095296289257
 51
95.7414647096475164
  0
ARC
  5
D9AA
  8
0
 10
4771.4546860053878845
 20
252.3827727953587896
 30
0.0
 40
0.0184496492055265
 50
359.3006163337529983
 51
90.0786586088176051
  0
ARC
  5
D9AB
  8
0
 10
4740.5818457084642432
 20
252.0310803504052046
 30
0.0
 40
30.8933292168407192
 50
0.1693495229572601
 51
0.6516127673943176
  0
ARC
  5
D9AC
  8
0
 10
4771.4953242286928798
 20
247.8577286734800964
 30
0.0
 40
4.2647114053102531
 50
90.1667299123335226
 51
90.2725169653744643
  0
ARC
  5
D9AD
  8
0
 10
4771.4815286489110804
 20
251.3099314699366005
 30
0.0
 40
0.8124862798708015
 50
90.4575797675004623
 51
93.8151731251910377
  0
ARC
  5
D9AE
  8
0
 10
4771.4686440164496162
 20
251.454852932406709
 30
0.0
 40
0.6670364005419654
 50
93.5391645307178834
 51
102.097562234482794
  0
ARC
  5
D9AF
  8
0
 10
4771.3811322782030402
 20
251.8327512580520988
 30
0.0
 40
0.2792625866911651
 50
100.7906288361853058
 51
120.5916136248009991
  0
ARC
  5
D9B0
  8
0
 10
4771.2856038164818528
 20
252.0000138312275055
 30
0.0
 40
0.0867124658870795
 50
122.5015684218676029
 51
143.4272032636195036
  0
ARC
  5
D9B1
  8
0
 10
4771.1958703945947491
 20
252.0816373495839002
 30
0.0
 40
0.0198318884673371
 50
0.4848767765354411
 51
60.6001499040661287
  0
ARC
  5
D9B2
  8
0
 10
4771.238675310479266
 20
252.1507230744587105
 30
0.0
 40
0.0614625326698044
 50
218.4192360674915108
 51
237.4495640953909117
  0
ARC
  5
D9B3
  8
0
 10
4771.2062132314003975
 20
252.1248036882886936
 30
0.0
 40
0.0199228552504548
 50
157.3545106918072918
 51
218.0305328365519131
  0
ARC
  5
D9B4
  8
0
 10
4771.2451382801482396
 20
252.1074613546738021
 30
0.0
 40
0.0625325455450941
 50
120.3043947299159981
 51
156.4216456101536039
  0
ARC
  5
D9B5
  8
0
 10
4771.3934411555492261
 20
251.8323069642387111
 30
0.0
 40
0.3750772956195036
 50
97.0928007445205168
 51
118.6539437099093988
  0
ARC
  5
D9B6
  8
0
 10
4771.4729698581695629
 20
251.4007026374453915
 30
0.0
 40
0.8136024039693825
 50
91.1280070353553526
 51
98.897811716878536
  0
ARC
  5
D9B7
  8
0
 10
4771.4567649072550921
 20
252.2547611209072045
 30
0.0
 40
0.040614184810835
 50
270.2655570309843256
 51
288.3594194203661232
  0
ARC
  5
D9B8
  8
0
 10
4771.4671031631096412
 20
252.2242613381735055
 30
0.0
 40
0.0084130548519539
 50
286.9610855217724747
 51
332.9307327539983135
  0
ARC
  5
D9B9
  8
0
 10
4770.8921900547211408
 20
252.1845273313415987
 30
0.0
 40
0.1048112629065504
 50
185.8684130097136062
 51
229.1489782894815903
  0
ARC
  5
D9BA
  8
0
 10
4770.9940573872063396
 20
252.293975490044005
 30
0.0
 40
0.2542888344134617
 50
227.9176731063627983
 51
240.1246965113051033
  0
ARC
  5
D9BB
  8
0
 10
4770.8844459991751137
 20
252.1323443167528922
 30
0.0
 40
0.0612860496263377
 50
253.8436243070445073
 51
277.1773009515035255
  0
ARC
  5
D9BC
  8
0
 10
4771.2038390109109969
 20
252.0927023019434046
 30
0.0
 40
0.0161080001695033
 50
279.7235701895154989
 51
317.4289629518435163
  0
ARC
  5
D9BD
  8
0
 10
4770.9123117451326834
 20
251.9677322632068979
 30
0.0
 40
0.0192799334603073
 50
90.2073394364579002
 51
161.6049144805415096
  0
ARC
  5
D9BE
  8
0
 10
4771.2252248180311653
 20
251.9757692826050004
 30
0.0
 40
0.0167020102859609
 50
68.8481077252098146
 51
91.5858329190108833
  0
ARC
  5
D9BF
  8
0
 10
4771.3703339219364352
 20
252.3155519643636922
 30
0.0
 40
0.3527795068513307
 50
246.7809695500598934
 51
256.2908690481460212
  0
ARC
  5
D9C0
  8
0
 10
4771.4534232584255733
 20
252.653023203644409
 30
0.0
 40
0.7003286348942306
 50
256.2300067716760168
 51
264.5471713954510733
  0
ARC
  5
D9C1
  8
0
 10
4771.5121335480853304
 20
253.5281464237745013
 30
0.0
 40
1.5772643868442979
 50
265.4450076329811736
 51
268.9385084698321862
  0
ARC
  5
D9C2
  8
0
 10
4771.4847601684687106
 20
254.8183263271085934
 30
0.0
 40
5.5800292775739413
 50
264.9749033733970123
 51
269.9810434880355956
  0
ARC
  5
D9C3
  8
0
 10
4771.2707372924542142
 20
252.8865550424486059
 30
0.0
 40
3.6372022435116098
 50
252.6832086001778066
 51
265.6679194209050934
  0
ARC
  5
D9C4
  8
0
 10
4770.4648284231034268
 20
250.3939188632510877
 30
0.0
 40
1.018035473990029
 50
228.3563724978760092
 51
254.2274648502938987
  0
ARC
  5
D9C5
  8
0
 10
4770.2828393083636911
 20
249.9829760440138955
 30
0.0
 40
0.6057229408037382
 50
184.3939113559387977
 51
215.2774794962595024
  0
ARC
  5
D9C6
  8
0
 10
4790.7066599364170543
 20
249.553162984052193
 30
0.0
 40
21.0312583943038298
 50
175.5371985584907861
 51
178.9554212136706042
  0
ARC
  5
D9C7
  8
0
 10
4770.4770330585479314
 20
251.0804325716239873
 30
0.0
 40
0.7459044410488676
 50
117.4148813558577018
 51
171.5807885265078028
  0
ARC
  5
D9C8
  8
0
 10
4771.027569336983106
 20
250.0765704035079011
 30
0.0
 40
1.890698039649241
 50
101.3653291828105978
 51
118.2179687538067014
  0
ARC
  5
D9C9
  8
0
 10
4770.6069607357530913
 20
252.0016032901106087
 30
0.0
 40
0.0860542664207718
 50
303.9188568257047223
 51
358.1363694467298728
  0
LINE
  5
D9CA
  8
0
 10
4772.2711038835141153
 20
252.0929427764280888
 30
0.0
 11
4772.2728585073627983
 21
251.9988047404692963
 31
0.0
  0
LINE
  5
D9CB
  8
0
 10
4772.0984354410138621
 20
252.0734787087282029
 30
0.0
 11
4772.0991451513127686
 21
251.9860336987281926
 31
0.0
  0
LINE
  5
D9CC
  8
0
 10
4772.1778999195139477
 20
252.1738109934281908
 30
0.0
 11
4772.1790528028141125
 21
252.0481699521280916
 31
0.0
  0
LINE
  5
D9CD
  8
0
 10
4771.7501264191141672
 20
252.0818051788280911
 30
0.0
 11
4771.7493439192576261
 21
251.9923204530194027
 31
0.0
  0
LINE
  5
D9CE
  8
0
 10
4772.0535860161144228
 20
251.9870120704281931
 30
0.0
 11
4771.7410653933129652
 21
251.9924648958281921
 31
0.0
  0
LINE
  5
D9CF
  8
0
 10
4772.0737249031144529
 20
252.0715384876280893
 30
0.0
 11
4771.7592684227138307
 21
252.0768257081280979
 31
0.0
  0
ARC
  5
D9D0
  8
0
 10
4772.1735397385646138
 20
252.0958502687410032
 30
0.0
 40
0.0976074581743703
 50
316.8680196380857979
 51
358.2930435139768974
  0
ARC
  5
D9D1
  8
0
 10
4771.9348500976084324
 20
252.3604318491919116
 30
0.0
 40
0.4536743293831392
 50
283.1443932451912815
 51
313.0892627954600016
  0
ARC
  5
D9D2
  8
0
 10
4771.5895584634454281
 20
253.4502849272139997
 30
0.0
 40
1.595945144308156
 50
275.8762741114736059
 51
286.3198692297469279
  0
ARC
  5
D9D3
  8
0
 10
4771.4642369650682667
 20
254.6725090162892968
 30
0.0
 40
2.8245773421351479
 50
270.378861229682002
 51
275.8667586082963226
  0
ARC
  5
D9D4
  8
0
 10
4772.153813390274081
 20
252.0839769579172867
 30
0.0
 40
0.1176326727814848
 50
4.3712535783288073
 51
49.7610038713855616
  0
ARC
  5
D9D5
  8
0
 10
4772.0211304580989236
 20
251.9468006375527978
 30
0.0
 40
0.3083177940288064
 50
47.4055354365089201
 51
62.246502115062782
  0
ARC
  5
D9D6
  8
0
 10
4772.1219446924069416
 20
252.0851251555826877
 30
0.0
 40
0.0692626025345171
 50
345.2704806208989794
 51
35.4824173947990715
  0
ARC
  5
D9D7
  8
0
 10
4772.1190790088330687
 20
252.0909898201466035
 30
0.0
 40
0.0736912278467113
 50
324.4740625114063164
 51
341.42410743746359
  0
ARC
  5
D9D8
  8
0
 10
4772.0061168027732492
 20
252.1881178210427095
 30
0.0
 40
0.2224685733399309
 50
294.7187273022286718
 51
321.0186025195213233
  0
ARC
  5
D9D9
  8
0
 10
4771.6952187837687234
 20
252.8530625245892907
 30
0.0
 40
0.9565016964292768
 50
278.4207457547331046
 51
294.9795974088459047
  0
ARC
  5
D9DA
  8
0
 10
4771.5122869984097633
 20
253.805921513677788
 30
0.0
 40
1.9263224221314561
 50
273.9109463073792767
 51
279.6528756065973198
  0
ARC
  5
D9DB
  8
0
 10
4771.474557524687043
 20
254.4301277145708866
 30
0.0
 40
2.5516531538652099
 50
270.1876396852006224
 51
273.8001803402484029
  0
ARC
  5
D9DC
  8
0
 10
4772.0845628388360637
 20
252.1717603460380985
 30
0.0
 40
0.0933596046698338
 50
1.2586052703702371
 51
30.8606382730274014
  0
ARC
  5
D9DD
  8
0
 10
4772.0003086844635618
 20
252.1128641445922938
 30
0.0
 40
0.1960331825096723
 50
33.0062178298899198
 51
61.1691713859057131
  0
ARC
  5
D9DE
  8
0
 10
4771.765563821512842
 20
251.694759292333913
 30
0.0
 40
0.6755246967545333
 50
60.8276163702826196
 51
76.5536815127026529
  0
ARC
  5
D9DF
  8
0
 10
4771.5497546826973121
 20
250.8659852143017872
 30
0.0
 40
1.5318598939332939
 50
75.9112726411093632
 51
84.5084841372408846
  0
ARC
  5
D9E0
  8
0
 10
4771.4857325242137449
 20
250.2960285304419017
 30
0.0
 40
2.1053475417258989
 50
84.2585352903524836
 51
89.3077904703710743
  0
ARC
  5
D9E1
  8
0
 10
4771.5111419866389042
 20
252.3827727953587896
 30
0.0
 40
0.0184496492055265
 50
89.9213413911823807
 51
180.6993836662470017
  0
ARC
  5
D9E2
  8
0
 10
4802.3839822835625455
 20
252.0310803504052046
 30
0.0
 40
30.8933292168407192
 50
179.3483872326056883
 51
179.8306504770426955
  0
ARC
  5
D9E3
  8
0
 10
4771.4705037633339089
 20
247.8577286734800964
 30
0.0
 40
4.2647114053102531
 50
89.7274830346255641
 51
89.8332700876664774
  0
ARC
  5
D9E4
  8
0
 10
4771.4842993431147988
 20
251.3099314699366005
 30
0.0
 40
0.8124862798708015
 50
86.1848268748089765
 51
89.5424202324474265
  0
ARC
  5
D9E5
  8
0
 10
4771.4971839755771725
 20
251.454852932406709
 30
0.0
 40
0.6670364005419654
 50
77.9024377655172344
 51
86.4608354692821166
  0
ARC
  5
D9E6
  8
0
 10
4771.584695713824658
 20
251.8327512580520988
 30
0.0
 40
0.2792625866911651
 50
59.4083863751989512
 51
79.2093711638146516
  0
ARC
  5
D9E7
  8
0
 10
4771.6802241755458454
 20
252.0000138312275055
 30
0.0
 40
0.0867124658870795
 50
36.572796736380532
 51
57.4984315781323403
  0
ARC
  5
D9E8
  8
0
 10
4771.7699575974329491
 20
252.0816373495839002
 30
0.0
 40
0.0198318884673371
 50
119.3998500959338998
 51
179.5151232234645136
  0
ARC
  5
D9E9
  8
0
 10
4771.7271526815484322
 20
252.1507230744587105
 30
0.0
 40
0.0614625326698044
 50
302.5504359046091167
 51
321.5807639325086029
  0
ARC
  5
D9EA
  8
0
 10
4771.7596147606273007
 20
252.1248036882886936
 30
0.0
 40
0.0199228552504548
 50
321.9694671634480869
 51
22.6454893081926301
  0
ARC
  5
D9EB
  8
0
 10
4771.7206897118785491
 20
252.1074613546738021
 30
0.0
 40
0.0625325455450941
 50
23.578354389846389
 51
59.6956052700839805
  0
ARC
  5
D9EC
  8
0
 10
4771.5723868364775626
 20
251.8323069642387111
 30
0.0
 40
0.3750772956195036
 50
61.346056290090651
 51
82.9071992554794974
  0
ARC
  5
D9ED
  8
0
 10
4771.4928581338572258
 20
251.4007026374453915
 30
0.0
 40
0.8136024039693825
 50
81.102188283121464
 51
88.8719929646446616
  0
ARC
  5
D9EE
  8
0
 10
4771.5090630847716966
 20
252.2547611209072045
 30
0.0
 40
0.040614184810835
 50
251.6405805796339052
 51
269.7344429690156744
  0
ARC
  5
D9EF
  8
0
 10
4771.4987248289171475
 20
252.2242613381735055
 30
0.0
 40
0.0084130548519539
 50
207.0692672460016865
 51
253.0389144782274968
  0
ARC
  5
D9F0
  8
0
 10
4772.0736379373056479
 20
252.1845273313415987
 30
0.0
 40
0.1048112629065504
 50
310.8510217105172728
 51
354.1315869902863938
  0
ARC
  5
D9F1
  8
0
 10
4771.9717706048222681
 20
252.293975490044005
 30
0.0
 40
0.2542888344134617
 50
299.8753034886948967
 51
312.0823268936371733
  0
ARC
  5
D9F2
  8
0
 10
4772.0813819928507655
 20
252.1323443167528922
 30
0.0
 40
0.0612860496263377
 50
262.8226990484964745
 51
286.1563756929555211
  0
ARC
  5
D9F3
  8
0
 10
4771.7619889811167013
 20
252.0927023019434046
 30
0.0
 40
0.0161080001695033
 50
222.5710370481565121
 51
260.2764298104846148
  0
ARC
  5
D9F4
  8
0
 10
4772.0535162468941053
 20
251.9677322632068979
 30
0.0
 40
0.0192799334603073
 50
18.39508551945843
 51
89.792660563542114
  0
ARC
  5
D9F5
  8
0
 10
4771.7406031739974424
 20
251.9757692826050004
 30
0.0
 40
0.0167020102859609
 50
88.4141670809891451
 51
111.1518922747901996
  0
ARC
  5
D9F6
  8
0
 10
4771.5954940700921725
 20
252.3155519643636922
 30
0.0
 40
0.3527795068513307
 50
283.7091309518539788
 51
293.2190304499400781
  0
ARC
  5
D9F7
  8
0
 10
4771.5124047336012154
 20
252.653023203644409
 30
0.0
 40
0.7003286348942306
 50
275.4528286045489267
 51
283.7699932283240969
  0
ARC
  5
D9F8
  8
0
 10
4771.4536944439432773
 20
253.5281464237745013
 30
0.0
 40
1.5772643868442979
 50
271.0614915301678138
 51
274.5549923670188264
  0
ARC
  5
D9F9
  8
0
 10
4771.4810678235571686
 20
254.8183263271085934
 30
0.0
 40
5.5800292775739413
 50
270.0189565119644044
 51
275.0250966266029877
  0
ARC
  5
D9FA
  8
0
 10
4771.6950906995743935
 20
252.8865550424486059
 30
0.0
 40
3.6372022435116098
 50
274.3320805790947929
 51
287.3167913998221934
  0
ARC
  5
D9FB
  8
0
 10
4772.5009995689251809
 20
250.3939188632510877
 30
0.0
 40
1.018035473990029
 50
285.7725351497060728
 51
311.6436275021239908
  0
ARC
  5
D9FC
  8
0
 10
4772.6829886836640071
 20
249.9829760440138955
 30
0.0
 40
0.6057229408037382
 50
324.7225205037404976
 51
355.6060886440611739
  0
ARC
  5
D9FD
  8
0
 10
4752.2591680556097344
 20
249.553162984052193
 30
0.0
 40
21.0312583943038298
 50
1.0445787863294149
 51
4.4628014415092299
  0
ARC
  5
D9FE
  8
0
 10
4772.4887949334788573
 20
251.0804325716239873
 30
0.0
 40
0.7459044410488676
 50
8.419211473492183
 51
62.5851186441422698
  0
ARC
  5
D9FF
  8
0
 10
4771.9382586550436827
 20
250.0765704035079011
 30
0.0
 40
1.890698039649241
 50
61.7820312461933199
 51
78.6346708171893596
  0
ARC
  5
DA00
  8
0
 10
4772.3588672562746069
 20
252.0016032901106087
 30
0.0
 40
0.0860542664207718
 50
181.8636305532700987
 51
236.0811431742953062
  0
ENDSEC
  0
EOF
