  0
SECTION
  2
HEADER
  9
$ACADVER
  1
AC1009
  9
$INSBASE
 10
4751.3955109181906664
 20
243.4011973651471976
 30
0.0
  9
$EXTMIN
 10
4750.1255109181911394
 20
243.0468666565471949
 30
0.0
  9
$EXTMAX
 10
4752.6655109181901935
 20
250.5963041907471904
 30
0.0
  9
$LIMMIN
 10
0.0
 20
0.0
  9
$LIMMAX
 10
11.6929133858000007
 20
8.2677165353999982
  9
$ORTHOMODE
 70
     1
  9
$REGENMODE
 70
     1
  9
$FILLMODE
 70
     1
  9
$QTEXTMODE
 70
     0
  9
$MIRRTEXT
 70
     0
  9
$DRAGMODE
 70
     2
  9
$LTSCALE
 40
0.6431102362
  9
$OSMODE
 70
     7
  9
$ATTMODE
 70
     1
  9
$TEXTSIZE
 40
0.2
  9
$TRACEWID
 40
0.05
  9
$TEXTSTYLE
  7
STANDARD
  9
$CLAYER
  8
0
  9
$CELTYPE
  6
BYLAYER
  9
$CECOLOR
 62
   256
  9
$DIMSCALE
 40
1.0
  9
$DIMASZ
 40
0.1875
  9
$DIMEXO
 40
0.0625
  9
$DIMDLI
 40
0.4443307087
  9
$DIMRND
 40
0.0
  9
$DIMDLE
 40
0.0
  9
$DIMEXE
 40
0.125
  9
$DIMTP
 40
0.01
  9
$DIMTM
 40
0.01
  9
$DIMTXT
 40
2.0
  9
$DIMCEN
 40
0.1052362205
  9
$DIMTSZ
 40
0.0
  9
$DIMTOL
 70
     1
  9
$DIMLIM
 70
     0
  9
$DIMTIH
 70
     1
  9
$DIMTOH
 70
     1
  9
$DIMSE1
 70
     0
  9
$DIMSE2
 70
     0
  9
$DIMTAD
 70
     0
  9
$DIMZIN
 70
     0
  9
$DIMBLK
  1

  9
$DIMASO
 70
     1
  9
$DIMSHO
 70
     1
  9
$DIMPOST
  1
\X
  9
$DIMAPOST
  1

  9
$DIMALT
 70
     1
  9
$DIMALTD
 70
     2
  9
$DIMALTF
 40
25.3999999999999986
  9
$DIMLFAC
 40
1.0
  9
$DIMTOFL
 70
     0
  9
$DIMTVP
 40
0.0
  9
$DIMTIX
 70
     0
  9
$DIMSOXD
 70
     0
  9
$DIMSAH
 70
     0
  9
$DIMBLK1
  1

  9
$DIMBLK2
  1

  9
$DIMSTYLE
  2
STANDARD
  9
$DIMCLRD
 70
     0
  9
$DIMCLRE
 70
     0
  9
$DIMCLRT
 70
     0
  9
$DIMTFAC
 40
1.0
  9
$DIMGAP
 40
0.09
  9
$LUNITS
 70
     2
  9
$LUPREC
 70
     4
  9
$SKETCHINC
 40
0.1
  9
$FILLETRAD
 40
0.0
  9
$AUNITS
 70
     0
  9
$AUPREC
 70
     0
  9
$MENU
  1
.
  9
$ELEVATION
 40
0.0
  9
$PELEVATION
 40
0.0
  9
$THICKNESS
 40
0.0
  9
$LIMCHECK
 70
     0
  9
$BLIPMODE
 70
     0
  9
$CHAMFERA
 40
0.0
  9
$CHAMFERB
 40
0.0
  9
$SKPOLY
 70
     0
  9
$TDCREATE
 40
2458060.468368056230247
  9
$TDUPDATE
 40
2459559.7978240740485489
  9
$TDINDWG
 40
0.3604121528
  9
$TDUSRTIMER
 40
0.3604121528
  9
$USRTIMER
 70
     1
  9
$ANGBASE
 50
0.0
  9
$ANGDIR
 70
     0
  9
$PDMODE
 70
     0
  9
$PDSIZE
 40
0.3125
  9
$PLINEWID
 40
0.0
  9
$COORDS
 70
     1
  9
$SPLFRAME
 70
     0
  9
$SPLINETYPE
 70
     6
  9
$SPLINESEGS
 70
     8
  9
$ATTDIA
 70
     1
  9
$ATTREQ
 70
     1
  9
$HANDLING
 70
     1
  9
$HANDSEED
  5
D52B
  9
$SURFTAB1
 70
     6
  9
$SURFTAB2
 70
     6
  9
$SURFTYPE
 70
     6
  9
$SURFU
 70
     6
  9
$SURFV
 70
     6
  9
$UCSNAME
  2

  9
$UCSORG
 10
0.0
 20
0.0
 30
0.0
  9
$UCSXDIR
 10
1.0
 20
0.0
 30
0.0
  9
$UCSYDIR
 10
0.0
 20
1.0
 30
0.0
  9
$PUCSNAME
  2

  9
$PUCSORG
 10
0.0
 20
0.0
 30
0.0
  9
$PUCSXDIR
 10
1.0
 20
0.0
 30
0.0
  9
$PUCSYDIR
 10
0.0
 20
1.0
 30
0.0
  9
$USERI1
 70
     0
  9
$USERI2
 70
     0
  9
$USERI3
 70
     0
  9
$USERI4
 70
     0
  9
$USERI5
 70
     0
  9
$USERR1
 40
0.0
  9
$USERR2
 40
0.0
  9
$USERR3
 40
0.0
  9
$USERR4
 40
0.0
  9
$USERR5
 40
0.0
  9
$WORLDVIEW
 70
     1
  9
$SHADEDGE
 70
     3
  9
$SHADEDIF
 70
    70
  9
$TILEMODE
 70
     1
  9
$MAXACTVP
 70
    64
  9
$PLIMCHECK
 70
     0
  9
$PEXTMIN
 10
1.0000000000000000E+20
 20
1.0000000000000000E+20
 30
1.0000000000000000E+20
  9
$PEXTMAX
 10
-1.0000000000000000E+20
 20
-1.0000000000000000E+20
 30
-1.0000000000000000E+20
  9
$PLIMMIN
 10
0.0
 20
0.0
  9
$PLIMMAX
 10
12.0
 20
9.0
  9
$UNITMODE
 70
     0
  9
$VISRETAIN
 70
     1
  9
$PLINEGEN
 70
     0
  9
$PSLTSCALE
 70
     1
  0
ENDSEC
  0
SECTION
  2
TABLES
  0
TABLE
  2
VPORT
 70
     1
  0
VPORT
  2
*ACTIVE
 70
     0
 10
0.0
 20
0.0
 11
1.0
 21
1.0
 12
0.0000031056911203
 22
0.000006444154991
 13
0.0
 23
0.0
 14
1.0
 24
1.0
 15
0.0
 25
0.0
 16
0.0
 26
0.0
 36
22.5694587991367186
 17
4751.3955078125
 27
246.8215789794921875
 37
0.0
 40
7.6034907862348691
 41
1.8876941457586609
 42
50.0
 43
0.0
 44
0.0
 50
0.0
 51
0.0
 71
     0
 72
   100
 73
     1
 74
     1
 75
     0
 76
     0
 77
     0
 78
     0
  0
ENDTAB
  0
TABLE
  2
LTYPE
 70
     3
  0
LTYPE
  2
CONTINUOUS
 70
     0
  3
Solid line
 72
    65
 73
     0
 40
0.0
  0
LTYPE
  2
PHANTOM2
 70
     0
  3
___ _ _ ___ _ _ ___ _ _ ___ _ _
 72
    65
 73
     6
 40
1.25
 49
0.625
 49
-0.125
 49
0.125
 49
-0.125
 49
0.125
 49
-0.125
  0
ENDTAB
  0
TABLE
  2
LAYER
 70
     2
  0
LAYER
  2
0
 70
     0
 62
   255
  6
CONTINUOUS
  0
LAYER
  2
DEFPOINTS
 70
     0
 62
     7
  6
CONTINUOUS
  0
ENDTAB
  0
TABLE
  2
STYLE
 70
     1
  0
STYLE
  2
STANDARD
 70
     0
 40
0.0
 41
0.8
 50
0.0
 71
     0
 42
0.2
  3
txt
  4

  0
ENDTAB
  0
TABLE
  2
VIEW
 70
     0
  0
ENDTAB
  0
TABLE
  2
UCS
 70
     0
  0
ENDTAB
  0
TABLE
  2
APPID
 70
     9
  0
APPID
  2
ACAD
 70
     0
  0
APPID
  2
ACAD_MLEADERVER
 70
     0
  0
APPID
  2
ACAD_EXEMPT_FROM_CAD_STANDARDS
 70
     0
  0
APPID
  2
ACAD_NAV_VCDISPLAY
 70
     0
  0
APPID
  2
ACAECLAYERSTANDARD
 70
     0
  0
APPID
  2
ACCMTRANSPARENCY
 70
     0
  0
APPID
  2
ACAD_DSTYLE_DIMJAG
 70
     0
  0
APPID
  2
ACAD_DSTYLE_DIMTALN
 70
     0
  0
APPID
  2
ACDBATTR
 70
     0
  0
ENDTAB
  0
TABLE
  2
DIMSTYLE
 70
     2
  0
DIMSTYLE
  2
STANDARD
 70
     0
  3

  4

  5

  6

  7

 40
1.0
 41
0.1875
 42
0.0625
 43
0.38
 44
0.125
 45
0.0
 46
0.0
 47
0.01
 48
0.01
140
0.15625
141
0.09
142
0.0
143
25.3999999999999986
144
1.0
145
0.0
146
1.0
147
0.09
 71
     1
 72
     0
 73
     1
 74
     1
 75
     0
 76
     0
 77
     0
 78
     4
170
     0
171
     2
172
     0
173
     0
174
     0
175
     0
176
     0
177
     0
178
     0
  0
ENDTAB
  0
ENDSEC
  0
SECTION
  2
BLOCKS
  0
BLOCK
  8
0
  2
$MODEL_SPACE
 70
     0
 10
0.0
 20
0.0
 30
0.0
  3
$MODEL_SPACE
  1

  0
ENDBLK
  5
21
  8
0
  0
BLOCK
 67
     1
  8
0
  2
$PAPER_SPACE
 70
     0
 10
0.0
 20
0.0
 30
0.0
  3
$PAPER_SPACE
  1

  0
ENDBLK
  5
1D
 67
     1
  8
0
  0
ENDSEC
  0
SECTION
  2
ENTITIES
  0
ATTDEF
  5
3930
  8
DEFPOINTS
 10
4751.3896935581906291
 20
243.3992354724622089
 30
0.0
 40
0.001
  1
K-26286IN-G
  3

  2
MODELNUMBER
 70
     0
1001
ACDBATTR
1070
     0
1070
     1
  0
ATTDEF
  5
3931
  8
DEFPOINTS
 10
4751.3896935581906291
 20
243.3975688057954869
 30
0.0
 40
0.001
  1

  3

  2
TRADENAME
 70
     0
1001
ACDBATTR
1070
     0
1070
     1
  0
ATTDEF
  5
3932
  8
DEFPOINTS
 10
4751.3896935581906291
 20
243.3959021391287934
 30
0.0
 40
0.001
  1
HANDSHOWER
  3

  2
PRODUCT
 70
     0
1001
ACDBATTR
1070
     0
1070
     1
  0
LINE
  5
D1F1
  8
0
 10
4750.1255109181911394
 20
248.9599065358472103
 30
0.0
 11
4750.1255109181911394
 21
249.3263041907472086
 31
0.0
  0
LINE
  5
D1F2
  8
0
 10
4750.8255109181918669
 20
247.8421641001471869
 30
0.0
 11
4750.8255109181918669
 21
244.5011973651471067
 31
0.0
  0
LINE
  5
D1F4
  8
0
 10
4751.0431487133910196
 20
243.0468666565471949
 30
0.0
 11
4751.7478731228911784
 21
243.0468666565471949
 31
0.0
  0
LINE
  5
D1F5
  8
0
 10
4751.8069282409906009
 20
243.3224572076472043
 30
0.0
 11
4751.7695266661912683
 21
243.3224572076472043
 31
0.0
  0
LINE
  5
D1F6
  8
0
 10
4750.9426861903903045
 20
243.4011973651471976
 30
0.0
 11
4751.8483356459901188
 21
243.4011973651471976
 31
0.0
  0
LINE
  5
D1F7
  8
0
 10
4750.9840935952906875
 20
243.1333660483471988
 30
0.0
 11
4751.0313619543921959
 21
243.1087392035472021
 31
0.0
  0
LINE
  5
D1F8
  8
0
 10
4750.9840935952906875
 20
243.2762059499472116
 30
0.0
 11
4751.0313384133905856
 21
243.2516075128471869
 31
0.0
  0
LINE
  5
D1F9
  8
0
 10
4750.9840935952906875
 20
243.2048579960471955
 30
0.0
 11
4751.0313470603923633
 21
243.1802370658471943
 31
0.0
  0
LINE
  5
D1FA
  8
0
 10
4751.0283491931140816
 20
243.3246493620326021
 30
0.0
 11
4751.0313394707918633
 21
243.3230986859472011
 31
0.0
  0
LINE
  5
D1FB
  8
0
 10
4751.8069282409906009
 20
243.1814084943472096
 30
0.0
 11
4751.7596802198913792
 21
243.2059977356472018
 31
0.0
  0
LINE
  5
D1FC
  8
0
 10
4751.8069282409906009
 20
243.2528555537471959
 30
0.0
 11
4751.7596840396918196
 21
243.2774515449472119
 31
0.0
  0
LINE
  5
D1FD
  8
0
 10
4751.8069282409906009
 20
243.1099104668471966
 30
0.0
 11
4751.7596674325914137
 21
243.1345063642471871
 31
0.0
  0
LINE
  5
D1FE
  8
0
 10
4751.0431487133910196
 20
243.0468666565471949
 30
0.0
 11
4751.0049019909911294
 21
243.0851133789471987
 31
0.0
  0
LINE
  5
D1FF
  8
0
 10
4750.9840935952906875
 20
243.1333660483471988
 30
0.0
 11
4750.9840935952906875
 21
243.1456339216472031
 31
0.0
  0
LINE
  5
D200
  8
0
 10
4750.9840935952906875
 20
243.2048579960471955
 30
0.0
 11
4750.9840935952906875
 21
243.2170124851471087
 31
0.0
  0
LINE
  5
D201
  8
0
 10
4750.9840935952906875
 20
243.2762059499472116
 30
0.0
 11
4750.9840935952906875
 21
243.2884573032472133
 31
0.0
  0
LINE
  5
D202
  8
0
 10
4751.0313384133905856
 20
243.2516075128471869
 30
0.0
 11
4751.0313384133905856
 21
243.2423251147471888
 31
0.0
  0
LINE
  5
D203
  8
0
 10
4751.0313394707918633
 20
243.3230986859472011
 30
0.0
 11
4751.0313394707918633
 21
243.3138108041472094
 31
0.0
  0
LINE
  5
D204
  8
0
 10
4751.0313470603923633
 20
243.1802370658471943
 30
0.0
 11
4751.0313470603923633
 21
243.1708953826471884
 31
0.0
  0
LINE
  5
D205
  8
0
 10
4751.0313619543921959
 20
243.1087392035472021
 30
0.0
 11
4751.0313619543921959
 21
243.0995344008472046
 31
0.0
  0
LINE
  5
D206
  8
0
 10
4751.0333061937917591
 20
243.3342682313472096
 30
0.0
 11
4751.0333061937917591
 21
243.369701302147206
 31
0.0
  0
LINE
  5
D207
  8
0
 10
4751.7596674325914137
 20
243.1345063642471871
 30
0.0
 11
4751.7596674325914137
 21
243.1445016222471907
 31
0.0
  0
LINE
  5
D208
  8
0
 10
4751.7596802198913792
 20
243.2059977356472018
 30
0.0
 11
4751.7596802198913792
 21
243.2159272167471897
 31
0.0
  0
LINE
  5
D209
  8
0
 10
4751.7596840396918196
 20
243.2774515449472119
 30
0.0
 11
4751.7596840396918196
 21
243.2873441904471861
 31
0.0
  0
LINE
  5
D20A
  8
0
 10
4751.759684146491054
 20
243.0730823649471972
 30
0.0
 11
4751.759684146491054
 21
243.0631771521472047
 31
0.0
  0
LINE
  5
D20B
  8
0
 10
4751.8069282409906009
 20
243.1059217746471859
 30
0.0
 11
4751.8069282409906009
 21
243.1099104668471966
 31
0.0
  0
LINE
  5
D20C
  8
0
 10
4751.8069282409906009
 20
243.1691283455471932
 30
0.0
 11
4751.8069282409906009
 21
243.1814084943472096
 31
0.0
  0
LINE
  5
D20D
  8
0
 10
4751.8069282409906009
 20
243.2405371272471939
 30
0.0
 11
4751.8069282409906009
 21
243.2528555537471959
 31
0.0
  0
LINE
  5
D20E
  8
0
 10
4751.8069282409906009
 20
243.3119388862471908
 30
0.0
 11
4751.8069282409906009
 21
243.3224572076472043
 31
0.0
  0
LINE
  5
D20F
  8
0
 10
4751.7478731228911784
 20
243.0468666565471949
 30
0.0
 11
4751.759684146491054
 21
243.0631771521472047
 31
0.0
  0
LINE
  5
D210
  8
0
 10
4751.7877214164918769
 20
243.0873501748471881
 30
0.0
 11
4751.8069282409906009
 21
243.1059217746471859
 31
0.0
  0
LINE
  5
D211
  8
0
 10
4751.0313394707918633
 20
243.3138108041472094
 30
0.0
 11
4750.9840935952906875
 21
243.2884573032472133
 31
0.0
  0
LINE
  5
D212
  8
0
 10
4751.0313384133905856
 20
243.2423251147471888
 30
0.0
 11
4750.9840935952906875
 21
243.2170124851471087
 31
0.0
  0
LINE
  5
D213
  8
0
 10
4751.0313470603923633
 20
243.1708953826471884
 30
0.0
 11
4750.9840935952906875
 21
243.1456339216472031
 31
0.0
  0
LINE
  5
D214
  8
0
 10
4751.0313619543921959
 20
243.0995344008472046
 30
0.0
 11
4751.0049019909911294
 21
243.0851133789471987
 31
0.0
  0
LINE
  5
D215
  8
0
 10
4751.7596840396918196
 20
243.2873441904471861
 30
0.0
 11
4751.8069282409906009
 21
243.3119388862471908
 31
0.0
  0
LINE
  5
D216
  8
0
 10
4751.7596802198913792
 20
243.2159272167471897
 30
0.0
 11
4751.8069282409906009
 21
243.2405371272471939
 31
0.0
  0
LINE
  5
D217
  8
0
 10
4751.7596674325914137
 20
243.1445016222471907
 30
0.0
 11
4751.8069282409906009
 21
243.1691283455471932
 31
0.0
  0
LINE
  5
D218
  8
0
 10
4751.759684146491054
 20
243.0730823649471972
 30
0.0
 11
4751.7877214164918769
 21
243.0873501748471881
 31
0.0
  0
ARC
  5
D219
  8
0
 10
4751.0018289964464202
 20
243.3697201678008923
 30
0.0
 40
0.0314772029997974
 50
359.9656601509407778
 51
90.0343398490771136
  0
ARC
  5
D21A
  8
0
 10
4751.0214951700918391
 20
243.3342682313472096
 30
0.0
 40
0.0118110236
 50
305.4721582353070062
 51
0.0
  0
ARC
  5
D21B
  8
0
 10
4750.9429872008286111
 20
243.4133274518434007
 30
0.0
 40
0.0121338209374079
 50
184.7567605018427059
 51
268.578485932154706
  0
ARC
  5
D21C
  8
0
 10
4751.7695266661912683
 20
243.3342682313472096
 30
0.0
 40
0.0118110236
 50
180.0
 51
270.0
  0
ARC
  5
D21D
  8
0
 10
4744.5447240634412083
 20
242.8334302300409036
 30
0.0
 40
6.4123549680544647
 50
5.1795684234481953
 51
9.0280006441374425
  0
ARC
  5
D21E
  8
0
 10
4759.7410538890153475
 20
244.8709030475741031
 30
0.0
 40
8.9232050719576854
 50
182.3745548975603867
 51
186.6365652373224862
  0
LINE
  5
D21F
  8
0
 10
4751.7577156425913927
 20
243.3342682313472096
 30
0.0
 11
4751.7577156425913927
 21
243.369701302147206
 31
0.0
  0
ARC
  5
D220
  8
0
 10
4751.7891928399376411
 20
243.3697201678008923
 30
0.0
 40
0.0314772029997974
 50
89.9656601509228864
 51
180.0343398490591085
  0
LINE
  5
D221
  8
0
 10
4751.0313619543921959
 20
243.1041368021971891
 30
0.0
 11
4751.7596674325914137
 21
243.1395039932471889
 31
0.0
  0
LINE
  5
D222
  8
0
 10
4751.0313470603923633
 20
243.1755662242472056
 30
0.0
 11
4751.7596802198913792
 21
243.21096247619721
 31
0.0
  0
LINE
  5
D223
  8
0
 10
4751.0313384133905856
 20
243.246966313797202
 30
0.0
 11
4751.7596840396918196
 21
243.282397867697199
 31
0.0
  0
LINE
  5
D224
  8
0
 10
4751.0313394707918633
 20
243.3184547450472053
 30
0.0
 11
4751.7577156425913927
 21
243.3519847667471936
 31
0.0
  0
LINE
  5
D225
  8
0
 10
4750.9840935952906875
 20
243.139499984997201
 30
0.0
 11
4751.8069282409906009
 21
243.1752684199472014
 31
0.0
  0
LINE
  5
D226
  8
0
 10
4750.9840935952906875
 20
243.2109352405971947
 30
0.0
 11
4751.8069282409906009
 21
243.2466963404972091
 31
0.0
  0
LINE
  5
D227
  8
0
 10
4750.9840935952906875
 20
243.2823316265971982
 30
0.0
 11
4751.8069282409906009
 21
243.3171980469471976
 31
0.0
  0
LINE
  5
D228
  8
0
 10
4751.0202987104412387
 20
243.0697166594974021
 30
0.0
 11
4751.8069282409906009
 21
243.1079161207472055
 31
0.0
  0
ARC
  5
D229
  8
0
 10
4751.4273304683247261
 20
249.316458182642009
 30
0.0
 40
1.607876220207288
 50
259.9319076931167842
 51
268.8660539119273949
  0
ARC
  5
D22A
  8
0
 10
4751.3892276790711549
 20
248.9765553334694062
 30
0.0
 40
1.2667359854108871
 50
243.5756890928446978
 51
258.9410611100545907
  0
ARC
  5
D22B
  8
0
 10
4751.3820678572283214
 20
248.9725411031459998
 30
0.0
 40
1.2599634103014881
 50
210.4867953534759124
 51
243.7860253777797936
  0
ARC
  5
D22C
  8
0
 10
4751.3618258135466021
 20
248.9603106881054089
 30
0.0
 40
1.2363149614146931
 50
180.0187300322405974
 51
210.4742862425725889
  0
ARC
  5
D22D
  8
0
 10
4751.6475087540065942
 20
249.262088319659
 30
0.0
 40
1.5233519259596451
 50
153.8234838681493102
 51
177.584019241861796
  0
ARC
  5
D22E
  8
0
 10
4751.3955109181906664
 20
249.3263041907472086
 30
0.0
 40
1.2699999999999749
 50
115.4828670437186986
 51
151.4075031100310866
  0
ARC
  5
D22F
  8
0
 10
4751.4860083911962647
 20
248.9260849308940919
 30
0.0
 40
1.672669174883092
 50
93.1014239556206888
 51
112.3814430880761961
  0
ARC
  5
D230
  8
0
 10
4751.6269643682471724
 20
248.9146162235713007
 30
0.0
 40
1.5021363703309489
 50
162.597923059484998
 51
178.2722360514233912
  0
ARC
  5
D231
  8
0
 10
4751.3737177743532811
 20
248.9537842544744137
 30
0.0
 40
1.2493559862392261
 50
131.4678679052960035
 51
160.8382393614400883
  0
ARC
  5
D232
  8
0
 10
4751.3912520179346757
 20
248.9344994072326074
 30
0.0
 40
1.2754178749173639
 50
107.0625056522504934
 51
131.484420351811508
  0
ARC
  5
D233
  8
0
 10
4751.4584543406290322
 20
248.502716218210594
 30
0.0
 40
1.709055640223889
 50
92.1106441200788169
 51
104.9685102997128041
  0
ARC
  5
D234
  8
0
 10
4751.4776408642901515
 20
248.3557332220696026
 30
0.0
 40
1.7579312719909539
 50
92.6778139267132843
 51
103.7630711758992987
  0
ARC
  5
D235
  8
0
 10
4751.3922569657161148
 20
248.9344827504276907
 30
0.0
 40
1.1767600793826829
 50
106.4300972177401974
 51
127.3574279977308947
  0
ARC
  5
D236
  8
0
 10
4751.3810950627739658
 20
248.9490417387212915
 30
0.0
 40
1.158414759869095
 50
127.3555469102381039
 51
146.1864081664242008
  0
ARC
  5
D237
  8
0
 10
4751.3746797315416188
 20
248.9539830213047935
 30
0.0
 40
1.150334902770827
 50
146.2130749106293877
 51
165.0325633859877996
  0
ARC
  5
D238
  8
0
 10
4751.3669366352623911
 20
248.9599034875238885
 30
0.0
 40
1.141331491059324
 50
165.2193003075647937
 51
183.236449454608902
  0
ARC
  5
D239
  8
0
 10
4751.365778779003449
 20
248.9607716248999054
 30
0.0
 40
1.1402248746630099
 50
183.2832881369025984
 51
213.6928490851452977
  0
ARC
  5
D23A
  8
0
 10
4751.3843990045115788
 20
248.9732928388534106
 30
0.0
 40
1.1626633663131281
 50
213.6972126942785906
 51
240.2193425727554086
  0
ARC
  5
D23B
  8
0
 10
4751.4329371785534022
 20
249.1340972639150948
 30
0.0
 40
1.326875690664725
 50
241.8492384639997113
 51
268.3836833999739042
  0
ARC
  5
D23C
  8
0
 10
4751.4941210621309438
 20
248.2039218271517882
 30
0.0
 40
1.87113482324499
 50
93.0209280463574117
 51
102.5711464939097937
  0
ARC
  5
D23D
  8
0
 10
4751.3930000545760777
 20
248.9326294751554087
 30
0.0
 40
1.139463613574242
 50
105.5848824848422964
 51
123.9118851843911955
  0
ARC
  5
D23E
  8
0
 10
4751.3843374554953698
 20
248.9453137181297109
 30
0.0
 40
1.1241039957937651
 50
123.9061610815245018
 51
142.9301484665917883
  0
ARC
  5
D23F
  8
0
 10
4751.3700759690791529
 20
248.9559248706273991
 30
0.0
 40
1.106328468252209
 50
142.9234156462817964
 51
169.5045529018539128
  0
ARC
  5
D240
  8
0
 10
4751.3616994122303367
 20
248.9581449715765018
 30
0.0
 40
1.0976878452280581
 50
169.5388517025536999
 51
182.950782150569097
  0
ARC
  5
D241
  8
0
 10
4751.3666636799916887
 20
248.9589722532994074
 30
0.0
 40
1.1026882655257699
 50
182.9804323330857869
 51
213.3279891822481034
  0
ARC
  5
D242
  8
0
 10
4751.3858086323643874
 20
248.9720398285651015
 30
0.0
 40
1.1258644235663831
 50
213.3483269697067044
 51
243.8887983973598921
  0
ARC
  5
D243
  8
0
 10
4751.4333718264260824
 20
249.1541095223201125
 30
0.0
 40
1.310819926031155
 50
245.5247573614917087
 51
268.3448741208271144
  0
LINE
  5
D244
  8
0
 10
4752.6655109181901935
 20
248.9599065358472103
 30
0.0
 11
4752.6655109181901935
 21
249.3263041907472086
 31
0.0
  0
LINE
  5
D245
  8
0
 10
4751.9655109181912849
 20
247.8421641001471869
 30
0.0
 11
4751.9655109181912849
 21
244.5011973651471067
 31
0.0
  0
ARC
  5
D246
  8
0
 10
4751.8480346355527217
 20
243.4133274518434007
 30
0.0
 40
0.0121338209374079
 50
271.421514067845294
 51
355.2432394981572088
  0
ARC
  5
D247
  8
0
 10
4758.2462977729419435
 20
242.8334302300409036
 30
0.0
 40
6.4123549680544647
 50
170.9719993558624935
 51
174.8204315765518118
  0
ARC
  5
D248
  8
0
 10
4743.0499679473687138
 20
244.8709030475741031
 30
0.0
 40
8.9232050719576854
 50
353.3634347626775138
 51
357.6254451024395848
  0
ARC
  5
D249
  8
0
 10
4751.3636913680584257
 20
249.316458182642009
 30
0.0
 40
1.607876220207288
 50
271.1339460880726051
 51
280.0680923068831021
  0
ARC
  5
D24A
  8
0
 10
4751.401794157311997
 20
248.9765553334694062
 30
0.0
 40
1.2667359854108871
 50
281.0589388899454093
 51
296.4243109071554159
  0
ARC
  5
D24B
  8
0
 10
4751.408953979153921
 20
248.9725411031459998
 30
0.0
 40
1.2599634103014881
 50
296.2139746222201211
 51
329.513204646524116
  0
ARC
  5
D24C
  8
0
 10
4751.4291960228356402
 20
248.9603106881054089
 30
0.0
 40
1.2363149614146931
 50
329.5257137574274111
 51
359.9812699677593741
  0
ARC
  5
D24D
  8
0
 10
4751.1435130823756481
 20
249.262088319659
 30
0.0
 40
1.5233519259596451
 50
2.415980758138208
 51
26.1765161318507396
  0
ARC
  5
D24E
  8
0
 10
4751.3955109181906664
 20
249.3263041907472086
 30
0.0
 40
1.2699999999999749
 50
28.5924968899688494
 51
64.5171329562812303
  0
ARC
  5
D24F
  8
0
 10
4751.3050134451877966
 20
248.9260849308940919
 30
0.0
 40
1.672669174883092
 50
67.6185569119238181
 51
86.8985760443792969
  0
ARC
  5
D250
  8
0
 10
4751.1640574681350699
 20
248.9146162235713007
 30
0.0
 40
1.5021363703309489
 50
1.7277639485765961
 51
17.4020769405149913
  0
ARC
  5
D251
  8
0
 10
4751.4173040620289612
 20
248.9537842544744137
 30
0.0
 40
1.2493559862392261
 50
19.16176063855983
 51
48.5321320947039325
  0
ARC
  5
D252
  8
0
 10
4751.3997698184466572
 20
248.9344994072326074
 30
0.0
 40
1.2754178749173639
 50
48.5155796481884423
 51
72.9374943477494924
  0
ARC
  5
D253
  8
0
 10
4751.3325674957541196
 20
248.502716218210594
 30
0.0
 40
1.709055640223889
 50
75.0314897002871675
 51
87.8893558799211831
  0
ARC
  5
D254
  8
0
 10
4751.3133809720939098
 20
248.3557332220696026
 30
0.0
 40
1.7579312719909539
 50
76.2369288241006728
 51
87.3221860732867157
  0
ARC
  5
D255
  8
0
 10
4751.398764870667037
 20
248.9344827504276907
 30
0.0
 40
1.1767600793826829
 50
52.6425720022690484
 51
73.56990278225976
  0
ARC
  5
D256
  8
0
 10
4751.4099267736082766
 20
248.9490417387212915
 30
0.0
 40
1.158414759869095
 50
33.8135918335757566
 51
52.6444530897619174
  0
ARC
  5
D257
  8
0
 10
4751.4163421048406235
 20
248.9539830213047935
 30
0.0
 40
1.150334902770827
 50
14.9674366140121808
 51
33.7869250893705484
  0
ARC
  5
D258
  8
0
 10
4751.4240852011198513
 20
248.9599034875238885
 30
0.0
 40
1.141331491059324
 50
356.7635505453910127
 51
14.7806996924351601
  0
ARC
  5
D259
  8
0
 10
4751.4252430573787933
 20
248.9607716248999054
 30
0.0
 40
1.1402248746630099
 50
326.3071509148546738
 51
356.7167118630973732
  0
ARC
  5
D25A
  8
0
 10
4751.4066228318688445
 20
248.9732928388534106
 30
0.0
 40
1.1626633663131281
 50
299.7806574272445914
 51
326.3027873057214947
  0
ARC
  5
D25B
  8
0
 10
4751.3580846578288401
 20
249.1340972639150948
 30
0.0
 40
1.326875690664725
 50
271.6163166000260958
 51
298.1507615360001751
  0
ARC
  5
D25C
  8
0
 10
4751.2969007742512986
 20
248.2039218271517882
 30
0.0
 40
1.87113482324499
 50
77.4288535060901779
 51
86.9790719536426025
  0
ARC
  5
D25D
  8
0
 10
4751.3980217818070741
 20
248.9326294751554087
 30
0.0
 40
1.139463613574242
 50
56.0881148156088187
 51
74.4151175151577462
  0
ARC
  5
D25E
  8
0
 10
4751.406684380887782
 20
248.9453137181297109
 30
0.0
 40
1.1241039957937651
 50
37.0698515334081904
 51
56.0938389184754911
  0
ARC
  5
D25F
  8
0
 10
4751.420945867303999
 20
248.9559248706273991
 30
0.0
 40
1.106328468252209
 50
10.4954470981460606
 51
37.0765843537181823
  0
ARC
  5
D260
  8
0
 10
4751.4293224241519056
 20
248.9581449715765018
 30
0.0
 40
1.0976878452280581
 50
357.0492178494308746
 51
10.4611482974462593
  0
ARC
  5
D261
  8
0
 10
4751.4243581563896441
 20
248.9589722532994074
 30
0.0
 40
1.1026882655257699
 50
326.6720108177519251
 51
357.0195676669142131
  0
ARC
  5
D262
  8
0
 10
4751.4052132040178549
 20
248.9720398285651015
 30
0.0
 40
1.1258644235663831
 50
296.1112016026401079
 51
326.6516730302932956
  0
ARC
  5
D263
  8
0
 10
4751.3576500099561599
 20
249.1541095223201125
 30
0.0
 40
1.310819926031155
 50
271.6551258791728856
 51
294.4752426385082913
  0
CIRCLE
  5
D264
  8
0
 10
4751.2621447540914232
 20
249.6509484974471889
 30
0.0
 40
0.0517747436299387
  0
ARC
  5
D265
  8
0
 10
4751.2598146341042593
 20
249.6403988802433958
 30
0.0
 40
0.118672878211066
 50
28.7788929312709492
 51
99.165431602845274
  0
ARC
  5
D266
  8
0
 10
4751.2581293997609464
 20
249.6397091447776972
 30
0.0
 40
0.1204821966646037
 50
287.0389041883396999
 51
28.6805570902547586
  0
ARC
  5
D267
  8
0
 10
4751.280373468020116
 20
249.6526246017164112
 30
0.0
 40
0.1287731589768231
 50
195.5341309506935943
 51
275.8207533082575083
  0
ARC
  5
D268
  8
0
 10
4751.2689710306112829
 20
249.645146749095602
 30
0.0
 40
0.115858963130971
 50
104.0155228417469004
 51
193.4809051633351089
  0
CIRCLE
  5
D26A
  8
0
 10
4751.0157162153909667
 20
249.5504251886472105
 30
0.0
 40
0.0517747436299387
  0
ARC
  5
D26B
  8
0
 10
4751.0228558191492994
 20
249.5459253868936003
 30
0.0
 40
0.118672878211066
 50
34.3810455900721195
 51
104.7675842616665989
  0
ARC
  5
D26C
  8
0
 10
4751.0212459661133835
 20
249.5450744327210941
 30
0.0
 40
0.1204821966646037
 50
292.6410568471835063
 51
34.2827097490679833
  0
ARC
  5
D26D
  8
0
 10
4751.0421229800931542
 20
249.5600996744134079
 30
0.0
 40
0.1287731589768231
 50
201.1362836095042894
 51
281.4229059670593074
  0
ARC
  5
D26E
  8
0
 10
4751.0315049939199525
 20
249.5515444287512992
 30
0.0
 40
0.115858963130971
 50
109.6176755005148067
 51
199.0830578221479072
  0
CIRCLE
  5
D270
  8
0
 10
4750.8271079773912788
 20
249.3646823335471936
 30
0.0
 40
0.0517747436299387
  0
CIRCLE
  5
D272
  8
0
 10
4750.7250339344918757
 20
249.1219975980471872
 30
0.0
 40
0.0517747436299387
  0
CIRCLE
  5
D274
  8
0
 10
4750.7250339344918757
 20
248.8593175332472072
 30
0.0
 40
0.0517747436299387
  0
CIRCLE
  5
D276
  8
0
 10
4750.8271079773912788
 20
248.6166327978471884
 30
0.0
 40
0.0517747436299387
  0
CIRCLE
  5
D278
  8
0
 10
4751.0157162153909667
 20
248.4308899427471999
 30
0.0
 40
0.0517747436299387
  0
CIRCLE
  5
D27A
  8
0
 10
4751.2621447540914232
 20
248.3303666339471931
 30
0.0
 40
0.0517747436299387
  0
CIRCLE
  5
D27C
  8
0
 10
4751.0609638076393821
 20
248.1779024951698034
 30
0.0
 40
0.0517747436299387
  0
CIRCLE
  5
D27E
  8
0
 10
4750.7758980579919807
 20
248.3604880480963004
 30
0.0
 40
0.0517747436299387
  0
CIRCLE
  5
D280
  8
0
 10
4750.5883437474403763
 20
248.6426821392888087
 30
0.0
 40
0.0517747436299387
  0
CIRCLE
  5
D282
  8
0
 10
4750.5212776970447521
 20
248.971780557409204
 30
0.0
 40
0.0517747436299387
  0
CIRCLE
  5
D284
  8
0
 10
4750.5886699135380695
 20
249.2999642015315089
 30
0.0
 40
0.0517747436299387
  0
CIRCLE
  5
D286
  8
0
 10
4750.778168085604193
 20
249.578595257998586
 30
0.0
 40
0.0517747436299387
  0
CIRCLE
  5
D288
  8
0
 10
4751.0620915965082531
 20
249.7652109015598114
 30
0.0
 40
0.0517747436299387
  0
ARC
  5
D289
  8
0
 10
4751.053541450945886
 20
249.7650927737942936
 30
0.0
 40
0.1243691833221457
 50
38.9009169096501068
 51
109.3853855320217008
  0
ARC
  5
D28A
  8
0
 10
4751.0681694655559113
 20
249.7713397873754104
 30
0.0
 40
0.109147905930912
 50
293.7334765608738962
 51
41.1715501533099797
  0
ARC
  5
D28B
  8
0
 10
4751.0694933307695464
 20
249.7886288448007974
 30
0.0
 40
0.1247098871976882
 50
215.6696030416881058
 51
289.977015707112173
  0
ARC
  5
D28C
  8
0
 10
4751.0580223007309542
 20
249.781209816808996
 30
0.0
 40
0.1110667622817137
 50
114.3316826421038002
 51
216.0109596813823032
  0
ARC
  5
D28D
  8
0
 10
4750.7717646757328112
 20
249.5785396533644871
 30
0.0
 40
0.1243691833221457
 50
38.9009169096501068
 51
109.3853855320217008
  0
ARC
  5
D28E
  8
0
 10
4750.7863926903428364
 20
249.5847866669456891
 30
0.0
 40
0.109147905930912
 50
293.7334765608738962
 51
41.1715501533099797
  0
ARC
  5
D28F
  8
0
 10
4750.7877165555573811
 20
249.6020757243711046
 30
0.0
 40
0.1247098871976882
 50
215.6696030416881058
 51
289.977015707112173
  0
ARC
  5
D290
  8
0
 10
4750.7762455255187888
 20
249.5946566963793032
 30
0.0
 40
0.1110667622817137
 50
114.3316826421038002
 51
216.0109596813823032
  0
ARC
  5
D291
  8
0
 10
4750.5910185203410947
 20
249.3023728954956937
 30
0.0
 40
0.1243691833221457
 50
38.9009169096501068
 51
109.3853855320217008
  0
ARC
  5
D292
  8
0
 10
4750.6056465349502105
 20
249.3086199090768957
 30
0.0
 40
0.109147905930912
 50
293.7334765608738962
 51
41.1715501533099797
  0
ARC
  5
D293
  8
0
 10
4750.6069704001638456
 20
249.3259089665023112
 30
0.0
 40
0.1247098871976882
 50
215.6696030416881058
 51
289.977015707112173
  0
ARC
  5
D294
  8
0
 10
4750.5954993701261628
 20
249.3184899385105098
 30
0.0
 40
0.1110667622817137
 50
114.3316826421038002
 51
216.0109596813823032
  0
ARC
  5
D295
  8
0
 10
4750.5309829949947016
 20
248.960173970264691
 30
0.0
 40
0.1340568975707806
 50
96.5703047720274697
 51
175.0221217664690982
  0
ARC
  5
D296
  8
0
 10
4750.534593488050632
 20
248.9740001610807951
 30
0.0
 40
0.1208452261940783
 50
11.1235312653272302
 51
99.021713610068204
  0
ARC
  5
D297
  8
0
 10
4750.5243599851773979
 20
249.0046957064614901
 30
0.0
 40
0.1290197996915534
 50
288.3663220066599138
 51
356.7202013825228164
  0
ARC
  5
D298
  8
0
 10
4750.5160539014786991
 20
248.9922038581271977
 30
0.0
 40
0.1203631345796775
 50
189.7568515456821103
 51
294.0015607117366017
  0
ARC
  5
D299
  8
0
 10
4750.5988482941338589
 20
248.6315361104082911
 30
0.0
 40
0.1340568975707806
 50
117.9239580315673948
 51
196.3757750259854902
  0
ARC
  5
D29A
  8
0
 10
4750.5971764878086105
 20
248.6457278078472939
 30
0.0
 40
0.1208452261940783
 50
32.4771845248441196
 51
120.3753668696093939
  0
ARC
  5
D29B
  8
0
 10
4750.5764685377698697
 20
248.6705898651333086
 30
0.0
 40
0.1290197996915534
 50
309.7199752661825869
 51
18.0738546420504314
  0
ARC
  5
D29C
  8
0
 10
4750.5732812371497857
 20
248.6559311334023903
 30
0.0
 40
0.1203631345796775
 50
211.1105048052014013
 51
315.3552139712426765
  0
ARC
  5
D29D
  8
0
 10
4750.8176934537523266
 20
248.3558766780217013
 30
0.0
 40
0.1540687913792734
 50
133.5146962918439897
 51
212.2070985120597015
  0
ARC
  5
D29E
  8
0
 10
4750.7995248502957111
 20
248.3829071899953078
 30
0.0
 40
0.1220775826260562
 50
53.7882959737407589
 51
136.0667613271347989
  0
ARC
  5
D29F
  8
0
 10
4750.7554355858228519
 20
248.4088497989021107
 30
0.0
 40
0.1512849896667322
 50
243.2454279574558029
 51
314.7096101922226126
  0
ARC
  5
D2A0
  8
0
 10
4750.7613734203687272
 20
248.3970916704249134
 30
0.0
 40
0.1388105124179483
 50
316.3824020571522055
 51
37.4012480811845478
  0
ARC
  5
D2A1
  8
0
 10
4751.106097700691862
 20
248.1821428571566912
 30
0.0
 40
0.1540687913792733
 50
153.7795918333630141
 51
232.4719940535501905
  0
ARC
  5
D2A2
  8
0
 10
4751.0796913958902223
 20
248.2012073213691963
 30
0.0
 40
0.1220775826260562
 50
74.0531915152490114
 51
156.3316568686286985
  0
ARC
  5
D2A3
  8
0
 10
4751.0293456918598167
 20
248.2102733174280047
 30
0.0
 40
0.1512849896667321
 50
263.5103234989396128
 51
334.974505733739079
  0
ARC
  5
D2A4
  8
0
 10
4751.0389885388804032
 20
248.2012996355900896
 30
0.0
 40
0.1388105124179483
 50
336.6472975986732195
 51
57.6661436226950528
  0
ARC
  5
D2A5
  8
0
 10
4750.8417339656871263
 20
249.3384652750002886
 30
0.0
 40
0.1366132003589512
 50
73.6556885607095637
 51
140.3076470841515118
  0
ARC
  5
D2A6
  8
0
 10
4750.8479885228325656
 20
249.3521076778791041
 30
0.0
 40
0.1217812320378631
 50
337.4510796896915963
 51
74.6732535043261976
  0
ARC
  5
D2A7
  8
0
 10
4750.8305517765293189
 20
249.3716239907699901
 30
0.0
 40
0.1083998310862725
 50
150.0662259646186101
 51
237.6282811520073892
  0
ARC
  5
D2A8
  8
0
 10
4750.8526562649976768
 20
249.3953284941850939
 30
0.0
 40
0.140382761099272
 50
235.1878255445556078
 51
320.1680352737379849
  0
ARC
  5
D2A9
  8
0
 10
4750.7476976703128457
 20
249.1006148169367123
 30
0.0
 40
0.1366132003589512
 50
94.6653407481590534
 51
161.317299271555612
  0
ARC
  5
D2AA
  8
0
 10
4750.7486452792991258
 20
249.1155926899035933
 30
0.0
 40
0.1217812320378631
 50
358.4607318771123801
 51
95.6829056917110847
  0
ARC
  5
D2AB
  8
0
 10
4750.7253706368337589
 20
249.1275600458627935
 30
0.0
 40
0.1083998310862725
 50
171.0758781520364948
 51
258.6379333394629043
  0
ARC
  5
D2AC
  8
0
 10
4750.7375069575846283
 20
249.1576136914202095
 30
0.0
 40
0.140382761099272
 50
256.1974777320174894
 51
341.1776874611725248
  0
ARC
  5
D2AD
  8
0
 10
4751.2276855838226766
 20
248.3799603437950907
 30
0.0
 40
0.153802385028855
 50
274.933260986213611
 51
348.3913396075781179
  0
ARC
  5
D2AE
  8
0
 10
4751.2237251408878365
 20
248.3735718687337055
 30
0.0
 40
0.1565553215068142
 50
350.9740934357603237
 51
63.559715881562191
  0
ARC
  5
D2AF
  8
0
 10
4751.3086568343351246
 20
248.3580251922998912
 30
0.0
 40
0.1564684459479595
 50
95.5832477958649491
 51
160.5994869449812086
  0
ARC
  5
D2B0
  8
0
 10
4751.3070362521657444
 20
248.3645597422708136
 30
0.0
 40
0.1528728317027941
 50
162.7082557411048072
 51
244.3708161046278065
  0
ARC
  5
D2B1
  8
0
 10
4750.9949828284043178
 20
248.4918390140408064
 30
0.0
 40
0.153802385028855
 50
255.0287140681244864
 51
328.4867926894900734
  0
ARC
  5
D2B2
  8
0
 10
4750.9890839949566725
 20
248.4871805286846893
 30
0.0
 40
0.1565553215068142
 50
331.0695465176656853
 51
43.655168963489821
  0
ARC
  5
D2B3
  8
0
 10
4751.063649032669673
 20
248.4436472442841932
 30
0.0
 40
0.1564684459479595
 50
75.6787008778053547
 51
140.6949400268831027
  0
ARC
  5
D2B4
  8
0
 10
4751.0643499770585549
 20
248.4503431614623139
 30
0.0
 40
0.1528728317027941
 50
142.8037088230134941
 51
224.4662691865109991
  0
ARC
  5
D2B5
  8
0
 10
4750.8689336816260038
 20
248.6179668402137111
 30
0.0
 40
0.1450417801578272
 50
129.1562168326697986
 51
204.1750643362153141
  0
ARC
  5
D2B6
  8
0
 10
4750.8704140310537696
 20
248.6174656074257996
 30
0.0
 40
0.1463675583416209
 50
52.0331898806783073
 51
129.4816737339070016
  0
ARC
  5
D2B7
  8
0
 10
4750.820666799429091
 20
248.674281119250395
 30
0.0
 40
0.1515694298315816
 50
315.2159643263883027
 51
22.7345550534378305
  0
ARC
  5
D2B8
  8
0
 10
4750.827759062777659
 20
248.6631243756943093
 30
0.0
 40
0.1387071522316509
 50
228.9196640664540894
 51
316.4233088670890197
  0
ARC
  5
D2B9
  8
0
 10
4750.7627069688433039
 20
248.8533452414266947
 30
0.0
 40
0.1450417801578272
 50
110.307570882719304
 51
185.3264183862656012
  0
ARC
  5
D2BA
  8
0
 10
4750.7639460020509432
 20
248.8523926316196935
 30
0.0
 40
0.1463675583416209
 50
33.1845439307142129
 51
110.6330277839823992
  0
ARC
  5
D2BB
  8
0
 10
4750.7352217990037389
 20
248.9222332329734968
 30
0.0
 40
0.1515694298315816
 50
296.3673183764204282
 51
3.8859091034723479
  0
ARC
  5
D2BC
  8
0
 10
4750.7383293404009237
 20
248.909383473729207
 30
0.0
 40
0.1387071522316509
 50
210.0710181164803032
 51
297.5746629171533755
  0
CIRCLE
  5
D2BE
  8
0
 10
4751.5288770822917286
 20
249.6509484974471889
 30
0.0
 40
0.0517747436299387
  0
ARC
  5
D2BF
  8
0
 10
4751.5312072022788925
 20
249.6403988802433958
 30
0.0
 40
0.118672878211066
 50
80.834568397154726
 51
151.2211070687289975
  0
ARC
  5
D2C0
  8
0
 10
4751.5328924366212959
 20
249.6397091447776972
 30
0.0
 40
0.1204821966646037
 50
151.3194429097451916
 51
252.9610958116604138
  0
ARC
  5
D2C1
  8
0
 10
4751.5106483683630358
 20
249.6526246017164112
 30
0.0
 40
0.1287731589768231
 50
264.1792466917426054
 51
344.4658690493063773
  0
ARC
  5
D2C2
  8
0
 10
4751.5220508057709594
 20
249.645146749095602
 30
0.0
 40
0.115858963130971
 50
346.5190948366648058
 51
75.9844771582530853
  0
CIRCLE
  5
D2C4
  8
0
 10
4751.7753056209912756
 20
249.5504251886472105
 30
0.0
 40
0.0517747436299387
  0
ARC
  5
D2C5
  8
0
 10
4751.768166017232943
 20
249.5459253868936003
 30
0.0
 40
0.118672878211066
 50
75.2324157383333727
 51
145.618954409927909
  0
ARC
  5
D2C6
  8
0
 10
4751.7697758702688589
 20
249.5450744327210941
 30
0.0
 40
0.1204821966646037
 50
145.7172902509319954
 51
247.3589431528166074
  0
ARC
  5
D2C7
  8
0
 10
4751.7488988562899976
 20
249.5600996744134079
 30
0.0
 40
0.1287731589768231
 50
258.5770940329406926
 51
338.8637163904957106
  0
ARC
  5
D2C8
  8
0
 10
4751.7595168424622898
 20
249.5515444287512992
 30
0.0
 40
0.115858963130971
 50
340.9169421778520928
 51
70.3823244994852359
  0
CIRCLE
  5
D2CA
  8
0
 10
4751.9639138589909635
 20
249.3646823335471936
 30
0.0
 40
0.0517747436299387
  0
CIRCLE
  5
D2CC
  8
0
 10
4752.0659879018912761
 20
249.1219975980471872
 30
0.0
 40
0.0517747436299387
  0
CIRCLE
  5
D2CE
  8
0
 10
4752.0659879018912761
 20
248.8593175332472072
 30
0.0
 40
0.0517747436299387
  0
CIRCLE
  5
D2D0
  8
0
 10
4751.9639138589909635
 20
248.6166327978471884
 30
0.0
 40
0.0517747436299387
  0
CIRCLE
  5
D2D2
  8
0
 10
4751.7753056209912756
 20
248.4308899427471999
 30
0.0
 40
0.0517747436299387
  0
CIRCLE
  5
D2D4
  8
0
 10
4751.5288770822917286
 20
248.3303666339471931
 30
0.0
 40
0.0517747436299387
  0
CIRCLE
  5
D2D6
  8
0
 10
4751.7300580287428602
 20
248.1779024951698034
 30
0.0
 40
0.0517747436299387
  0
CIRCLE
  5
D2D8
  8
0
 10
4752.0151237783911711
 20
248.3604880480963004
 30
0.0
 40
0.0517747436299387
  0
CIRCLE
  5
D2DA
  8
0
 10
4752.2026780889409565
 20
248.6426821392888087
 30
0.0
 40
0.0517747436299387
  0
CIRCLE
  5
D2DC
  8
0
 10
4752.2697441393365807
 20
248.971780557409204
 30
0.0
 40
0.0517747436299387
  0
CIRCLE
  5
D2DE
  8
0
 10
4752.2023519228441728
 20
249.2999642015315089
 30
0.0
 40
0.0517747436299387
  0
CIRCLE
  5
D2E0
  8
0
 10
4752.0128537507789588
 20
249.578595257998586
 30
0.0
 40
0.0517747436299387
  0
CIRCLE
  5
D2E2
  8
0
 10
4751.7289302398748987
 20
249.7652109015598114
 30
0.0
 40
0.0517747436299387
  0
ARC
  5
D2E3
  8
0
 10
4751.7374803854363563
 20
249.7650927737942936
 30
0.0
 40
0.1243691833221457
 50
70.6146144679782708
 51
141.0990830903498079
  0
ARC
  5
D2E4
  8
0
 10
4751.722852370826331
 20
249.7713397873754104
 30
0.0
 40
0.109147905930912
 50
138.8284498466900061
 51
246.2665234391259901
  0
ARC
  5
D2E5
  8
0
 10
4751.7215285056117864
 20
249.7886288448007974
 30
0.0
 40
0.1247098871976882
 50
250.0229842928877986
 51
324.3303969583118942
  0
ARC
  5
D2E6
  8
0
 10
4751.7329995356503787
 20
249.781209816808996
 30
0.0
 40
0.1110667622817137
 50
323.9890403186175831
 51
65.6683173578962283
  0
ARC
  5
D2E7
  8
0
 10
4752.0192571606494312
 20
249.5785396533644871
 30
0.0
 40
0.1243691833221457
 50
70.6146144679782708
 51
141.0990830903498079
  0
ARC
  5
D2E8
  8
0
 10
4752.0046291460394059
 20
249.5847866669456891
 30
0.0
 40
0.109147905930912
 50
138.8284498466900061
 51
246.2665234391259901
  0
ARC
  5
D2E9
  8
0
 10
4752.0033052808248613
 20
249.6020757243711046
 30
0.0
 40
0.1247098871976882
 50
250.0229842928877986
 51
324.3303969583118942
  0
ARC
  5
D2EA
  8
0
 10
4752.0147763108634535
 20
249.5946566963793032
 30
0.0
 40
0.1110667622817137
 50
323.9890403186175831
 51
65.6683173578962283
  0
ARC
  5
D2EB
  8
0
 10
4752.2000033160420571
 20
249.3023728954956937
 30
0.0
 40
0.1243691833221457
 50
70.6146144679782708
 51
141.0990830903498079
  0
ARC
  5
D2EC
  8
0
 10
4752.1853753014320318
 20
249.3086199090768957
 30
0.0
 40
0.109147905930912
 50
138.8284498466900061
 51
246.2665234391259901
  0
ARC
  5
D2ED
  8
0
 10
4752.1840514362183967
 20
249.3259089665023112
 30
0.0
 40
0.1247098871976882
 50
250.0229842928877986
 51
324.3303969583118942
  0
ARC
  5
D2EE
  8
0
 10
4752.1955224662560795
 20
249.3184899385105098
 30
0.0
 40
0.1110667622817137
 50
323.9890403186175831
 51
65.6683173578962283
  0
ARC
  5
D2EF
  8
0
 10
4752.2600388413866312
 20
248.960173970264691
 30
0.0
 40
0.1340568975707806
 50
4.9778782335308707
 51
83.4296952279725446
  0
ARC
  5
D2F0
  8
0
 10
4752.2564283483307008
 20
248.9740001610807951
 30
0.0
 40
0.1208452261940783
 50
80.9782863899318102
 51
168.8764687346728124
  0
ARC
  5
D2F1
  8
0
 10
4752.2666618512048444
 20
249.0046957064614901
 30
0.0
 40
0.1290197996915534
 50
183.279798617477212
 51
251.6336779933400862
  0
ARC
  5
D2F2
  8
0
 10
4752.2749679349026337
 20
248.9922038581271977
 30
0.0
 40
0.1203631345796775
 50
245.9984392882633983
 51
350.2431484543178044
  0
ARC
  5
D2F3
  8
0
 10
4752.192173542249293
 20
248.6315361104082911
 30
0.0
 40
0.1340568975707806
 50
343.6242249740145098
 51
62.0760419684325626
  0
ARC
  5
D2F4
  8
0
 10
4752.1938453485736318
 20
248.6457278078472939
 30
0.0
 40
0.1208452261940783
 50
59.6246331303906132
 51
147.5228154751559089
  0
ARC
  5
D2F5
  8
0
 10
4752.2145532986132821
 20
248.6705898651333086
 30
0.0
 40
0.1290197996915534
 50
161.9261453579495083
 51
230.2800247338174984
  0
ARC
  5
D2F6
  8
0
 10
4752.2177405992342756
 20
248.6559311334023903
 30
0.0
 40
0.1203631345796775
 50
224.6447860287572951
 51
328.889495194798485
  0
ARC
  5
D2F7
  8
0
 10
4751.9733283826308252
 20
248.3558766780217013
 30
0.0
 40
0.1540687913792734
 50
327.7929014879402985
 51
46.4853037081559606
  0
ARC
  5
D2F8
  8
0
 10
4751.9914969860847123
 20
248.3829071899953078
 30
0.0
 40
0.1220775826260562
 50
43.9332386728651798
 51
126.2117040262591985
  0
ARC
  5
D2F9
  8
0
 10
4752.0355862505593905
 20
248.4088497989021107
 30
0.0
 40
0.1512849896667322
 50
225.2903898077775011
 51
296.7545720425442255
  0
ARC
  5
D2FA
  8
0
 10
4752.0296484160153341
 20
248.3970916704249134
 30
0.0
 40
0.1388105124179483
 50
142.5987519188153954
 51
223.6175979428477092
  0
ARC
  5
D2FB
  8
0
 10
4751.6849241356903804
 20
248.1821428571566912
 30
0.0
 40
0.1540687913792733
 50
307.5280059464498095
 51
26.2204081666369717
  0
ARC
  5
D2FC
  8
0
 10
4751.71133044049202
 20
248.2012073213691963
 30
0.0
 40
0.1220775826260562
 50
23.6683431313713086
 51
105.9468084847509033
  0
ARC
  5
D2FD
  8
0
 10
4751.7616761445224256
 20
248.2102733174280047
 30
0.0
 40
0.1512849896667321
 50
205.0254942662593862
 51
276.4896765010603872
  0
ARC
  5
D2FE
  8
0
 10
4751.7520332975027486
 20
248.2012996355900896
 30
0.0
 40
0.1388105124179483
 50
122.3338563773048975
 51
203.3527024013268942
  0
ARC
  5
D2FF
  8
0
 10
4751.9492878706960255
 20
249.3384652750002886
 30
0.0
 40
0.1366132003589512
 50
39.6923529158485096
 51
106.3443114392903937
  0
ARC
  5
D300
  8
0
 10
4751.9430333135487672
 20
249.3521076778791041
 30
0.0
 40
0.1217812320378631
 50
105.3267464956738024
 51
202.5489203103084037
  0
ARC
  5
D301
  8
0
 10
4751.9604700598538329
 20
249.3716239907699901
 30
0.0
 40
0.1083998310862725
 50
302.3717188479924971
 51
29.9337740353813615
  0
ARC
  5
D302
  8
0
 10
4751.9383655713836561
 20
249.3953284941850939
 30
0.0
 40
0.140382761099272
 50
219.8319647262619867
 51
304.8121744554442785
  0
ARC
  5
D303
  8
0
 10
4752.0433241660703061
 20
249.1006148169367123
 30
0.0
 40
0.1366132003589512
 50
18.6827007284444306
 51
85.3346592518409608
  0
ARC
  5
D304
  8
0
 10
4752.042376557084026
 20
249.1155926899035933
 30
0.0
 40
0.1217812320378631
 50
84.3170943082889437
 51
181.5392681228875063
  0
ARC
  5
D305
  8
0
 10
4752.0656511995475739
 20
249.1275600458627935
 30
0.0
 40
0.1083998310862725
 50
281.3620666605370957
 51
8.9241218479634519
  0
ARC
  5
D306
  8
0
 10
4752.0535148787976141
 20
249.1576136914202095
 30
0.0
 40
0.140382761099272
 50
198.8223125388275037
 51
283.8025222679825106
  0
ARC
  5
D307
  8
0
 10
4751.5633362525595658
 20
248.3799603437950907
 30
0.0
 40
0.153802385028855
 50
191.6086603924217968
 51
265.0667390137865027
  0
ARC
  5
D308
  8
0
 10
4751.5672966954944059
 20
248.3735718687337055
 30
0.0
 40
0.1565553215068142
 50
116.4402841184378019
 51
189.0259065642397047
  0
ARC
  5
D309
  8
0
 10
4751.4823650020471177
 20
248.3580251922998912
 30
0.0
 40
0.1564684459479595
 50
19.4005130550187985
 51
84.4167522041350651
  0
ARC
  5
D30A
  8
0
 10
4751.4839855842183169
 20
248.3645597422708136
 30
0.0
 40
0.1528728317027941
 50
295.6291838953720799
 51
17.2917442588951396
  0
ARC
  5
D30B
  8
0
 10
4751.7960390079779245
 20
248.4918390140408064
 30
0.0
 40
0.153802385028855
 50
211.5132073105098129
 51
284.9712859318755136
  0
ARC
  5
D30C
  8
0
 10
4751.8019378414255698
 20
248.4871805286846893
 30
0.0
 40
0.1565553215068142
 50
136.3448310365101861
 51
208.9304534823344
  0
ARC
  5
D30D
  8
0
 10
4751.7273728037116598
 20
248.4436472442841932
 30
0.0
 40
0.1564684459479595
 50
39.3050599731169115
 51
104.3212991221946027
  0
ARC
  5
D30E
  8
0
 10
4751.7266718593236874
 20
248.4503431614623139
 30
0.0
 40
0.1528728317027941
 50
315.5337308134888872
 51
37.1962911769864704
  0
ARC
  5
D30F
  8
0
 10
4751.922088154755329
 20
248.6179668402137111
 30
0.0
 40
0.1450417801578272
 50
335.8249356637846859
 51
50.8437831673301872
  0
ARC
  5
D310
  8
0
 10
4751.9206078053293822
 20
248.6174656074257996
 30
0.0
 40
0.1463675583416209
 50
50.5183262660929628
 51
127.9668101193217069
  0
ARC
  5
D311
  8
0
 10
4751.9703550369531513
 20
248.674281119250395
 30
0.0
 40
0.1515694298315816
 50
157.2654449465622122
 51
224.7840356736116121
  0
ARC
  5
D312
  8
0
 10
4751.9632627736064023
 20
248.6631243756943093
 30
0.0
 40
0.1387071522316509
 50
223.5766911329110087
 51
311.0803359335458254
  0
ARC
  5
D313
  8
0
 10
4752.0283148675389384
 20
248.8533452414266947
 30
0.0
 40
0.1450417801578272
 50
354.6735816137344273
 51
69.6924291172806818
  0
ARC
  5
D314
  8
0
 10
4752.0270758343322086
 20
248.8523926316196935
 30
0.0
 40
0.1463675583416209
 50
69.3669722160175866
 51
146.8154560692858013
  0
ARC
  5
D315
  8
0
 10
4752.055800037377594
 20
248.9222332329734968
 30
0.0
 40
0.1515694298315816
 50
176.1140908965276139
 51
243.6326816235796002
  0
ARC
  5
D316
  8
0
 10
4752.0526924959822281
 20
248.909383473729207
 30
0.0
 40
0.1387071522316509
 50
242.4253370828465961
 51
329.9289818835197252
  0
CIRCLE
  5
D318
  8
0
 10
4751.3955109181906664
 20
248.1118168823483074
 30
0.0
 40
0.0517747436299387
  0
CIRCLE
  5
D31A
  8
0
 10
4751.3955109181906664
 20
249.8307678685974054
 30
0.0
 40
0.0517747436299387
  0
CIRCLE
  5
D31B
  8
0
 10
4751.3955109181906664
 20
249.8428998388102116
 30
0.0
 40
0.1145841729370023
  0
ARC
  5
D31C
  8
0
 10
4751.4259841629773291
 20
248.1277431862154117
 30
0.0
 40
0.1432444828854785
 50
102.2827316681451038
 51
180.5197224919805024
  0
ARC
  5
D31D
  8
0
 10
4751.4301174034362703
 20
248.1281420535277107
 30
0.0
 40
0.1473816143295372
 50
180.6602039601418994
 51
256.419653441781918
  0
ARC
  5
D31E
  8
0
 10
4751.3650376734067322
 20
248.1277431862154117
 30
0.0
 40
0.1432444828854785
 50
359.4802775080195261
 51
77.7172683318548536
  0
ARC
  5
D31F
  8
0
 10
4751.3609044329459721
 20
248.1281420535277107
 30
0.0
 40
0.1473816143295372
 50
283.580346558218082
 51
359.3397960398580722
  0
CIRCLE
  5
D320
  8
0
 10
4751.3955109181906664
 20
249.0618925493523932
 30
0.0
 40
0.1025713244947681
  0
CIRCLE
  5
D484
  8
0
 10
4751.3955109181906664
 20
249.8307678685974054
 30
0.0
 40
0.0188637545243064
  0
CIRCLE
  5
D485
  8
0
 10
4751.2621447540914232
 20
249.6509484974471889
 30
0.0
 40
0.0188637545243064
  0
CIRCLE
  5
D486
  8
0
 10
4751.0620915965082531
 20
249.7652109015598114
 30
0.0
 40
0.0188637545243064
  0
CIRCLE
  5
D487
  8
0
 10
4751.0157162153909667
 20
249.5504251886472105
 30
0.0
 40
0.0188637545243064
  0
CIRCLE
  5
D488
  8
0
 10
4750.778168085604193
 20
249.578595257998586
 30
0.0
 40
0.0188637545243064
  0
CIRCLE
  5
D489
  8
0
 10
4750.8271079773912788
 20
249.3646823335471936
 30
0.0
 40
0.0188637545243064
  0
CIRCLE
  5
D48A
  8
0
 10
4750.5886699135380695
 20
249.2999642015315089
 30
0.0
 40
0.0188637545243064
  0
CIRCLE
  5
D48B
  8
0
 10
4750.7250339344918757
 20
249.1219975980471872
 30
0.0
 40
0.0188637545243064
  0
CIRCLE
  5
D48C
  8
0
 10
4750.5212776970447521
 20
248.971780557409204
 30
0.0
 40
0.0188637545243064
  0
CIRCLE
  5
D48D
  8
0
 10
4750.7250339344918757
 20
248.8593175332472072
 30
0.0
 40
0.0188637545243064
  0
CIRCLE
  5
D48E
  8
0
 10
4750.5883437474403763
 20
248.6426821392888087
 30
0.0
 40
0.0188637545243064
  0
CIRCLE
  5
D48F
  8
0
 10
4750.8271079773912788
 20
248.6166327978471884
 30
0.0
 40
0.0188637545243064
  0
CIRCLE
  5
D490
  8
0
 10
4750.7758980579919807
 20
248.3604880480963004
 30
0.0
 40
0.0188637545243064
  0
CIRCLE
  5
D491
  8
0
 10
4751.0157162153909667
 20
248.4308899427471999
 30
0.0
 40
0.0188637545243064
  0
CIRCLE
  5
D492
  8
0
 10
4751.2621447540914232
 20
248.3303666339471931
 30
0.0
 40
0.0188637545243064
  0
CIRCLE
  5
D493
  8
0
 10
4751.0609638076393821
 20
248.1779024951698034
 30
0.0
 40
0.0188637545243064
  0
CIRCLE
  5
D494
  8
0
 10
4751.3955109181906664
 20
248.1118168823483074
 30
0.0
 40
0.0188637545243064
  0
CIRCLE
  5
D495
  8
0
 10
4751.5288770822917286
 20
249.6509484974471889
 30
0.0
 40
0.0188637545243064
  0
CIRCLE
  5
D496
  8
0
 10
4751.7289302398748987
 20
249.7652109015598114
 30
0.0
 40
0.0188637545243064
  0
CIRCLE
  5
D497
  8
0
 10
4751.7753056209912756
 20
249.5504251886472105
 30
0.0
 40
0.0188637545243064
  0
CIRCLE
  5
D498
  8
0
 10
4752.0128537507789588
 20
249.578595257998586
 30
0.0
 40
0.0188637545243064
  0
CIRCLE
  5
D499
  8
0
 10
4751.9639138589909635
 20
249.3646823335471936
 30
0.0
 40
0.0188637545243064
  0
CIRCLE
  5
D49A
  8
0
 10
4752.2023519228441728
 20
249.2999642015315089
 30
0.0
 40
0.0188637545243064
  0
CIRCLE
  5
D49B
  8
0
 10
4752.0659879018912761
 20
249.1219975980471872
 30
0.0
 40
0.0188637545243064
  0
CIRCLE
  5
D49C
  8
0
 10
4752.2697441393365807
 20
248.971780557409204
 30
0.0
 40
0.0188637545243064
  0
CIRCLE
  5
D49D
  8
0
 10
4752.0659879018912761
 20
248.8593175332472072
 30
0.0
 40
0.0188637545243064
  0
CIRCLE
  5
D49E
  8
0
 10
4752.2026780889409565
 20
248.6426821392888087
 30
0.0
 40
0.0188637545243064
  0
CIRCLE
  5
D49F
  8
0
 10
4751.9639138589909635
 20
248.6166327978471884
 30
0.0
 40
0.0188637545243064
  0
CIRCLE
  5
D4A0
  8
0
 10
4751.7753056209912756
 20
248.4308899427471999
 30
0.0
 40
0.0188637545243064
  0
CIRCLE
  5
D4A1
  8
0
 10
4751.5288770822917286
 20
248.3303666339471931
 30
0.0
 40
0.0188637545243064
  0
CIRCLE
  5
D4A2
  8
0
 10
4751.7300580287428602
 20
248.1779024951698034
 30
0.0
 40
0.0188637545243064
  0
CIRCLE
  5
D4A3
  8
0
 10
4752.0151237783911711
 20
248.3604880480963004
 30
0.0
 40
0.0188637545243064
  0
ENDSEC
  0
EOF
