  0
SECTION
  2
HEADER
  9
$ACADVER
  1
AC1009
  9
$INSBASE
 10
4758.5852920570869173
 20
245.2194355060140083
 30
0.0
  9
$EXTMIN
 10
4756.639530060287143
 20
244.8651047974140056
 30
0.0
  9
$EXTMAX
 10
4760.2245346411882565
 20
252.4145423316140011
 30
0.0
  9
$LIMMIN
 10
0.0
 20
0.0
  9
$LIMMAX
 10
11.6929133858000007
 20
8.2677165353999982
  9
$ORTHOMODE
 70
     1
  9
$REGENMODE
 70
     1
  9
$FILLMODE
 70
     1
  9
$QTEXTMODE
 70
     0
  9
$MIRRTEXT
 70
     0
  9
$DRAGMODE
 70
     2
  9
$LTSCALE
 40
0.6431102362
  9
$OSMODE
 70
     7
  9
$ATTMODE
 70
     1
  9
$TEXTSIZE
 40
0.2
  9
$TRACEWID
 40
0.05
  9
$TEXTSTYLE
  7
STANDARD
  9
$CLAYER
  8
0
  9
$CELTYPE
  6
BYLAYER
  9
$CECOLOR
 62
   256
  9
$DIMSCALE
 40
1.0
  9
$DIMASZ
 40
0.1875
  9
$DIMEXO
 40
0.0625
  9
$DIMDLI
 40
0.4443307087
  9
$DIMRND
 40
0.0
  9
$DIMDLE
 40
0.0
  9
$DIMEXE
 40
0.125
  9
$DIMTP
 40
0.01
  9
$DIMTM
 40
0.01
  9
$DIMTXT
 40
2.0
  9
$DIMCEN
 40
0.1052362205
  9
$DIMTSZ
 40
0.0
  9
$DIMTOL
 70
     1
  9
$DIMLIM
 70
     0
  9
$DIMTIH
 70
     1
  9
$DIMTOH
 70
     1
  9
$DIMSE1
 70
     0
  9
$DIMSE2
 70
     0
  9
$DIMTAD
 70
     0
  9
$DIMZIN
 70
     0
  9
$DIMBLK
  1

  9
$DIMASO
 70
     1
  9
$DIMSHO
 70
     1
  9
$DIMPOST
  1
\X
  9
$DIMAPOST
  1

  9
$DIMALT
 70
     1
  9
$DIMALTD
 70
     2
  9
$DIMALTF
 40
25.3999999999999986
  9
$DIMLFAC
 40
1.0
  9
$DIMTOFL
 70
     0
  9
$DIMTVP
 40
0.0
  9
$DIMTIX
 70
     0
  9
$DIMSOXD
 70
     0
  9
$DIMSAH
 70
     0
  9
$DIMBLK1
  1

  9
$DIMBLK2
  1

  9
$DIMSTYLE
  2
STANDARD
  9
$DIMCLRD
 70
     0
  9
$DIMCLRE
 70
     0
  9
$DIMCLRT
 70
     0
  9
$DIMTFAC
 40
1.0
  9
$DIMGAP
 40
0.09
  9
$LUNITS
 70
     2
  9
$LUPREC
 70
     4
  9
$SKETCHINC
 40
0.1
  9
$FILLETRAD
 40
0.0
  9
$AUNITS
 70
     0
  9
$AUPREC
 70
     0
  9
$MENU
  1
.
  9
$ELEVATION
 40
0.0
  9
$PELEVATION
 40
0.0
  9
$THICKNESS
 40
0.0
  9
$LIMCHECK
 70
     0
  9
$BLIPMODE
 70
     0
  9
$CHAMFERA
 40
0.0
  9
$CHAMFERB
 40
0.0
  9
$SKPOLY
 70
     0
  9
$TDCREATE
 40
2458060.468368056230247
  9
$TDUPDATE
 40
2459559.7980671301484108
  9
$TDINDWG
 40
0.358421412
  9
$TDUSRTIMER
 40
0.358421412
  9
$USRTIMER
 70
     1
  9
$ANGBASE
 50
0.0
  9
$ANGDIR
 70
     0
  9
$PDMODE
 70
     0
  9
$PDSIZE
 40
0.3125
  9
$PLINEWID
 40
0.0
  9
$COORDS
 70
     1
  9
$SPLFRAME
 70
     0
  9
$SPLINETYPE
 70
     6
  9
$SPLINESEGS
 70
     8
  9
$ATTDIA
 70
     1
  9
$ATTREQ
 70
     1
  9
$HANDLING
 70
     1
  9
$HANDSEED
  5
D594
  9
$SURFTAB1
 70
     6
  9
$SURFTAB2
 70
     6
  9
$SURFTYPE
 70
     6
  9
$SURFU
 70
     6
  9
$SURFV
 70
     6
  9
$UCSNAME
  2

  9
$UCSORG
 10
0.0
 20
0.0
 30
0.0
  9
$UCSXDIR
 10
1.0
 20
0.0
 30
0.0
  9
$UCSYDIR
 10
0.0
 20
1.0
 30
0.0
  9
$PUCSNAME
  2

  9
$PUCSORG
 10
0.0
 20
0.0
 30
0.0
  9
$PUCSXDIR
 10
1.0
 20
0.0
 30
0.0
  9
$PUCSYDIR
 10
0.0
 20
1.0
 30
0.0
  9
$USERI1
 70
     0
  9
$USERI2
 70
     0
  9
$USERI3
 70
     0
  9
$USERI4
 70
     0
  9
$USERI5
 70
     0
  9
$USERR1
 40
0.0
  9
$USERR2
 40
0.0
  9
$USERR3
 40
0.0
  9
$USERR4
 40
0.0
  9
$USERR5
 40
0.0
  9
$WORLDVIEW
 70
     1
  9
$SHADEDGE
 70
     3
  9
$SHADEDIF
 70
    70
  9
$TILEMODE
 70
     1
  9
$MAXACTVP
 70
    64
  9
$PLIMCHECK
 70
     0
  9
$PEXTMIN
 10
1.0000000000000000E+20
 20
1.0000000000000000E+20
 30
1.0000000000000000E+20
  9
$PEXTMAX
 10
-1.0000000000000000E+20
 20
-1.0000000000000000E+20
 30
-1.0000000000000000E+20
  9
$PLIMMIN
 10
0.0
 20
0.0
  9
$PLIMMAX
 10
12.0
 20
9.0
  9
$UNITMODE
 70
     0
  9
$VISRETAIN
 70
     1
  9
$PLINEGEN
 70
     0
  9
$PSLTSCALE
 70
     1
  0
ENDSEC
  0
SECTION
  2
TABLES
  0
TABLE
  2
VPORT
 70
     1
  0
VPORT
  2
*ACTIVE
 70
     0
 10
0.0
 20
0.0
 11
1.0
 21
1.0
 12
-0.0000965555123003
 22
-0.0000003490602296
 13
0.0
 23
0.0
 14
1.0
 24
1.0
 15
0.0
 25
0.0
 16
0.0
 26
0.0
 36
23.6804301583780514
 17
4758.43212890625
 27
248.6398239135741903
 37
0.0
 40
7.6056358351508102
 41
1.8876941457586609
 42
50.0
 43
0.0
 44
0.0
 50
0.0
 51
0.0
 71
     0
 72
   100
 73
     1
 74
     1
 75
     0
 76
     0
 77
     0
 78
     0
  0
ENDTAB
  0
TABLE
  2
LTYPE
 70
     2
  0
LTYPE
  2
CONTINUOUS
 70
     0
  3
Solid line
 72
    65
 73
     0
 40
0.0
  0
LTYPE
  2
PHANTOM2
 70
     0
  3
___ _ _ ___ _ _ ___ _ _ ___ _ _
 72
    65
 73
     6
 40
1.25
 49
0.625
 49
-0.125
 49
0.125
 49
-0.125
 49
0.125
 49
-0.125
  0
ENDTAB
  0
TABLE
  2
LAYER
 70
     2
  0
LAYER
  2
0
 70
     0
 62
   255
  6
CONTINUOUS
  0
LAYER
  2
DEFPOINTS
 70
     0
 62
     7
  6
CONTINUOUS
  0
ENDTAB
  0
TABLE
  2
STYLE
 70
     1
  0
STYLE
  2
STANDARD
 70
     0
 40
0.0
 41
0.8
 50
0.0
 71
     0
 42
0.2
  3
txt
  4

  0
ENDTAB
  0
TABLE
  2
VIEW
 70
     0
  0
ENDTAB
  0
TABLE
  2
UCS
 70
     0
  0
ENDTAB
  0
TABLE
  2
APPID
 70
     9
  0
APPID
  2
ACAD
 70
     0
  0
APPID
  2
ACAD_MLEADERVER
 70
     0
  0
APPID
  2
ACAD_EXEMPT_FROM_CAD_STANDARDS
 70
     0
  0
APPID
  2
ACAD_NAV_VCDISPLAY
 70
     0
  0
APPID
  2
ACAECLAYERSTANDARD
 70
     0
  0
APPID
  2
ACCMTRANSPARENCY
 70
     0
  0
APPID
  2
ACAD_DSTYLE_DIMJAG
 70
     0
  0
APPID
  2
ACAD_DSTYLE_DIMTALN
 70
     0
  0
APPID
  2
ACDBATTR
 70
     0
  0
ENDTAB
  0
TABLE
  2
DIMSTYLE
 70
     1
  0
DIMSTYLE
  2
STANDARD
 70
     0
  3

  4

  5

  6

  7

 40
1.0
 41
0.1875
 42
0.0625
 43
0.38
 44
0.125
 45
0.0
 46
0.0
 47
0.01
 48
0.01
140
0.15625
141
0.09
142
0.0
143
25.3999999999999986
144
1.0
145
0.0
146
1.0
147
0.09
 71
     1
 72
     0
 73
     1
 74
     1
 75
     0
 76
     0
 77
     0
 78
     4
170
     0
171
     2
172
     0
173
     0
174
     0
175
     0
176
     0
177
     0
178
     0
  0
ENDTAB
  0
ENDSEC
  0
SECTION
  2
BLOCKS
  0
BLOCK
  8
0
  2
$MODEL_SPACE
 70
     0
 10
0.0
 20
0.0
 30
0.0
  3
$MODEL_SPACE
  1

  0
ENDBLK
  5
21
  8
0
  0
BLOCK
 67
     1
  8
0
  2
$PAPER_SPACE
 70
     0
 10
0.0
 20
0.0
 30
0.0
  3
$PAPER_SPACE
  1

  0
ENDBLK
  5
1D
 67
     1
  8
0
  0
ENDSEC
  0
SECTION
  2
ENTITIES
  0
ATTDEF
  5
3930
  8
DEFPOINTS
 10
4758.5816690506362647
 20
245.2305037140818911
 30
0.0
 40
0.001
  1
K-26286IN-G
  3

  2
MODELNUMBER
 70
     0
1001
ACDBATTR
1070
     0
1070
     1
  0
ATTDEF
  5
3931
  8
DEFPOINTS
 10
4758.5816690506362647
 20
245.2288370474151975
 30
0.0
 40
0.001
  1

  3

  2
TRADENAME
 70
     0
1001
ACDBATTR
1070
     0
1070
     1
  0
ATTDEF
  5
3932
  8
DEFPOINTS
 10
4758.5816690506362647
 20
245.2271703807485892
 30
0.0
 40
0.001
  1
HANDSHOWER
  3

  2
PRODUCT
 70
     0
1001
ACDBATTR
1070
     0
1070
     1
  0
LINE
  5
D3B6
  8
0
 10
4756.639833905188425
 20
252.0056814044139912
 30
0.0
 11
4757.0739543493873498
 21
249.5436620219140025
 31
0.0
  0
LINE
  5
D3B7
  8
0
 10
4757.0971234679873305
 20
249.5274388304140132
 30
0.0
 11
4757.8310327209883326
 21
249.6568468331140025
 31
0.0
  0
LINE
  5
D3B8
  8
0
 10
4756.656057096686709
 20
252.0288505230140004
 30
0.0
 11
4758.7340014555884409
 21
252.3952481779139987
 31
0.0
  0
ARC
  5
D3B9
  8
0
 10
4758.9545346411878199
 20
251.1445423316139909
 30
0.0
 40
1.27
 50
284.5194338076880172
 51
100.0000000000050022
  0
ARC
  5
D3BA
  8
0
 10
4756.6595300602875795
 20
252.0091543680140092
 30
0.0
 40
0.02
 50
100.0000000000050022
 51
189.9999999999990052
  0
ARC
  5
D3BB
  8
0
 10
4757.0936505043873694
 20
249.5471349854140044
 30
0.0
 40
0.02
 50
189.9999999999990052
 51
280.0000000000050022
  0
LINE
  5
D3BC
  8
0
 10
4758.0152920570872084
 20
249.5032507144001102
 30
0.0
 11
4758.0152920570872084
 21
246.3194355060140026
 31
0.0
  0
LINE
  5
D3BD
  8
0
 10
4758.2329298522872705
 20
244.8651047974140056
 30
0.0
 11
4758.9376542617883388
 21
244.8651047974140056
 31
0.0
  0
LINE
  5
D3BE
  8
0
 10
4758.9967093798868518
 20
245.1406953485139866
 30
0.0
 11
4758.9593078050884287
 21
245.1406953485139866
 31
0.0
  0
LINE
  5
D3BF
  8
0
 10
4758.1324673292865555
 20
245.2194355060140083
 30
0.0
 11
4759.0381167848872792
 21
245.2194355060140083
 31
0.0
  0
LINE
  5
D3C0
  8
0
 10
4758.1738747341869384
 20
244.9516041892140095
 30
0.0
 11
4758.2211430932884468
 21
244.9269773444140128
 31
0.0
  0
LINE
  5
D3C1
  8
0
 10
4758.1738747341869384
 20
245.0944440908139939
 30
0.0
 11
4758.2211195522868366
 21
245.0698456537139975
 31
0.0
  0
LINE
  5
D3C2
  8
0
 10
4758.1738747341869384
 20
245.0230961369140061
 30
0.0
 11
4758.2211281992867953
 21
244.998475206714005
 31
0.0
  0
LINE
  5
D3C3
  8
0
 10
4758.2181303320103325
 20
245.1428875028994128
 30
0.0
 11
4758.2211206096872047
 21
245.1413368268140118
 31
0.0
  0
LINE
  5
D3C4
  8
0
 10
4758.9967093798868518
 20
244.9996466352139919
 30
0.0
 11
4758.9494613587867207
 21
245.0242358765140125
 31
0.0
  0
LINE
  5
D3C5
  8
0
 10
4758.9967093798868518
 20
245.0710936946140066
 30
0.0
 11
4758.9494651785871611
 21
245.0956896858139942
 31
0.0
  0
LINE
  5
D3C6
  8
0
 10
4758.9967093798868518
 20
244.9281486077140073
 30
0.0
 11
4758.9494485714867551
 21
244.9527445051139978
 31
0.0
  0
LINE
  5
D3C7
  8
0
 10
4758.2329298522872705
 20
244.8651047974140056
 30
0.0
 11
4758.1946831298873803
 21
244.9033515198140094
 31
0.0
  0
LINE
  5
D3C8
  8
0
 10
4758.1738747341869384
 20
244.9516041892140095
 30
0.0
 11
4758.1738747341869384
 21
244.9638720625140138
 31
0.0
  0
LINE
  5
D3C9
  8
0
 10
4758.1738747341869384
 20
245.0230961369140061
 30
0.0
 11
4758.1738747341869384
 21
245.0352506260140046
 31
0.0
  0
LINE
  5
D3CA
  8
0
 10
4758.1738747341869384
 20
245.0944440908139939
 30
0.0
 11
4758.1738747341869384
 21
245.1066954441139956
 31
0.0
  0
LINE
  5
D3CB
  8
0
 10
4758.2211195522868366
 20
245.0698456537139975
 30
0.0
 11
4758.2211195522868366
 21
245.0605632556139994
 31
0.0
  0
LINE
  5
D3CC
  8
0
 10
4758.2211206096872047
 20
245.1413368268140118
 30
0.0
 11
4758.2211206096872047
 21
245.1320489450139917
 31
0.0
  0
LINE
  5
D3CD
  8
0
 10
4758.2211281992867953
 20
244.998475206714005
 30
0.0
 11
4758.2211281992867953
 21
244.9891335235139991
 31
0.0
  0
LINE
  5
D3CE
  8
0
 10
4758.2211430932884468
 20
244.9269773444140128
 30
0.0
 11
4758.2211430932884468
 21
244.9177725417139868
 31
0.0
  0
LINE
  5
D3CF
  8
0
 10
4758.2230873326861911
 20
245.1525063722139919
 30
0.0
 11
4758.2230873326861911
 21
245.1879394430139882
 31
0.0
  0
LINE
  5
D3D0
  8
0
 10
4758.9494485714867551
 20
244.9527445051139978
 30
0.0
 11
4758.9494485714867551
 21
244.9627397631140013
 31
0.0
  0
LINE
  5
D3D1
  8
0
 10
4758.9494613587867207
 20
245.0242358765140125
 30
0.0
 11
4758.9494613587867207
 21
245.0341653576140004
 31
0.0
  0
LINE
  5
D3D2
  8
0
 10
4758.9494651785871611
 20
245.0956896858139942
 30
0.0
 11
4758.9494651785871611
 21
245.1055823313139967
 31
0.0
  0
LINE
  5
D3D3
  8
0
 10
4758.9494652853873049
 20
244.8913205058140079
 30
0.0
 11
4758.9494652853873049
 21
244.8814152930139869
 31
0.0
  0
LINE
  5
D3D4
  8
0
 10
4758.9967093798868518
 20
244.9241599155139966
 30
0.0
 11
4758.9967093798868518
 21
244.9281486077140073
 31
0.0
  0
LINE
  5
D3D5
  8
0
 10
4758.9967093798868518
 20
244.9873664864140039
 30
0.0
 11
4758.9967093798868518
 21
244.9996466352139919
 31
0.0
  0
LINE
  5
D3D6
  8
0
 10
4758.9967093798868518
 20
245.0587752681140046
 30
0.0
 11
4758.9967093798868518
 21
245.0710936946140066
 31
0.0
  0
LINE
  5
D3D7
  8
0
 10
4758.9967093798868518
 20
245.1301770271140015
 30
0.0
 11
4758.9967093798868518
 21
245.1406953485139866
 31
0.0
  0
LINE
  5
D3D8
  8
0
 10
4758.9376542617883388
 20
244.8651047974140056
 30
0.0
 11
4758.9494652853873049
 21
244.8814152930139869
 31
0.0
  0
LINE
  5
D3D9
  8
0
 10
4758.9775025553872183
 20
244.9055883157139988
 30
0.0
 11
4758.9967093798868518
 21
244.9241599155139966
 31
0.0
  0
LINE
  5
D3DA
  8
0
 10
4758.2211206096872047
 20
245.1320489450139917
 30
0.0
 11
4758.1738747341869384
 21
245.1066954441139956
 31
0.0
  0
LINE
  5
D3DB
  8
0
 10
4758.2211195522868366
 20
245.0605632556139994
 30
0.0
 11
4758.1738747341869384
 21
245.0352506260140046
 31
0.0
  0
LINE
  5
D3DC
  8
0
 10
4758.2211281992867953
 20
244.9891335235139991
 30
0.0
 11
4758.1738747341869384
 21
244.9638720625140138
 31
0.0
  0
LINE
  5
D3DD
  8
0
 10
4758.2211430932884468
 20
244.9177725417139868
 30
0.0
 11
4758.1946831298873803
 21
244.9033515198140094
 31
0.0
  0
LINE
  5
D3DE
  8
0
 10
4758.9494651785871611
 20
245.1055823313139967
 30
0.0
 11
4758.9967093798868518
 21
245.1301770271140015
 31
0.0
  0
LINE
  5
D3DF
  8
0
 10
4758.9494613587867207
 20
245.0341653576140004
 30
0.0
 11
4758.9967093798868518
 21
245.0587752681140046
 31
0.0
  0
LINE
  5
D3E0
  8
0
 10
4758.9494485714867551
 20
244.9627397631140013
 30
0.0
 11
4758.9967093798868518
 21
244.9873664864140039
 31
0.0
  0
LINE
  5
D3E1
  8
0
 10
4758.9494652853873049
 20
244.8913205058140079
 30
0.0
 11
4758.9775025553872183
 21
244.9055883157139988
 31
0.0
  0
ARC
  5
D3E2
  8
0
 10
4758.1916101353399426
 20
245.187958308667703
 30
0.0
 40
0.0314772029997974
 50
359.9656601509407778
 51
90.0343398490771136
  0
ARC
  5
D3E3
  8
0
 10
4758.2112763089871805
 20
245.1525063722139919
 30
0.0
 40
0.0118110236
 50
305.4721582353070062
 51
0.0
  0
ARC
  5
D3E4
  8
0
 10
4758.132768339724862
 20
245.2315655927102114
 30
0.0
 40
0.0121338209374079
 50
184.7567605018427059
 51
268.578485932154706
  0
ARC
  5
D3E5
  8
0
 10
4758.9593078050884287
 20
245.1525063722139919
 30
0.0
 40
0.0118110236
 50
180.0
 51
270.0
  0
ARC
  5
D3E6
  8
0
 10
4751.7345052023356402
 20
244.6516683709076858
 30
0.0
 40
6.4123549680544647
 50
5.1795684234481953
 51
9.0280006441374425
  0
ARC
  5
D3E7
  8
0
 10
4766.930835027910689
 20
246.6891411884409138
 30
0.0
 40
8.9232050719576854
 50
182.3745548975603867
 51
186.6365652373224862
  0
LINE
  5
D3E8
  8
0
 10
4758.9474967814867341
 20
245.1525063722139919
 30
0.0
 11
4758.9474967814867341
 21
245.1879394430139882
 31
0.0
  0
ARC
  5
D3E9
  8
0
 10
4758.9789739788329825
 20
245.187958308667703
 30
0.0
 40
0.0314772029997974
 50
89.9656601509228864
 51
180.0343398490591085
  0
LINE
  5
D3EA
  8
0
 10
4758.2211430932884468
 20
244.9223749430639998
 30
0.0
 11
4758.9494485714867551
 21
244.9577421341139996
 31
0.0
  0
LINE
  5
D3EB
  8
0
 10
4758.2211281992867953
 20
244.9938043651139878
 30
0.0
 11
4758.9494613587867207
 21
245.0292006170639922
 31
0.0
  0
LINE
  5
D3EC
  8
0
 10
4758.2211195522868366
 20
245.0652044546640127
 30
0.0
 11
4758.9494651785871611
 21
245.1006360085640097
 31
0.0
  0
LINE
  5
D3ED
  8
0
 10
4758.2211206096872047
 20
245.1366928859139875
 30
0.0
 11
4758.9474967814867341
 21
245.1702229076140043
 31
0.0
  0
LINE
  5
D3EE
  8
0
 10
4758.1738747341869384
 20
244.9577381258640116
 30
0.0
 11
4758.9967093798868518
 21
244.9935065608140121
 31
0.0
  0
LINE
  5
D3EF
  8
0
 10
4758.1738747341869384
 20
245.0291733814640054
 30
0.0
 11
4758.9967093798868518
 21
245.0649344813639914
 31
0.0
  0
LINE
  5
D3F0
  8
0
 10
4758.1738747341869384
 20
245.1005697674640089
 30
0.0
 11
4758.9967093798868518
 21
245.1354361878140082
 31
0.0
  0
LINE
  5
D3F1
  8
0
 10
4758.2100798493365801
 20
244.8879548003642128
 30
0.0
 11
4758.9967093798868518
 21
244.9261542616139877
 31
0.0
  0
LINE
  5
D3F2
  8
0
 10
4759.1552920570866263
 20
249.7631179193541868
 30
0.0
 11
4759.1552920570866263
 21
246.3194355060140026
 31
0.0
  0
ARC
  5
D3F3
  8
0
 10
4759.0378157744489727
 20
245.2315655927102114
 30
0.0
 40
0.0121338209374079
 50
271.421514067845294
 51
355.2432394981572088
  0
ARC
  5
D3F4
  8
0
 10
4765.436078911839104
 20
244.6516683709076858
 30
0.0
 40
6.4123549680544647
 50
170.9719993558624935
 51
174.8204315765518118
  0
ARC
  5
D3F5
  8
0
 10
4750.2397490862640552
 20
246.6891411884409138
 30
0.0
 40
8.9232050719576854
 50
353.3634347626775138
 51
357.6254451024395848
  0
ARC
  5
D3F6
  8
0
 10
4757.8582955164110899
 20
249.5022321792685034
 30
0.0
 40
0.1569998445797617
 50
0.37170848064493
 51
100.0000216853641035
  0
ARC
  5
D3F7
  8
0
 10
4759.3123139208400971
 20
249.7630991049663862
 30
0.0
 40
0.1570218648810823
 50
104.5243167277871947
 51
179.9931348094584109
  0
ARC
  5
D3F8
  8
0
 10
4758.8057017681439902
 20
248.3694079658899057
 30
0.0
 40
1.6147688962585449
 50
73.1809870488407057
 51
127.1279231656057931
  0
ENDSEC
  0
EOF
