  0
SECTION
  2
HEADER
  9
$ACADVER
  1
AC1009
  9
$INSBASE
 10
4061.3240446407480704
 20
129.649632731747289
 30
0.0
  9
$EXTMIN
 10
4060.5240559083408698
 20
124.8139173985473036
 30
0.0
  9
$EXTMAX
 10
4062.1240333731539067
 20
130.0017914143473092
 30
0.0
  9
$LIMMIN
 10
0.0
 20
0.0
  9
$LIMMAX
 10
11.6929133858000007
 20
8.2677165353999982
  9
$ORTHOMODE
 70
     0
  9
$REGENMODE
 70
     1
  9
$FILLMODE
 70
     1
  9
$QTEXTMODE
 70
     0
  9
$MIRRTEXT
 70
     0
  9
$DRAGMODE
 70
     2
  9
$LTSCALE
 40
0.6431102362
  9
$OSMODE
 70
  4095
  9
$ATTMODE
 70
     1
  9
$TEXTSIZE
 40
0.2
  9
$TRACEWID
 40
0.05
  9
$TEXTSTYLE
  7
STANDARD
  9
$CLAYER
  8
0
  9
$CELTYPE
  6
BYLAYER
  9
$CECOLOR
 62
   256
  9
$DIMSCALE
 40
1.0
  9
$DIMASZ
 40
0.1875
  9
$DIMEXO
 40
0.0625
  9
$DIMDLI
 40
0.4443307087
  9
$DIMRND
 40
0.0
  9
$DIMDLE
 40
0.0
  9
$DIMEXE
 40
0.125
  9
$DIMTP
 40
0.01
  9
$DIMTM
 40
0.01
  9
$DIMTXT
 40
2.0
  9
$DIMCEN
 40
0.1052362205
  9
$DIMTSZ
 40
0.0
  9
$DIMTOL
 70
     1
  9
$DIMLIM
 70
     0
  9
$DIMTIH
 70
     1
  9
$DIMTOH
 70
     1
  9
$DIMSE1
 70
     0
  9
$DIMSE2
 70
     0
  9
$DIMTAD
 70
     0
  9
$DIMZIN
 70
     0
  9
$DIMBLK
  1

  9
$DIMASO
 70
     1
  9
$DIMSHO
 70
     1
  9
$DIMPOST
  1
\X
  9
$DIMAPOST
  1

  9
$DIMALT
 70
     1
  9
$DIMALTD
 70
     2
  9
$DIMALTF
 40
25.3999999999999986
  9
$DIMLFAC
 40
1.0
  9
$DIMTOFL
 70
     0
  9
$DIMTVP
 40
0.0
  9
$DIMTIX
 70
     0
  9
$DIMSOXD
 70
     0
  9
$DIMSAH
 70
     0
  9
$DIMBLK1
  1

  9
$DIMBLK2
  1

  9
$DIMSTYLE
  2
STANDARD
  9
$DIMCLRD
 70
     0
  9
$DIMCLRE
 70
     0
  9
$DIMCLRT
 70
     0
  9
$DIMTFAC
 40
1.0
  9
$DIMGAP
 40
0.09
  9
$LUNITS
 70
     2
  9
$LUPREC
 70
     4
  9
$SKETCHINC
 40
0.1
  9
$FILLETRAD
 40
0.0
  9
$AUNITS
 70
     0
  9
$AUPREC
 70
     0
  9
$MENU
  1
.
  9
$ELEVATION
 40
0.0
  9
$PELEVATION
 40
0.0
  9
$THICKNESS
 40
0.0
  9
$LIMCHECK
 70
     0
  9
$BLIPMODE
 70
     0
  9
$CHAMFERA
 40
0.0
  9
$CHAMFERB
 40
0.0
  9
$SKPOLY
 70
     0
  9
$TDCREATE
 40
2458060.468368056230247
  9
$TDUPDATE
 40
2459269.9126157411374152
  9
$TDINDWG
 40
0.3142431713
  9
$TDUSRTIMER
 40
0.3142431713
  9
$USRTIMER
 70
     1
  9
$ANGBASE
 50
0.0
  9
$ANGDIR
 70
     0
  9
$PDMODE
 70
     0
  9
$PDSIZE
 40
0.3125
  9
$PLINEWID
 40
0.0
  9
$COORDS
 70
     1
  9
$SPLFRAME
 70
     0
  9
$SPLINETYPE
 70
     6
  9
$SPLINESEGS
 70
     8
  9
$ATTDIA
 70
     1
  9
$ATTREQ
 70
     1
  9
$HANDLING
 70
     1
  9
$HANDSEED
  5
701F
  9
$SURFTAB1
 70
     6
  9
$SURFTAB2
 70
     6
  9
$SURFTYPE
 70
     6
  9
$SURFU
 70
     6
  9
$SURFV
 70
     6
  9
$UCSNAME
  2

  9
$UCSORG
 10
0.0
 20
0.0
 30
0.0
  9
$UCSXDIR
 10
1.0
 20
0.0
 30
0.0
  9
$UCSYDIR
 10
0.0
 20
1.0
 30
0.0
  9
$PUCSNAME
  2

  9
$PUCSORG
 10
0.0
 20
0.0
 30
0.0
  9
$PUCSXDIR
 10
1.0
 20
0.0
 30
0.0
  9
$PUCSYDIR
 10
0.0
 20
1.0
 30
0.0
  9
$USERI1
 70
     0
  9
$USERI2
 70
     0
  9
$USERI3
 70
     0
  9
$USERI4
 70
     0
  9
$USERI5
 70
     0
  9
$USERR1
 40
0.0
  9
$USERR2
 40
0.0
  9
$USERR3
 40
0.0
  9
$USERR4
 40
0.0
  9
$USERR5
 40
0.0
  9
$WORLDVIEW
 70
     1
  9
$SHADEDGE
 70
     3
  9
$SHADEDIF
 70
    70
  9
$TILEMODE
 70
     1
  9
$MAXACTVP
 70
    64
  9
$PLIMCHECK
 70
     0
  9
$PEXTMIN
 10
1.0000000000000000E+20
 20
1.0000000000000000E+20
 30
1.0000000000000000E+20
  9
$PEXTMAX
 10
-1.0000000000000000E+20
 20
-1.0000000000000000E+20
 30
-1.0000000000000000E+20
  9
$PLIMMIN
 10
0.0
 20
0.0
  9
$PLIMMAX
 10
12.0
 20
9.0
  9
$UNITMODE
 70
     0
  9
$VISRETAIN
 70
     1
  9
$PLINEGEN
 70
     0
  9
$PSLTSCALE
 70
     1
  0
ENDSEC
  0
SECTION
  2
TABLES
  0
TABLE
  2
VPORT
 70
     1
  0
VPORT
  2
*ACTIVE
 70
     0
 10
0.0
 20
0.0
 11
1.0
 21
1.0
 12
32.5371794063735322
 22
-8.4665047244120686
 13
0.0
 23
0.0
 14
1.0
 24
1.0
 15
0.0
 25
0.0
 16
0.0
 26
0.0
 36
47.0568789906323275
 17
4028.786865234375
 27
135.8743591308592897
 37
0.0
 40
5.2546706769476437
 41
2.9182795698924728
 42
50.0
 43
0.0
 44
0.0
 50
0.0
 51
0.0
 71
     0
 72
   100
 73
     1
 74
     1
 75
     0
 76
     0
 77
     0
 78
     0
  0
ENDTAB
  0
TABLE
  2
LTYPE
 70
     2
  0
LTYPE
  2
CONTINUOUS
 70
     0
  3
Solid line
 72
    65
 73
     0
 40
0.0
  0
LTYPE
  2
PHANTOM2
 70
     0
  3
___ _ _ ___ _ _ ___ _ _ ___ _ _
 72
    65
 73
     6
 40
1.25
 49
0.625
 49
-0.125
 49
0.125
 49
-0.125
 49
0.125
 49
-0.125
  0
ENDTAB
  0
TABLE
  2
LAYER
 70
     2
  0
LAYER
  2
0
 70
     0
 62
   255
  6
CONTINUOUS
  0
LAYER
  2
DEFPOINTS
 70
     0
 62
     7
  6
CONTINUOUS
  0
ENDTAB
  0
TABLE
  2
STYLE
 70
     1
  0
STYLE
  2
STANDARD
 70
     0
 40
0.0
 41
0.8
 50
0.0
 71
     0
 42
0.2
  3
txt
  4

  0
ENDTAB
  0
TABLE
  2
VIEW
 70
     0
  0
ENDTAB
  0
TABLE
  2
UCS
 70
     0
  0
ENDTAB
  0
TABLE
  2
APPID
 70
     9
  0
APPID
  2
ACAD
 70
     0
  0
APPID
  2
ACAD_MLEADERVER
 70
     0
  0
APPID
  2
ACAD_EXEMPT_FROM_CAD_STANDARDS
 70
     0
  0
APPID
  2
ACAD_NAV_VCDISPLAY
 70
     0
  0
APPID
  2
ACAECLAYERSTANDARD
 70
     0
  0
APPID
  2
ACCMTRANSPARENCY
 70
     0
  0
APPID
  2
ACAD_DSTYLE_DIMJAG
 70
     0
  0
APPID
  2
ACAD_DSTYLE_DIMTALN
 70
     0
  0
APPID
  2
ACDBATTR
 70
     0
  0
ENDTAB
  0
TABLE
  2
DIMSTYLE
 70
     1
  0
DIMSTYLE
  2
STANDARD
 70
     0
  3

  4

  5

  6

  7

 40
1.0
 41
0.1875
 42
0.0625
 43
0.38
 44
0.125
 45
0.0
 46
0.0
 47
0.01
 48
0.01
140
0.15625
141
0.09
142
0.0
143
25.3999999999999986
144
1.0
145
0.0
146
1.0
147
0.09
 71
     1
 72
     0
 73
     1
 74
     1
 75
     0
 76
     0
 77
     0
 78
     4
170
     0
171
     2
172
     0
173
     0
174
     0
175
     0
176
     0
177
     0
178
     0
  0
ENDTAB
  0
ENDSEC
  0
SECTION
  2
BLOCKS
  0
BLOCK
  8
0
  2
$MODEL_SPACE
 70
     0
 10
0.0
 20
0.0
 30
0.0
  3
$MODEL_SPACE
  1

  0
ENDBLK
  5
21
  8
0
  0
BLOCK
 67
     1
  8
0
  2
$PAPER_SPACE
 70
     0
 10
0.0
 20
0.0
 30
0.0
  3
$PAPER_SPACE
  1

  0
ENDBLK
  5
1D
 67
     1
  8
0
  0
ENDSEC
  0
SECTION
  2
ENTITIES
  0
ATTDEF
  5
3930
  8
DEFPOINTS
 10
4061.3210625914630327
 20
129.6541938097687137
 30
0.0
 40
0.001
  1
K-26288W-G
  3

  2
MODELNUMBER
 70
     0
1001
ACDBATTR
1070
     0
1070
     1
  0
ATTDEF
  5
3931
  8
DEFPOINTS
 10
4061.3210625914630327
 20
129.6525271431019917
 30
0.0
 40
0.001
  1

  3

  2
TRADENAME
 70
     0
1001
ACDBATTR
1070
     0
1070
     1
  0
ATTDEF
  5
3932
  8
DEFPOINTS
 10
4061.3210625914630327
 20
129.6508604764354118
 30
0.0
 40
0.001
  1
HANDSHOWER
  3

  2
PRODUCT
 70
     0
1001
ACDBATTR
1070
     0
1070
     1
  0
LINE
  5
6DBF
  8
0
 10
4062.1040332935981496
 20
124.9017914143473007
 30
0.0
 11
4060.5440559878979911
 21
124.9017914143473007
 31
0.0
  0
ARC
  5
6DC0
  8
0
 10
4062.1040332935981496
 20
124.9217914143472967
 30
0.0
 40
0.02
 50
270.0
 51
0.0000000000040711
  0
LINE
  5
6DC1
  8
0
 10
4060.5240559878980093
 20
124.9217914143472967
 30
0.0
 11
4060.5240559878980093
 21
129.1117914136025036
 31
0.0
  0
LINE
  5
6DC2
  8
0
 10
4061.7598591098749239
 20
129.649632731747289
 30
0.0
 11
4060.8882301716221264
 21
129.649632731747289
 31
0.0
  0
LINE
  5
6DC3
  8
0
 10
4061.7369043609801338
 20
124.8139173985473036
 30
0.0
 11
4060.911184920516007
 21
124.8139173985473036
 31
0.0
  0
LINE
  5
6DC4
  8
0
 10
4060.9011849205157887
 20
124.8239173985472945
 30
0.0
 11
4060.9011849205157887
 21
124.8296230385145975
 31
0.0
  0
ARC
  5
6DC5
  8
0
 10
4060.5440559878979911
 20
124.9217914143472967
 30
0.0
 40
0.02
 50
180.0
 51
270.0
  0
ARC
  5
6DC6
  8
0
 10
4060.911184920516007
 20
124.8239173985472945
 30
0.0
 40
0.01
 50
180.0000000000098055
 51
270.0
  0
ARC
  5
6DC7
  8
0
 10
4061.7995227141659598
 20
129.112241906168606
 30
0.0
 40
1.2754668058242631
 50
178.5626819784847896
 51
180.0202367659888125
  0
ARC
  5
6DC8
  8
0
 10
4061.6448996815870487
 20
129.1161215828961986
 30
0.0
 40
1.120795108039891
 50
174.0308725019783083
 51
178.5626819784847896
  0
ARC
  5
6DC9
  8
0
 10
4061.2706300031982209
 20
129.1552550284270069
 30
0.0
 40
0.7444851045575615
 50
160.8146892032494861
 51
174.0308725019783083
  0
ARC
  5
6DCA
  8
0
 10
4060.9375426429469371
 20
129.2711525770413061
 30
0.0
 40
0.3918104225435082
 50
132.7975698317783895
 51
160.8146892032494861
  0
ARC
  5
6DCB
  8
0
 10
4060.884884397985843
 20
129.3280231471156867
 30
0.0
 40
0.3143046001629232
 50
107.7782435012711062
 51
132.7975698317783895
  0
ARC
  5
6DCC
  8
0
 10
4060.9632209875148874
 20
129.083714549559005
 30
0.0
 40
0.5708651429187173
 50
97.5483881006659885
 51
107.7782435012711062
  0
LINE
  5
6DCD
  8
0
 10
4061.2905576049429328
 20
124.8380477730001985
 30
0.0
 11
4061.2712855710969961
 21
124.9017914143473007
 31
0.0
  0
LINE
  5
6DCE
  8
0
 10
4061.3607251604080375
 20
124.8391293232180033
 30
0.0
 11
4061.3778607388990167
 21
124.9017914143473007
 31
0.0
  0
ARC
  5
6DCF
  8
0
 10
4061.3215483001608845
 20
125.0936757112039004
 30
0.0
 40
0.2645073259218379
 50
267.7429563374726058
 51
270.5407483620629137
  0
ARC
  5
6DD0
  8
0
 10
4061.3154592098130706
 20
124.939182157533196
 30
0.0
 40
0.1098938234484896
 50
262.3631172677344239
 51
267.7429563374726058
  0
ARC
  5
6DD1
  8
0
 10
4061.3029445728147948
 20
124.8458476637269996
 30
0.0
 40
0.0157240625203704
 50
239.7889301643564011
 51
262.3631172677344239
  0
ARC
  5
6DD2
  8
0
 10
4061.299928786583223
 20
124.8406683261761998
 30
0.0
 40
0.0097306908431375
 50
195.6230947115311096
 51
239.7889301643571969
  0
ARC
  5
6DD3
  8
0
 10
4061.3265409813361657
 20
125.0936757112039004
 30
0.0
 40
0.2645073259218379
 50
269.4592516379370863
 51
272.2570436625273942
  0
ARC
  5
6DD4
  8
0
 10
4061.3326300716830701
 20
124.939182157533196
 30
0.0
 40
0.1098938234484896
 50
272.2570436625273942
 51
277.6368827322655761
  0
ARC
  5
6DD5
  8
0
 10
4061.3438790387699555
 20
124.8586120968426059
 30
0.0
 40
0.0285468982593889
 50
276.7499639439066073
 51
294.0252012611633177
  0
ARC
  5
6DD6
  8
0
 10
4061.3505402618079643
 20
124.841835749362005
 30
0.0
 40
0.0105383538556978
 50
298.0853703772410768
 51
345.1187351633950016
  0
LINE
  5
6DD7
  8
0
 10
4061.2263664025331309
 20
124.8381590473294978
 30
0.0
 11
4061.2459395791979659
 21
124.9017914143473007
 31
0.0
  0
LINE
  5
6DD8
  8
0
 10
4061.1560570328101676
 20
124.8394934077513057
 30
0.0
 11
4061.1393519711978115
 21
124.9017914143473007
 31
0.0
  0
LINE
  5
6DD9
  8
0
 10
4061.1006894381948769
 20
124.837137983157703
 30
0.0
 11
4061.1229227760982212
 21
124.9017914143473007
 31
0.0
  0
LINE
  5
6DDA
  8
0
 10
4061.0306594753337777
 20
124.8397626793868938
 30
0.0
 11
4061.0162139395970371
 21
124.9017914143473007
 31
0.0
  0
LINE
  5
6DDB
  8
0
 10
4060.9916975578321399
 20
124.8357311410349979
 30
0.0
 11
4061.0165365413981817
 21
124.9004061710484024
 31
0.0
  0
LINE
  5
6DDC
  8
0
 10
4060.9217764410391283
 20
124.8420362570091982
 30
0.0
 11
4060.9101092481978412
 21
124.9017914143473007
 31
0.0
  0
LINE
  5
6DDD
  8
0
 10
4060.9059641381500114
 20
124.8331202370830937
 30
0.0
 11
4060.9180341762130411
 21
124.8612027888830056
 31
0.0
  0
LINE
  5
6DDE
  8
0
 10
4060.837165520569215
 20
124.8430586997475018
 30
0.0
 11
4060.8281043686979501
 21
124.9017914143473007
 31
0.0
  0
LINE
  5
6DDF
  8
0
 10
4060.78178359714002
 20
124.8453795509130941
 30
0.0
 11
4060.7756129856988991
 21
124.9017914143473007
 31
0.0
  0
LINE
  5
6DE0
  8
0
 10
4060.7592408451960182
 20
124.848590265484404
 30
0.0
 11
4060.7560279051981524
 21
124.9017914143473007
 31
0.0
  0
LINE
  5
6DE1
  8
0
 10
4060.7670507704051488
 20
124.8394317941457956
 30
0.0
 11
4060.8171937819438426
 21
124.8282749740967006
 31
0.0
  0
LINE
  5
6DE2
  8
0
 10
4060.7899853151347997
 20
124.836619279761905
 30
0.0
 11
4060.8347026472138168
 21
124.8287226720927947
 31
0.0
  0
LINE
  5
6DE3
  8
0
 10
4060.8455243283938216
 20
124.8347002907074028
 30
0.0
 11
4060.8749892265641392
 21
124.8301559513136993
 31
0.0
  0
ARC
  5
6DE4
  8
0
 10
4060.769222658776016
 20
124.8491930902125944
 30
0.0
 40
0.01
 50
183.4560266168485043
 51
257.4560266734749234
  0
ARC
  5
6DE5
  8
0
 10
4060.7917243033170962
 20
124.8464669150160944
 30
0.0
 40
0.01
 50
186.24248029088929
 51
259.9854174848798039
  0
ARC
  5
6DE6
  8
0
 10
4060.8470485955881486
 20
124.8445834384610009
 30
0.0
 40
0.01
 50
188.7703183436643997
 51
261.2324152134899009
  0
ARC
  5
6DE7
  8
0
 10
4060.8998521175058158
 20
125.000434650064193
 30
0.0
 40
0.1720842775913937
 50
261.6927797020049979
 51
268.4157695686013767
  0
ARC
  5
6DE8
  8
0
 10
4060.895482183544118
 20
124.8424305127631015
 30
0.0
 40
0.0140197220227825
 50
268.4157695686013767
 51
318.3878950977446038
  0
ARC
  5
6DE9
  8
0
 10
4060.8418062071032182
 20
124.8383397250917994
 30
0.0
 40
0.0100770234914038
 50
273.8912915858613815
 51
333.7327351199613759
  0
ARC
  5
6DEA
  8
0
 10
4060.8403492282741354
 20
124.8597594378428965
 30
0.0
 40
0.0315462312468708
 50
259.6888407097916911
 51
273.8912915858613815
  0
ARC
  5
6DEB
  8
0
 10
4060.8189132874640563
 20
124.8381760575757937
 30
0.0
 40
0.0100492862082094
 50
260.1477980756091029
 51
309.2065967106452717
  0
ARC
  5
6DEC
  8
0
 10
4060.9320632654871588
 20
124.8439326571846948
 30
0.0
 40
0.0104601668643137
 50
190.445333900532205
 51
248.8883563391285918
  0
ARC
  5
6DED
  8
0
 10
4060.9751997383350499
 20
125.0551495201034982
 30
0.0
 40
0.2258980305856554
 50
258.0162729994503934
 51
272.3634967476012889
  0
ARC
  5
6DEE
  8
0
 10
4060.9825970463780322
 20
124.8388807448126983
 30
0.0
 40
0.0096301252678538
 50
281.4914134079382961
 51
340.9097310516032735
  0
ARC
  5
6DEF
  8
0
 10
4061.041564223271962
 20
124.8434550941871066
 30
0.0
 40
0.0115129255458001
 50
198.7064168870203105
 51
264.8523456936160869
  0
ARC
  5
6DF0
  8
0
 10
4061.0752335490610676
 20
125.0536023395954999
 30
0.0
 40
0.2243142834214766
 50
261.1003756341726216
 51
274.5107551877978267
  0
ARC
  5
6DF1
  8
0
 10
4061.0904745736452242
 20
124.8404492684086051
 30
0.0
 40
0.0107381594221893
 50
282.9172575714056279
 51
342.0392032542937955
  0
ARC
  5
6DF2
  8
0
 10
4061.1663954120817834
 20
124.8419737971849059
 30
0.0
 40
0.0106317645629123
 50
193.4914278892119057
 51
253.8981852600707043
  0
ARC
  5
6DF3
  8
0
 10
4061.1946387801622222
 20
125.0214099264345009
 30
0.0
 40
0.1921987882397469
 50
260.6601304096744229
 51
277.1558383894416124
  0
ARC
  5
6DF4
  8
0
 10
4061.2159747031969346
 20
124.8412245050942033
 30
0.0
 40
0.0108344102930807
 50
283.9177835390127029
 51
343.5644152275502279
  0
LINE
  5
6DF5
  8
0
 10
4061.7469043609808068
 20
124.8239173985472945
 30
0.0
 11
4061.7469043609808068
 21
124.8296230385145975
 31
0.0
  0
ARC
  5
6DF6
  8
0
 10
4061.7369043609801338
 20
124.8239173985472945
 30
0.0
 40
0.01
 50
270.0
 51
359.9999999999894271
  0
LINE
  5
6DF7
  8
0
 10
4061.4217228789630099
 20
124.8381590473294978
 30
0.0
 11
4061.4021497022981748
 21
124.9017914143473007
 31
0.0
  0
LINE
  5
6DF8
  8
0
 10
4061.4920322486868827
 20
124.8394934077513057
 30
0.0
 11
4061.5087373102978745
 21
124.9017914143473007
 31
0.0
  0
LINE
  5
6DF9
  8
0
 10
4061.5473998433008092
 20
124.837137983157703
 30
0.0
 11
4061.5251665053979195
 21
124.9017914143473007
 31
0.0
  0
LINE
  5
6DFA
  8
0
 10
4061.6174298061619083
 20
124.8397626793868938
 30
0.0
 11
4061.6318753418968299
 21
124.9017914143473007
 31
0.0
  0
LINE
  5
6DFB
  8
0
 10
4061.6563917236649104
 20
124.8357311410349979
 30
0.0
 11
4061.631552740097959
 21
124.9004061710484024
 31
0.0
  0
LINE
  5
6DFC
  8
0
 10
4061.7263128404570125
 20
124.8420362570091982
 30
0.0
 11
4061.7379800332978448
 21
124.9017914143473007
 31
0.0
  0
LINE
  5
6DFD
  8
0
 10
4061.7421251433461293
 20
124.8331202370830937
 30
0.0
 11
4061.7300551052821902
 21
124.8612027888830056
 31
0.0
  0
LINE
  5
6DFE
  8
0
 10
4061.8109237609291995
 20
124.8430586997475018
 30
0.0
 11
4061.8199849127981906
 21
124.9017914143473007
 31
0.0
  0
LINE
  5
6DFF
  8
0
 10
4061.8663056843561208
 20
124.8453795509130941
 30
0.0
 11
4061.8724762957990606
 21
124.9017914143473007
 31
0.0
  0
LINE
  5
6E00
  8
0
 10
4061.8888484363001226
 20
124.848590265484404
 30
0.0
 11
4061.8920613762979883
 21
124.9017914143473007
 31
0.0
  0
LINE
  5
6E01
  8
0
 10
4061.881038511090992
 20
124.8394317941457956
 30
0.0
 11
4061.8308954995532076
 21
124.8282749740967006
 31
0.0
  0
LINE
  5
6E02
  8
0
 10
4061.8581039663608863
 20
124.836619279761905
 30
0.0
 11
4061.8133866342818692
 21
124.8287226720927947
 31
0.0
  0
LINE
  5
6E03
  8
0
 10
4061.8025649531027739
 20
124.8347002907074028
 30
0.0
 11
4061.773100054931092
 21
124.8301559513136993
 31
0.0
  0
ARC
  5
6E04
  8
0
 10
4061.8788666227201247
 20
124.8491930902125944
 30
0.0
 40
0.01
 50
282.5439733265250766
 51
356.5439733831515241
  0
ARC
  5
6E05
  8
0
 10
4061.8563649781781351
 20
124.8464669150160944
 30
0.0
 40
0.01
 50
280.0145825151201961
 51
353.7575197091106816
  0
ARC
  5
6E06
  8
0
 10
4061.8010406859079922
 20
124.8445834384610009
 30
0.0
 40
0.01
 50
278.7675847865099854
 51
351.2296816563355719
  0
ARC
  5
6E07
  8
0
 10
4061.7482371639907797
 20
125.000434650064193
 30
0.0
 40
0.1720842775913937
 50
271.5842304313986233
 51
278.3072202979950021
  0
ARC
  5
6E08
  8
0
 10
4061.7526070979520227
 20
124.8424305127631015
 30
0.0
 40
0.0140197220227825
 50
221.6121049022547993
 51
271.5842304313986233
  0
ARC
  5
6E09
  8
0
 10
4061.8062830743929226
 20
124.8383397250917994
 30
0.0
 40
0.0100770234914038
 50
206.2672648800385957
 51
266.1087084141386185
  0
ARC
  5
6E0A
  8
0
 10
4061.8077400532229149
 20
124.8597594378428965
 30
0.0
 40
0.0315462312468708
 50
266.1087084141386185
 51
280.3111592902081952
  0
ARC
  5
6E0B
  8
0
 10
4061.8291759940329939
 20
124.8381760575757937
 30
0.0
 40
0.0100492862082094
 50
230.7934032893546998
 51
279.8522019243907835
  0
ARC
  5
6E0C
  8
0
 10
4061.7160260160098915
 20
124.8439326571846948
 30
0.0
 40
0.0104601668643137
 50
291.1116436608713798
 51
349.5546660994676813
  0
ARC
  5
6E0D
  8
0
 10
4061.6728895431610908
 20
125.0551495201034982
 30
0.0
 40
0.2258980305856554
 50
267.6365032523987111
 51
281.9837270005496066
  0
ARC
  5
6E0E
  8
0
 10
4061.6654922351181085
 20
124.8388807448126983
 30
0.0
 40
0.0096301252678538
 50
199.0902689483966128
 51
258.5085865920618176
  0
ARC
  5
6E0F
  8
0
 10
4061.6065250582250883
 20
124.8434550941871066
 30
0.0
 40
0.0115129255458001
 50
275.1476543063839131
 51
341.293583112979718
  0
ARC
  5
6E10
  8
0
 10
4061.5728557324350732
 20
125.0536023395954999
 30
0.0
 40
0.2243142834214766
 50
265.4892448122021165
 51
278.8996243658273215
  0
ARC
  5
6E11
  8
0
 10
4061.5576147078500071
 20
124.8404492684086051
 30
0.0
 40
0.0107381594221893
 50
197.9607967457062045
 51
257.0827424285943721
  0
ARC
  5
6E12
  8
0
 10
4061.4816938694139026
 20
124.8419737971849059
 30
0.0
 40
0.0106317645629123
 50
286.1018147399292957
 51
346.5085721107881227
  0
ARC
  5
6E13
  8
0
 10
4061.453450501334828
 20
125.0214099264345009
 30
0.0
 40
0.1921987882397469
 50
262.8441616105583876
 51
279.3398695903255202
  0
ARC
  5
6E14
  8
0
 10
4061.4321145782992062
 20
124.8412245050942033
 30
0.0
 40
0.0108344102930807
 50
196.4355847724496869
 51
256.0822164609874108
  0
LINE
  5
6E15
  8
0
 10
4062.1240332935981314
 20
124.9217914143472967
 30
0.0
 11
4062.1240332935981314
 21
129.1117914135996045
 31
0.0
  0
ARC
  5
6E16
  8
0
 10
4060.848566567330181
 20
129.112241906168606
 30
0.0
 40
1.2754668058242631
 50
359.9797632338784865
 51
1.43731802151516
  0
ARC
  5
6E17
  8
0
 10
4061.0031895999090921
 20
129.1161215828961986
 30
0.0
 40
1.120795108039891
 50
1.43731802151516
 51
5.9691274980217361
  0
ARC
  5
6E18
  8
0
 10
4061.3774592783001935
 20
129.1552550284270069
 30
0.0
 40
0.7444851045575615
 50
5.9691274980217361
 51
19.1853107967504286
  0
ARC
  5
6E19
  8
0
 10
4061.7105466385501131
 20
129.2711525770413061
 30
0.0
 40
0.3918104225435082
 50
19.1853107967504286
 51
47.2024301682215608
  0
ARC
  5
6E1A
  8
0
 10
4061.7632048835112073
 20
129.3280231471156867
 30
0.0
 40
0.3143046001629232
 50
47.2024301682215608
 51
72.2217564987288938
  0
ARC
  5
6E1B
  8
0
 10
4061.6848682939821629
 20
129.083714549559005
 30
0.0
 40
0.5708651429187173
 50
72.2217564987288938
 51
82.4516118993341252
  0
LINE
  5
6E1C
  8
0
 10
4060.9340559878987733
 20
125.8517800673622986
 30
0.0
 11
4060.9340559878987733
 21
127.7722127228536948
 31
0.0
  0
LINE
  5
6E1D
  8
0
 10
4060.9440003053960027
 20
125.8518362286998951
 30
0.0
 11
4060.9440003053960027
 21
127.7721565615161978
 31
0.0
  0
LINE
  5
6E1E
  8
0
 10
4061.0782289358608068
 20
125.8773985744284971
 30
0.0
 11
4061.0782289358608068
 21
126.8862169829992013
 31
0.0
  0
LINE
  5
6E1F
  8
0
 10
4061.0954358323879205
 20
125.8791059574170959
 30
0.0
 11
4061.0954358323879205
 21
126.8783666578690941
 31
0.0
  0
LINE
  5
6E20
  8
0
 10
4061.7140332935978222
 20
125.8517800673622986
 30
0.0
 11
4061.7140332935978222
 21
127.7722127228536948
 31
0.0
  0
LINE
  5
6E21
  8
0
 10
4061.7040889761010476
 20
125.8518362286998951
 30
0.0
 11
4061.7040889761010476
 21
127.7721565615161978
 31
0.0
  0
LINE
  5
6E22
  8
0
 10
4061.5698603456348792
 20
125.8773985744284971
 30
0.0
 11
4061.5698603456348792
 21
126.8862169829992013
 31
0.0
  0
LINE
  5
6E23
  8
0
 10
4061.552653449106856
 20
125.8791059574170959
 30
0.0
 11
4061.552653449106856
 21
126.8783666578690941
 31
0.0
  0
ARC
  5
6E24
  8
0
 10
4061.3240446407480704
 20
125.8517800673622986
 30
0.0
 40
0.3899886528499987
 50
180.0
 51
0.0
  0
ARC
  5
6E25
  8
0
 10
4061.3240446407480704
 20
125.8518362286998951
 30
0.0
 40
0.3800443353525837
 50
180.0
 51
0.0
  0
ARC
  5
6E26
  8
0
 10
4061.3240446407480704
 20
125.8773985744284971
 30
0.0
 40
0.2458157048870559
 50
180.0
 51
0.0
  0
ARC
  5
6E27
  8
0
 10
4061.3240446407480704
 20
125.8791059574170959
 30
0.0
 40
0.22860880835992
 50
180.0
 51
0.0
  0
ARC
  5
6E28
  8
0
 10
4061.3240446407480704
 20
127.7722127228536948
 30
0.0
 40
0.3899886528499987
 50
0.0
 51
180.0
  0
ARC
  5
6E29
  8
0
 10
4061.3240446407480704
 20
127.7721565615161978
 30
0.0
 40
0.3800443353525837
 50
0.0
 51
180.0
  0
ARC
  5
6E2A
  8
0
 10
4061.3240446407480704
 20
126.8862169829992013
 30
0.0
 40
0.2458157048870559
 50
0.0
 51
180.0
  0
ARC
  5
6E2B
  8
0
 10
4061.3240446407480704
 20
126.8783666578690941
 30
0.0
 40
0.22860880835992
 50
0.0
 51
180.0
  0
ARC
  5
6E2C
  8
0
 10
4061.3240446407480704
 20
126.8422885380409042
 30
0.0
 40
0.22860880835992
 50
0.0
 51
180.0
  0
ARC
  5
6E2D
  8
0
 10
4061.3240446407480704
 20
125.9230643287066016
 30
0.0
 40
0.22860880835992
 50
180.0
 51
0.0
  0
LINE
  5
6E2E
  8
0
 10
4061.5698603456348792
 20
126.1113598327626022
 30
0.0
 11
4061.552653449106856
 21
126.1113598327626022
 31
0.0
  0
LINE
  5
6E2F
  8
0
 10
4061.0954358323879205
 20
126.1113598327626022
 30
0.0
 11
4061.0782289358608068
 21
126.1113598327626022
 31
0.0
  0
LINE
  5
6E30
  8
0
 10
4061.5698603456348792
 20
126.2238802558981945
 30
0.0
 11
4061.552653449106856
 21
126.2238802558981945
 31
0.0
  0
LINE
  5
6E31
  8
0
 10
4061.0954358323879205
 20
126.2238802558981945
 30
0.0
 11
4061.0782289358608068
 21
126.2238802558981945
 31
0.0
  0
LINE
  5
6E32
  8
0
 10
4061.5698603456348792
 20
126.4320168469438954
 30
0.0
 11
4061.552653449106856
 21
126.4320168469438954
 31
0.0
  0
LINE
  5
6E33
  8
0
 10
4061.0954358323879205
 20
126.4320168469438954
 30
0.0
 11
4061.0782289358608068
 21
126.4320168469438954
 31
0.0
  0
LINE
  5
6E34
  8
0
 10
4061.5698603456348792
 20
126.5896883996695976
 30
0.0
 11
4061.552653449106856
 21
126.574608565661805
 31
0.0
  0
LINE
  5
6E35
  8
0
 10
4061.5698603456348792
 20
126.7310444277808017
 30
0.0
 11
4061.552653449106856
 21
126.7008329630714059
 31
0.0
  0
LINE
  5
6E36
  8
0
 10
4061.5698603456348792
 20
126.7328969130563934
 30
0.0
 11
4061.552653449106856
 21
126.7033938222183025
 31
0.0
  0
LINE
  5
6E37
  8
0
 10
4061.0782289358608068
 20
126.5896883996695976
 30
0.0
 11
4061.0954358323879205
 21
126.574608565661805
 31
0.0
  0
LINE
  5
6E38
  8
0
 10
4061.0782289358608068
 20
126.7310444277808017
 30
0.0
 11
4061.0954358323879205
 21
126.7008329630714059
 31
0.0
  0
LINE
  5
6E39
  8
0
 10
4061.0782289358608068
 20
126.7328969130563934
 30
0.0
 11
4061.0954358323879205
 21
126.7033938222183025
 31
0.0
  0
LINE
  5
6E3A
  8
0
 10
4061.1279702923129662
 20
126.9959117009184979
 30
0.0
 11
4061.110203530562103
 21
127.0074495708765028
 31
0.0
  0
LINE
  5
6E3B
  8
0
 10
4061.1206632155349325
 20
126.9827600634936005
 30
0.0
 11
4061.1031757913528963
 21
126.9941165295030032
 31
0.0
  0
LINE
  5
6E3C
  8
0
 10
4061.5091953579981237
 20
127.0479098173207007
 30
0.0
 11
4061.5091953579981237
 21
127.0124606516256023
 31
0.0
  0
ARC
  5
6E3D
  8
0
 10
4061.5015974233028828
 20
127.035401515753307
 30
0.0
 40
0.0077851412167949
 50
227.8548866831777957
 51
347.4096150534330718
  0
ARC
  5
6E3E
  8
0
 10
4061.3241542688670052
 20
126.850608438217904
 30
0.0
 40
0.2484107786142802
 50
46.1093609759144982
 51
48.0264683288598775
  0
ARC
  5
6E3F
  8
0
 10
4061.3241559878979388
 20
126.8506103119473067
 30
0.0
 40
0.2677165353999581
 50
116.1789687039892982
 51
139.1520463164424939
  0
LINE
  5
6E40
  8
0
 10
4061.2060457516981842
 20
127.0908645843990996
 30
0.0
 11
4061.2060457516981842
 21
127.1018593326247981
 31
0.0
  0
ARC
  5
6E41
  8
0
 10
4061.3240559878981912
 20
126.8506103119473067
 30
0.0
 40
0.2716535432999299
 50
115.7480429918413023
 51
130.8464357924700039
  0
CIRCLE
  5
6E42
  8
0
 10
4061.3239374158979444
 20
127.7561364331473044
 30
0.0
 40
0.2954394638220129
  0
CIRCLE
  5
6E43
  8
0
 10
4061.3240945238981112
 20
127.7560645455473036
 30
0.0
 40
0.2755127556400918
  0
LINE
  5
6E44
  8
0
 10
4061.2059457516979819
 20
128.0049583906861983
 30
0.0
 11
4061.2059457516979819
 21
128.0269914570303911
 31
0.0
  0
LINE
  5
6E45
  8
0
 10
4061.1272055941990402
 20
127.563341874639093
 30
0.0
 11
4061.1272055941990402
 21
127.5357253011370062
 31
0.0
  0
LINE
  5
6E46
  8
0
 10
4061.0888312698980371
 20
127.8994468311963999
 30
0.0
 11
4061.0888312698980371
 21
127.9350486375847993
 31
0.0
  0
LINE
  5
6E47
  8
0
 10
4061.0799614997981735
 20
127.6283682454278932
 30
0.0
 11
4061.0799614997981735
 21
127.5895224206914946
 31
0.0
  0
LINE
  5
6E48
  8
0
 10
4061.2059457516979819
 20
127.4930809094668973
 30
0.0
 11
4061.2059457516979819
 21
127.485281409264104
 31
0.0
  0
LINE
  5
6E49
  8
0
 10
4061.1773596883708706
 20
127.5216211334097949
 30
0.0
 11
4061.2015171532780187
 21
127.5022951614034952
 31
0.0
  0
ARC
  5
6E4A
  8
0
 10
4061.139033457331152
 20
127.5183557692836018
 30
0.0
 40
0.0118938686180361
 50
89.1553943226965515
 51
112.0979935517226949
  0
ARC
  5
6E4B
  8
0
 10
4061.142824240023856
 20
54.0193598612716031
 30
0.0
 40
73.510888573284646
 50
89.9920803925055424
 51
90.0028179578253571
  0
ARC
  5
6E4C
  8
0
 10
4061.1527653950988679
 20
127.4908782669473055
 30
0.0
 40
0.0393700787000043
 50
51.3401923151960702
 51
89.6801830450413178
  0
ARC
  5
6E4D
  8
0
 10
4061.1941457516982155
 20
127.4930809094668973
 30
0.0
 40
0.0118
 50
0.0
 51
51.3401916302038686
  0
LINE
  5
6E4E
  8
0
 10
4061.4421662241988997
 20
127.4853848391143032
 30
0.0
 11
4061.4421662241988997
 21
127.5071341293489979
 31
0.0
  0
LINE
  5
6E4F
  8
0
 10
4061.4421662241988997
 20
128.0134919633472919
 30
0.0
 11
4061.4421662241988997
 21
128.0268880271802914
 31
0.0
  0
LINE
  5
6E50
  8
0
 10
4061.6078012828170358
 20
127.7142758365810948
 30
0.0
 11
4061.6163855134818732
 21
127.7142009231007052
 31
0.0
  0
ARC
  5
6E51
  8
0
 10
4061.6079043521808671
 20
127.726086410427996
 30
0.0
 40
0.0118110235748534
 50
206.5772001682925065
 51
269.4999998521400926
  0
LINE
  5
6E52
  8
0
 10
4061.4707287021619777
 20
127.9906419808562958
 30
0.0
 11
4061.4421662241988997
 21
128.0134919633472919
 31
0.0
  0
ARC
  5
6E53
  8
0
 10
4061.4954023352888726
 20
128.0214599740413064
 30
0.0
 40
0.0394783089257777
 50
231.318388800566197
 51
271.5386990345132858
  0
ARC
  5
6E54
  8
0
 10
4061.5000297182950817
 20
129.1689281784123011
 30
0.0
 40
1.186937638793699
 50
269.8277989651164148
 51
270.4825538978901136
  0
ARC
  5
6E55
  8
0
 10
4061.5090953579979214
 20
127.9938069239474032
 30
0.0
 40
0.0118110236000931
 50
274.5201061217204028
 51
291.4518632450157156
  0
LINE
  5
6E56
  8
0
 10
4061.5431265782740411
 20
126.9977000104928067
 30
0.0
 11
4061.5431265782740411
 21
127.5580440610565063
 31
0.0
  0
LINE
  5
6E57
  8
0
 10
4061.1049851920970468
 20
126.9977441936960929
 30
0.0
 11
4061.1049851920970468
 21
127.5577822033560977
 31
0.0
  0
LINE
  5
6E58
  8
0
 10
4061.6705126808979003
 20
130.0017914143473092
 30
0.0
 11
4060.9775992949980719
 21
130.0017914143473092
 31
0.0
  0
LINE
  5
6E59
  8
0
 10
4060.9579142556981424
 20
129.9821063749473069
 30
0.0
 11
4060.9775992949980719
 21
130.0017914143473092
 31
0.0
  0
LINE
  5
6E5A
  8
0
 10
4060.9579142556981424
 20
129.8473799254473136
 30
0.0
 11
4060.9579142556981424
 21
129.831192115416286
 31
0.0
  0
LINE
  5
6E5B
  8
0
 10
4060.9579142556981424
 20
129.775967751847304
 30
0.0
 11
4060.9579142556981424
 21
129.759772596642307
 31
0.0
  0
LINE
  5
6E5C
  8
0
 10
4060.9579142556981424
 20
129.7045538248472951
 30
0.0
 11
4060.9579142556981424
 21
129.649632731747289
 31
0.0
  0
LINE
  5
6E5D
  8
0
 10
4060.9579142556981424
 20
129.9026045121590016
 30
0.0
 11
4060.9579142556981424
 21
129.9187988920496934
 31
0.0
  0
LINE
  5
6E5E
  8
0
 10
4060.9142275027979849
 20
129.9512389544898099
 30
0.0
 11
4060.9579142556981424
 21
129.9740178919500124
 31
0.0
  0
LINE
  5
6E5F
  8
0
 10
4060.9142275027979849
 20
129.8798264320539033
 30
0.0
 11
4060.9142275027979849
 21
129.8701576447438981
 31
0.0
  0
LINE
  5
6E60
  8
0
 10
4060.9142275027979849
 20
129.8084142952561137
 30
0.0
 11
4060.9142275027979849
 21
129.798745838207509
 31
0.0
  0
LINE
  5
6E61
  8
0
 10
4060.9142275027979849
 20
129.7369937989853952
 30
0.0
 11
4060.9142275027979849
 21
129.7273327419750046
 31
0.0
  0
LINE
  5
6E62
  8
0
 10
4060.9142275027979849
 20
129.941577483020211
 30
0.0
 11
4060.9142275027979849
 21
129.9512389544898099
 31
0.0
  0
LINE
  5
6E63
  8
0
 10
4060.9579142556981424
 20
129.7045538248472951
 30
0.0
 11
4060.9142275027979849
 21
129.7273327419750046
 31
0.0
  0
LINE
  5
6E64
  8
0
 10
4060.9579142556981424
 20
129.759772596642307
 30
0.0
 11
4060.9142275027979849
 21
129.7369937989853952
 31
0.0
  0
LINE
  5
6E65
  8
0
 10
4060.9579142556981424
 20
129.775967751847304
 30
0.0
 11
4060.9142275027979849
 21
129.798745838207509
 31
0.0
  0
LINE
  5
6E66
  8
0
 10
4060.9142275027979849
 20
129.8084142952561137
 30
0.0
 11
4060.9579142556981424
 21
129.831192115416286
 31
0.0
  0
LINE
  5
6E67
  8
0
 10
4060.9579142556981424
 20
129.8473799254473136
 30
0.0
 11
4060.9142275027979849
 21
129.8701576447438981
 31
0.0
  0
LINE
  5
6E68
  8
0
 10
4060.9142275027979849
 20
129.8798264320539033
 30
0.0
 11
4060.9579142556981424
 21
129.9026045121590016
 31
0.0
  0
LINE
  5
6E69
  8
0
 10
4060.9579142556981424
 20
129.9187988920496934
 30
0.0
 11
4060.9142275027979849
 21
129.941577483020211
 31
0.0
  0
LINE
  5
6E6A
  8
0
 10
4060.9579142556981424
 20
129.9821063749473069
 30
0.0
 11
4060.9579142556981424
 21
129.9740178919500124
 31
0.0
  0
LINE
  5
6E6B
  8
0
 10
4061.6901750257979984
 20
129.8120918563076032
 30
0.0
 11
4061.6901750257979984
 21
129.7959040462766893
 31
0.0
  0
LINE
  5
6E6C
  8
0
 10
4061.6901750257979984
 20
129.7406796827075937
 30
0.0
 11
4061.6901750257979984
 21
129.7244845275025966
 31
0.0
  0
LINE
  5
6E6D
  8
0
 10
4061.6901750257979984
 20
129.6692657557076132
 30
0.0
 11
4061.6901750257979984
 21
129.649632731747289
 31
0.0
  0
LINE
  5
6E6E
  8
0
 10
4061.6901750257979984
 20
129.8673164430192912
 30
0.0
 11
4061.6901750257979984
 21
129.8835108229100115
 31
0.0
  0
LINE
  5
6E6F
  8
0
 10
4061.7338617786981558
 20
129.9159508853500995
 30
0.0
 11
4061.6901750257979984
 21
129.9387298228103873
 31
0.0
  0
LINE
  5
6E70
  8
0
 10
4061.7338617786981558
 20
129.8445383629141929
 30
0.0
 11
4061.7338617786981558
 21
129.8348695756041877
 31
0.0
  0
LINE
  5
6E71
  8
0
 10
4061.7338617786981558
 20
129.7731262261164886
 30
0.0
 11
4061.7338617786981558
 21
129.7634577690677986
 31
0.0
  0
LINE
  5
6E72
  8
0
 10
4061.7338617786981558
 20
129.7017057298457132
 30
0.0
 11
4061.7338617786981558
 21
129.6920446728352943
 31
0.0
  0
LINE
  5
6E73
  8
0
 10
4061.7338617786981558
 20
129.9062894138805859
 30
0.0
 11
4061.7338617786981558
 21
129.9159508853500995
 31
0.0
  0
LINE
  5
6E74
  8
0
 10
4061.6901750257979984
 20
129.6692657557076132
 30
0.0
 11
4061.7338617786981558
 21
129.6920446728352943
 31
0.0
  0
LINE
  5
6E75
  8
0
 10
4061.6901750257979984
 20
129.7244845275025966
 30
0.0
 11
4061.7338617786981558
 21
129.7017057298457132
 31
0.0
  0
LINE
  5
6E76
  8
0
 10
4061.6901750257979984
 20
129.7406796827075937
 30
0.0
 11
4061.7338617786981558
 21
129.7634577690677986
 31
0.0
  0
LINE
  5
6E77
  8
0
 10
4061.7338617786981558
 20
129.7731262261164886
 30
0.0
 11
4061.6901750257979984
 21
129.7959040462766893
 31
0.0
  0
LINE
  5
6E78
  8
0
 10
4061.6901750257979984
 20
129.8120918563076032
 30
0.0
 11
4061.7338617786981558
 21
129.8348695756041877
 31
0.0
  0
LINE
  5
6E79
  8
0
 10
4061.7338617786981558
 20
129.8445383629141929
 30
0.0
 11
4061.6901750257979984
 21
129.8673164430192912
 31
0.0
  0
LINE
  5
6E7A
  8
0
 10
4061.6901750257979984
 20
129.8835108229100115
 30
0.0
 11
4061.7338617786981558
 21
129.9062894138805859
 31
0.0
  0
LINE
  5
6E7B
  8
0
 10
4061.6901750257979984
 20
129.9821290693473941
 30
0.0
 11
4061.6901750257979984
 21
129.9387298228103873
 31
0.0
  0
LINE
  5
6E7C
  8
0
 10
4061.6901750257979984
 20
129.9821290693473941
 30
0.0
 11
4061.6705126808979003
 21
130.0017914143473092
 31
0.0
  0
LINE
  5
6E7D
  8
0
 10
4060.9579142556981424
 20
129.9026045121590016
 30
0.0
 11
4061.6901750257979984
 21
129.9387298228103873
 31
0.0
  0
LINE
  5
6E7E
  8
0
 10
4060.9142275027979849
 20
129.8798264320539033
 30
0.0
 11
4061.7338617786981558
 21
129.9159508853500995
 31
0.0
  0
LINE
  5
6E7F
  8
0
 10
4061.7338617786981558
 20
129.9062894138805859
 30
0.0
 11
4060.9142275027979849
 21
129.8701576447438981
 31
0.0
  0
LINE
  5
6E80
  8
0
 10
4060.9579142556981424
 20
129.8473799254473136
 30
0.0
 11
4061.6901750257979984
 21
129.8835108229100115
 31
0.0
  0
LINE
  5
6E81
  8
0
 10
4061.6901750257979984
 20
129.8673164430192912
 30
0.0
 11
4060.9579142556981424
 21
129.831192115416286
 31
0.0
  0
LINE
  5
6E82
  8
0
 10
4060.9142275027979849
 20
129.8084142952561137
 30
0.0
 11
4061.7338617786981558
 21
129.8445383629141929
 31
0.0
  0
LINE
  5
6E83
  8
0
 10
4061.7338617786981558
 20
129.8348695756041877
 30
0.0
 11
4060.9142275027979849
 21
129.798745838207509
 31
0.0
  0
LINE
  5
6E84
  8
0
 10
4060.9579142556981424
 20
129.775967751847304
 30
0.0
 11
4061.6901750257979984
 21
129.8120918563076032
 31
0.0
  0
LINE
  5
6E85
  8
0
 10
4061.6901750257979984
 20
129.7959040462766893
 30
0.0
 11
4060.9579142556981424
 21
129.759772596642307
 31
0.0
  0
LINE
  5
6E86
  8
0
 10
4060.9142275027979849
 20
129.7369937989853952
 30
0.0
 11
4061.7338617786981558
 21
129.7731262261164886
 31
0.0
  0
LINE
  5
6E87
  8
0
 10
4061.7338617786981558
 20
129.7634577690677986
 30
0.0
 11
4060.9142275027979849
 21
129.7273327419750046
 31
0.0
  0
LINE
  5
6E88
  8
0
 10
4060.9579142556981424
 20
129.7045538248472951
 30
0.0
 11
4061.6901750257979984
 21
129.7406796827075937
 31
0.0
  0
LINE
  5
6E89
  8
0
 10
4061.6901750257979984
 20
129.7244845275025966
 30
0.0
 11
4061.3240446407480704
 21
129.6852689668403968
 31
0.0
  0
LINE
  5
6E8A
  8
0
 10
4061.6901750257979984
 20
129.6692657557076132
 30
0.0
 11
4061.3245574722568563
 21
129.6614077933938063
 31
0.0
  0
LINE
  5
6E8B
  8
0
 10
4061.3242291926171674
 20
129.6766820838606122
 30
0.0
 11
4061.7338617786981558
 21
129.7017057298457132
 31
0.0
  0
LINE
  5
6E8C
  8
0
 10
4061.3244365587020184
 20
129.6670336944349913
 30
0.0
 11
4061.7338617786981558
 21
129.6920446728352943
 31
0.0
  0
LINE
  5
6E8D
  8
0
 10
4060.9579142556981424
 20
129.9187988920496934
 30
0.0
 11
4061.2734148781978547
 21
129.9543398345213063
 31
0.0
  0
LINE
  5
6E8E
  8
0
 10
4060.9142275027979849
 20
129.941577483020211
 30
0.0
 11
4061.2734148781978547
 21
129.9580451956481113
 31
0.0
  0
LINE
  5
6E8F
  8
0
 10
4060.9142275027979849
 20
129.9512389544898099
 30
0.0
 11
4061.2734148781978547
 21
129.9672415134816958
 31
0.0
  0
LINE
  5
6E90
  8
0
 10
4060.9579142556981424
 20
129.9740178919500124
 30
0.0
 11
4061.2734148781978547
 21
129.9694696048175047
 31
0.0
  0
LINE
  5
6E91
  8
0
 10
4061.2734148781978547
 20
129.9543398345213063
 30
0.0
 11
4061.2734148781978547
 21
129.9694696048175047
 31
0.0
  0
LINE
  5
6E92
  8
0
 10
4061.3240446407480704
 20
129.6852689668403968
 30
0.0
 11
4061.3245574722568563
 21
129.6614077933938063
 31
0.0
  0
ENDSEC
  0
EOF
