  0
SECTION
  2
HEADER
  9
$ACADVER
  1
AC1009
  9
$INSBASE
 10
479.9977062183343719
 20
-6.4245089206397754
 30
0.0
  9
$EXTMIN
 10
475.9814360031032265
 20
-12.2950176137144407
 30
-0.0000000000000058
  9
$EXTMAX
 10
484.005056408045391
 20
-6.41684140574145
 30
0.0000000000000104
  9
$LIMMIN
 10
0.0
 20
0.0
  9
$LIMMAX
 10
11.6929133858000007
 20
8.2677165353999982
  9
$ORTHOMODE
 70
     0
  9
$REGENMODE
 70
     1
  9
$FILLMODE
 70
     1
  9
$QTEXTMODE
 70
     0
  9
$MIRRTEXT
 70
     0
  9
$DRAGMODE
 70
     2
  9
$LTSCALE
 40
0.6431102362
  9
$OSMODE
 70
  4095
  9
$ATTMODE
 70
     1
  9
$TEXTSIZE
 40
0.2
  9
$TRACEWID
 40
0.05
  9
$TEXTSTYLE
  7
STANDARD
  9
$CLAYER
  8
0
  9
$CELTYPE
  6
BYLAYER
  9
$CECOLOR
 62
   256
  9
$DIMSCALE
 40
1.0
  9
$DIMASZ
 40
0.1875
  9
$DIMEXO
 40
0.0625
  9
$DIMDLI
 40
0.4443307087
  9
$DIMRND
 40
0.0
  9
$DIMDLE
 40
0.0
  9
$DIMEXE
 40
0.125
  9
$DIMTP
 40
0.01
  9
$DIMTM
 40
0.01
  9
$DIMTXT
 40
1.0
  9
$DIMCEN
 40
0.1052362205
  9
$DIMTSZ
 40
0.0
  9
$DIMTOL
 70
     1
  9
$DIMLIM
 70
     0
  9
$DIMTIH
 70
     1
  9
$DIMTOH
 70
     1
  9
$DIMSE1
 70
     0
  9
$DIMSE2
 70
     0
  9
$DIMTAD
 70
     0
  9
$DIMZIN
 70
     0
  9
$DIMBLK
  1

  9
$DIMASO
 70
     1
  9
$DIMSHO
 70
     1
  9
$DIMPOST
  1
\X
  9
$DIMAPOST
  1

  9
$DIMALT
 70
     1
  9
$DIMALTD
 70
     2
  9
$DIMALTF
 40
25.3999999999999986
  9
$DIMLFAC
 40
1.0
  9
$DIMTOFL
 70
     0
  9
$DIMTVP
 40
0.0
  9
$DIMTIX
 70
     0
  9
$DIMSOXD
 70
     0
  9
$DIMSAH
 70
     0
  9
$DIMBLK1
  1

  9
$DIMBLK2
  1

  9
$DIMSTYLE
  2
STANDARD
  9
$DIMCLRD
 70
     0
  9
$DIMCLRE
 70
     0
  9
$DIMCLRT
 70
     0
  9
$DIMTFAC
 40
1.0
  9
$DIMGAP
 40
0.09
  9
$LUNITS
 70
     2
  9
$LUPREC
 70
     4
  9
$SKETCHINC
 40
0.1
  9
$FILLETRAD
 40
0.0
  9
$AUNITS
 70
     0
  9
$AUPREC
 70
     0
  9
$MENU
  1
.
  9
$ELEVATION
 40
0.0
  9
$PELEVATION
 40
0.0
  9
$THICKNESS
 40
0.0
  9
$LIMCHECK
 70
     0
  9
$BLIPMODE
 70
     0
  9
$CHAMFERA
 40
0.0
  9
$CHAMFERB
 40
0.0
  9
$SKPOLY
 70
     0
  9
$TDCREATE
 40
2458228.42023148201406
  9
$TDUPDATE
 40
2459270.4157754629850388
  9
$TDINDWG
 40
0.0682233333
  9
$TDUSRTIMER
 40
0.0682233333
  9
$USRTIMER
 70
     1
  9
$ANGBASE
 50
0.0
  9
$ANGDIR
 70
     0
  9
$PDMODE
 70
     0
  9
$PDSIZE
 40
0.3125
  9
$PLINEWID
 40
0.0
  9
$COORDS
 70
     1
  9
$SPLFRAME
 70
     0
  9
$SPLINETYPE
 70
     6
  9
$SPLINESEGS
 70
     8
  9
$ATTDIA
 70
     1
  9
$ATTREQ
 70
     1
  9
$HANDLING
 70
     1
  9
$HANDSEED
  5
30C5
  9
$SURFTAB1
 70
     6
  9
$SURFTAB2
 70
     6
  9
$SURFTYPE
 70
     6
  9
$SURFU
 70
     6
  9
$SURFV
 70
     6
  9
$UCSNAME
  2

  9
$UCSORG
 10
0.0
 20
0.0
 30
0.0
  9
$UCSXDIR
 10
1.0
 20
0.0
 30
0.0
  9
$UCSYDIR
 10
0.0
 20
1.0
 30
0.0
  9
$PUCSNAME
  2

  9
$PUCSORG
 10
0.0
 20
0.0
 30
0.0
  9
$PUCSXDIR
 10
1.0
 20
0.0
 30
0.0
  9
$PUCSYDIR
 10
0.0
 20
1.0
 30
0.0
  9
$USERI1
 70
     0
  9
$USERI2
 70
     0
  9
$USERI3
 70
     0
  9
$USERI4
 70
     0
  9
$USERI5
 70
     0
  9
$USERR1
 40
0.0
  9
$USERR2
 40
0.0
  9
$USERR3
 40
0.0
  9
$USERR4
 40
0.0
  9
$USERR5
 40
0.0
  9
$WORLDVIEW
 70
     1
  9
$SHADEDGE
 70
     3
  9
$SHADEDIF
 70
    70
  9
$TILEMODE
 70
     1
  9
$MAXACTVP
 70
    64
  9
$PLIMCHECK
 70
     0
  9
$PEXTMIN
 10
1.0000000000000000E+20
 20
1.0000000000000000E+20
 30
1.0000000000000000E+20
  9
$PEXTMAX
 10
-1.0000000000000000E+20
 20
-1.0000000000000000E+20
 30
-1.0000000000000000E+20
  9
$PLIMMIN
 10
0.0
 20
0.0
  9
$PLIMMAX
 10
12.0
 20
9.0
  9
$UNITMODE
 70
     0
  9
$VISRETAIN
 70
     1
  9
$PLINEGEN
 70
     0
  9
$PSLTSCALE
 70
     1
  0
ENDSEC
  0
SECTION
  2
TABLES
  0
TABLE
  2
VPORT
 70
     1
  0
VPORT
  2
*ACTIVE
 70
     0
 10
0.0
 20
0.0
 11
1.0
 21
1.0
 12
140.949694865572809
 22
-10.1120838111528606
 13
0.0
 23
0.0
 14
1.0
 24
1.0
 15
0.0
 25
0.0
 16
-0.0000000000000568
 26
0.0
 36
178.0733968168455874
 17
339.0435513400014997
 27
0.7561543014249166
 37
0.0
 40
5.9538608801786532
 41
2.9182795698924728
 42
50.0
 43
0.0
 44
0.0
 50
0.0
 51
0.0
 71
     0
 72
   100
 73
     1
 74
     1
 75
     0
 76
     0
 77
     0
 78
     0
  0
ENDTAB
  0
TABLE
  2
LTYPE
 70
     2
  0
LTYPE
  2
CONTINUOUS
 70
     0
  3
Solid line
 72
    65
 73
     0
 40
0.0
  0
LTYPE
  2
PHANTOM2
 70
     0
  3
___ _ _ ___ _ _ ___ _ _ ___ _ _
 72
    65
 73
     6
 40
1.25
 49
0.625
 49
-0.125
 49
0.125
 49
-0.125
 49
0.125
 49
-0.125
  0
ENDTAB
  0
TABLE
  2
LAYER
 70
     2
  0
LAYER
  2
0
 70
     0
 62
   255
  6
CONTINUOUS
  0
LAYER
  2
DEFPOINTS
 70
     0
 62
     7
  6
CONTINUOUS
  0
ENDTAB
  0
TABLE
  2
STYLE
 70
     1
  0
STYLE
  2
STANDARD
 70
     0
 40
0.0
 41
0.8
 50
0.0
 71
     0
 42
0.2
  3
txt
  4

  0
ENDTAB
  0
TABLE
  2
VIEW
 70
     0
  0
ENDTAB
  0
TABLE
  2
UCS
 70
     0
  0
ENDTAB
  0
TABLE
  2
APPID
 70
     9
  0
APPID
  2
ACAD
 70
     0
  0
APPID
  2
ACAD_MLEADERVER
 70
     0
  0
APPID
  2
ACAD_EXEMPT_FROM_CAD_STANDARDS
 70
     0
  0
APPID
  2
ACAD_NAV_VCDISPLAY
 70
     0
  0
APPID
  2
ACAD_DSTYLE_DIMJAG
 70
     0
  0
APPID
  2
ACAD_DSTYLE_DIMTALN
 70
     0
  0
APPID
  2
ACAECLAYERSTANDARD
 70
     0
  0
APPID
  2
ACCMTRANSPARENCY
 70
     0
  0
APPID
  2
ACDBATTR
 70
     0
  0
ENDTAB
  0
TABLE
  2
DIMSTYLE
 70
     1
  0
DIMSTYLE
  2
STANDARD
 70
     0
  3

  4

  5

  6

  7

 40
1.0
 41
0.1875
 42
0.0625
 43
0.38
 44
0.125
 45
0.0
 46
0.0
 47
0.01
 48
0.01
140
0.15625
141
0.09
142
0.0
143
25.3999999999999986
144
1.0
145
0.0
146
1.0
147
0.09
 71
     1
 72
     0
 73
     1
 74
     1
 75
     0
 76
     0
 77
     0
 78
     4
170
     0
171
     2
172
     0
173
     0
174
     0
175
     0
176
     0
177
     0
178
     0
  0
ENDTAB
  0
ENDSEC
  0
SECTION
  2
BLOCKS
  0
BLOCK
  8
0
  2
$MODEL_SPACE
 70
     0
 10
0.0
 20
0.0
 30
0.0
  3
$MODEL_SPACE
  1

  0
ENDBLK
  5
21
  8
0
  0
BLOCK
 67
     1
  8
0
  2
$PAPER_SPACE
 70
     0
 10
0.0
 20
0.0
 30
0.0
  3
$PAPER_SPACE
  1

  0
ENDBLK
  5
1D
 67
     1
  8
0
  0
ENDSEC
  0
SECTION
  2
ENTITIES
  0
ATTDEF
  5
13E8
  8
DEFPOINTS
 10
479.9937986324350163
 20
-6.4192247201112229
 30
0.0
 40
0.001
  1
K-26290T
  3

  2
MODELNUMBER
 70
     0
1001
ACDBATTR
1070
     0
1070
     1
  0
ATTDEF
  5
13E9
  8
DEFPOINTS
 10
479.9937986324350163
 20
-6.4208913867778881
 30
0.0
 40
0.001
  1

  3

  2
TRADENAME
 70
     0
1001
ACDBATTR
1070
     0
1070
     1
  0
ATTDEF
  5
13EA
  8
DEFPOINTS
 10
479.9937986324350163
 20
-6.4225580534445541
 30
0.0
 40
0.001
  1
SHOWERHEAD
  3

  2
PRODUCT
 70
     0
1001
ACDBATTR
1070
     0
1070
     1
  0
ARC
  5
29C5
  8
0
 10
477.3899616697478905
 20
-10.3339872577744103
 30
0.0
 40
1.377245118995563
 50
166.8309667375197023
 51
179.5070369889693893
  0
ARC
  5
29C6
  8
0
 10
477.4796278902957738
 20
-10.3549671583434204
 30
0.0
 40
1.46933305162094
 50
153.9400219298489105
 51
166.8309667375197023
  0
ARC
  5
29C7
  8
0
 10
477.7058454035500858
 20
-10.4655941019328296
 30
0.0
 40
1.7211518038037881
 50
140.9085552761931126
 51
153.9400219298489105
  0
ARC
  5
29C8
  8
0
 10
478.0131096066785972
 20
-10.7152247743270799
 30
0.0
 40
2.1170391149469259
 50
126.6887499912021013
 51
140.9085552761931126
  0
ARC
  5
29C9
  8
0
 10
478.2181453563010223
 20
-10.9904140854010404
 30
0.0
 40
2.4602137287408521
 50
113.0570736962804972
 51
126.6887499912020019
  0
ARC
  5
29CA
  8
0
 10
478.571180449018982
 20
-11.8198146048192001
 30
0.0
 40
3.3616231797127569
 50
102.2539554528803052
 51
113.0570736962804972
  0
ARC
  5
29CB
  8
0
 10
479.2161246080110004
 20
-14.7892586120786493
 30
0.0
 40
6.4002989900727396
 50
95.751003078111907
 51
102.2539554528803052
  0
ARC
  5
29CC
  8
0
 10
479.212474207163325
 20
-14.7530128149425508
 30
0.0
 40
6.3638698364127961
 50
90.4098424568395984
 51
95.751003078111907
  0
ARC
  5
29CD
  8
0
 10
479.8375938074898954
 20
-30.5245277960320891
 30
0.0
 40
22.1453790259013203
 50
90.2479942525928465
 51
91.7353847127777868
  0
ARC
  5
29CE
  8
0
 10
476.6931339022215752
 20
374.3852643152333144
 30
0.0
 40
382.7767609663687267
 50
270.4563344391962119
 51
270.4946496708661812
  0
ARC
  5
29CF
  8
0
 10
480.8406442766245732
 20
118.9296053923757057
 30
0.0
 40
131.225791894904404
 50
269.4525892198324755
 51
269.6319540192624231
  0
ARC
  5
29D0
  8
0
 10
479.7568057361058891
 20
5.5788725627386562
 30
0.0
 40
17.8698774756356009
 50
267.1100143586483
 51
269.4552792611818859
  0
ARC
  5
29D1
  8
0
 10
479.0970401030672861
 20
-6.540990318498757
 30
0.0
 40
5.7323643263197406
 50
260.3265747547882256
 51
267.5884141222983885
  0
ARC
  5
29D2
  8
0
 10
478.8749686378653223
 20
-7.8545039976076998
 30
0.0
 40
4.4002120428144966
 50
250.0124305299873981
 51
260.3031547169293276
  0
ARC
  5
29D3
  8
0
 10
478.1991651516102024
 20
-9.7213108054103117
 30
0.0
 40
2.4148502291911429
 50
230.2273832179695887
 51
249.9410791765550073
  0
ARC
  5
29D4
  8
0
 10
477.8443050166126227
 20
-10.1224456041591608
 30
0.0
 40
1.879592316574711
 50
205.1649341526683088
 51
230.718739097183402
  0
ARC
  5
29D5
  8
0
 10
477.4645823653190178
 20
-10.3200486770401891
 30
0.0
 40
1.45198827497882
 50
185.4820042417887009
 51
204.4790860438608036
  0
ARC
  5
29D6
  8
0
 10
477.2049954642345142
 20
-10.3341643107204693
 30
0.0
 40
1.1922885944041659
 50
179.4220538553855988
 51
185.9985129669163086
  0
LINE
  5
29D7
  8
0
 10
476.0147537678137155
 20
-10.0954950264206804
 30
0.0
 11
476.0127713812909178
 21
-10.3216979463013505
 31
0.0
  0
ARC
  5
29D8
  8
0
 10
484.263017733507013
 20
-10.1256035601605401
 30
0.0
 40
8.2483189179104457
 50
177.7403487955259038
 51
179.7908548688781991
  0
ARC
  5
29D9
  8
0
 10
478.0618893096864213
 20
-9.8809143904945618
 30
0.0
 40
2.0423647996086429
 50
166.3279994439049858
 51
177.7403487955261028
  0
ARC
  5
29DA
  8
0
 10
478.1318968405361147
 20
-9.8979441467513372
 30
0.0
 40
2.114413859101707
 50
149.201909533533609
 51
166.3279994439047869
  0
ARC
  5
29DB
  8
0
 10
478.0744677161832783
 20
-9.8637121118685478
 30
0.0
 40
2.0475562751179219
 50
129.6156151708690913
 51
149.201909533533609
  0
ARC
  5
29DC
  8
0
 10
478.4212540934851177
 20
-10.2826722980698904
 30
0.0
 40
2.5914206231900918
 50
111.4005459550496937
 51
129.6156151708690913
  0
ARC
  5
29DD
  8
0
 10
478.7454470947470782
 20
-11.1098921327862996
 30
0.0
 40
3.479898961145206
 50
96.0386757447480761
 51
111.4005459550496937
  0
ARC
  5
29DE
  8
0
 10
479.5460965762691217
 20
-18.6784147289160884
 30
0.0
 40
11.0906527924281892
 50
92.243394972457267
 51
96.0386757447480761
  0
ARC
  5
29DF
  8
0
 10
479.755620490292813
 20
-24.0268712823612312
 30
0.0
 40
16.4432117855302913
 50
90.4090312596124619
 51
92.243394972457267
  0
ARC
  5
29E0
  8
0
 10
479.3764557181345936
 20
71.8511969471194192
 30
0.0
 40
79.4357067962119174
 50
270.1888173271019014
 51
270.448103201800393
  0
ARC
  5
29E1
  8
0
 10
479.1947812876978219
 20
98.622841956583855
 30
0.0
 40
107.0632210230969008
 50
270.345299286231409
 51
270.4296960300580963
  0
ARC
  5
29E2
  8
0
 10
479.9881661936715886
 20
-37.4643356446972717
 30
0.0
 40
29.0262789765433098
 50
90.2924595844776547
 51
91.4514460568881162
  0
ARC
  5
29E3
  8
0
 10
479.3812868955158137
 20
-17.622091321788151
 30
0.0
 40
9.1756192875624318
 50
90.8014924554703242
 51
94.7711467138305892
  0
ARC
  5
29E4
  8
0
 10
479.0926935791321171
 20
-14.1644442242244502
 30
0.0
 40
5.705949338770175
 50
94.7711467138305892
 51
98.0437385453728041
  0
ARC
  5
29E5
  8
0
 10
478.9295409311939125
 20
-13.0099482866006806
 30
0.0
 40
4.5399820765715138
 50
98.0437385453728041
 51
105.1594835670236989
  0
ARC
  5
29E6
  8
0
 10
478.6563729120841231
 20
-12.0722373042283593
 30
0.0
 40
3.563514345879796
 50
104.8629230759626978
 51
112.3612341512242949
  0
ARC
  5
29E7
  8
0
 10
478.1986643609488965
 20
-10.9241173409389791
 30
0.0
 40
2.3276351795679582
 50
112.6936841664205957
 51
122.2216615106165989
  0
ARC
  5
29E8
  8
0
 10
478.8093633066509938
 20
-11.6844379279163295
 30
0.0
 40
3.29835894696566
 50
124.1544852247394033
 51
132.3437997311552863
  0
ARC
  5
29E9
  8
0
 10
477.6151447422693082
 20
-10.3740226870690009
 30
0.0
 40
1.5254105317660309
 50
132.3437997311552863
 51
158.2020732572279087
  0
ARC
  5
29EA
  8
0
 10
477.5133388605560185
 20
-10.3333075126434295
 30
0.0
 40
1.415764907229931
 50
158.2020732572279087
 51
179.1431777809785046
  0
ARC
  5
29EB
  8
0
 10
477.4499777408103114
 20
-10.3323599164504891
 30
0.0
 40
1.3523967020007339
 50
179.1431777809785046
 51
196.938208301397907
  0
ARC
  5
29EC
  8
0
 10
477.622360540914201
 20
-10.2798604251987804
 30
0.0
 40
1.5325966641353681
 50
196.938208301397907
 51
216.2192142033102016
  0
ARC
  5
29ED
  8
0
 10
478.0453491851952208
 20
-9.9700616497057641
 30
0.0
 40
2.056900654667241
 50
216.2192142033102016
 51
239.9013954473822992
  0
ARC
  5
29EE
  8
0
 10
478.4107261815026959
 20
-9.3397178729283201
 30
0.0
 40
2.7854839555689082
 50
239.9013954473822992
 51
254.8783920987308136
  0
ARC
  5
29EF
  8
0
 10
479.1101658477551268
 20
-6.7513607589422078
 30
0.0
 40
5.4666792853145507
 50
254.8783920987308136
 51
268.6353163549997021
  0
ARC
  5
29F0
  8
0
 10
479.9226133705698203
 20
12.3204846901088292
 30
0.0
 40
24.5550743153208693
 50
267.7999386049258987
 51
269.6305268123005021
  0
ARC
  5
29F1
  8
0
 10
477.933595628898388
 20
-299.4766800766107053
 30
0.0
 40
287.2484346260902157
 50
89.5882802871216057
 51
89.6348434292753922
  0
ARC
  5
29F2
  8
0
 10
479.3669445866846104
 20
-11.9214516115271891
 30
0.0
 40
0.0623265497818235
 50
226.0450456619936972
 51
247.9147765622944064
  0
ARC
  5
29F3
  8
0
 10
479.3737854111986962
 20
-11.9045770878469099
 30
0.0
 40
0.0805349655398101
 50
247.9188243149924062
 51
293.6930093019078072
  0
ARC
  5
29F4
  8
0
 10
479.3812632025973244
 20
-11.9216176208882008
 30
0.0
 40
0.0619259050978465
 50
293.6930093019079209
 51
318.9625005859310249
  0
ARC
  5
29F5
  8
0
 10
479.3993546677436939
 20
-11.9408793983437
 30
0.0
 40
0.0357319587324041
 50
323.2168900411004984
 51
6.5025298154933351
  0
ARC
  5
29F6
  8
0
 10
479.3953283349362096
 20
-11.9443425095635405
 30
0.0
 40
0.0402354453890804
 50
10.7569192706644099
 51
56.6970248530523406
  0
ARC
  5
29F7
  8
0
 10
479.3744861612598811
 20
-11.9760680964342701
 30
0.0
 40
0.0781947534155439
 50
56.6970248530523975
 51
87.8286877415523435
  0
ARC
  5
29F8
  8
0
 10
479.3743284437605894
 20
-11.9802278945797003
 30
0.0
 40
0.0823575403930777
 50
87.8286877415523435
 51
122.2506152881139059
  0
ARC
  5
29F9
  8
0
 10
479.3511441829726891
 20
-11.9434839394922196
 30
0.0
 40
0.0389106971964616
 50
122.2506152881139059
 51
173.0242081393816136
  0
ARC
  5
29FA
  8
0
 10
479.347963201727282
 20
-11.9404451388317998
 30
0.0
 40
0.0354818042957983
 50
177.2749741732841073
 51
226.8220448028787075
  0
LINE
  5
29FB
  8
0
 10
479.321300309787091
 20
-11.9638555773043098
 30
0.0
 11
479.2922343986452915
 21
-11.9332589966054297
 31
0.0
  0
LINE
  5
29FC
  8
0
 10
479.4279726765046803
 20
-11.96227524956333
 30
0.0
 11
479.4539018418432761
 21
-11.9353639425343498
 31
0.0
  0
ARC
  5
29FD
  8
0
 10
479.4054410543349718
 20
-11.8969519280806697
 30
0.0
 40
0.0618379396513073
 50
321.5982082253867134
 51
1.877345074315206
  0
ARC
  5
29FE
  8
0
 10
479.4097546024282224
 20
-11.8968105403974302
 30
0.0
 40
0.057522075006786
 50
1.877345074315206
 51
43.5765706829940669
  0
ARC
  5
29FF
  8
0
 10
479.374526553120802
 20
-11.9303303001024208
 30
0.0
 40
0.1061491225080473
 50
43.5765706829940669
 51
141.9584383097098907
  0
ARC
  5
2A00
  8
0
 10
479.3302463170696797
 20
-11.8956830319251896
 30
0.0
 40
0.0499248172932415
 50
141.9584383097098907
 51
187.8747685519116999
  0
ARC
  5
2A01
  8
0
 10
479.3555817650017161
 20
-11.8921788191564506
 30
0.0
 40
0.0755014556385329
 50
187.8747685519115009
 51
212.9630333740404922
  0
ARC
  5
2A02
  8
0
 10
479.3740430306500002
 20
-11.9336289450786808
 30
0.0
 40
0.0258080042944824
 50
223.3781753941451029
 51
308.8179401162057047
  0
ARC
  5
2A03
  8
0
 10
479.3830365172656798
 20
-11.94480741723482
 30
0.0
 40
0.0114608428591438
 50
308.8179401162053068
 51
34.7341718742865311
  0
ARC
  5
2A04
  8
0
 10
479.3739255033266886
 20
-11.9550364277573298
 30
0.0
 40
0.0249842217977774
 50
42.127714348747169
 51
140.5515126316049077
  0
ARC
  5
2A05
  8
0
 10
479.3636275375603759
 20
-11.9447943944342505
 30
0.0
 40
0.0106127840966445
 50
147.9450551060689065
 51
218.1775345892990003
  0
ARC
  5
2A06
  8
0
 10
478.7449896735847119
 20
-11.8961525222271902
 30
0.0
 40
0.0623265497818235
 50
226.0450456619936972
 51
247.9147765622944064
  0
ARC
  5
2A07
  8
0
 10
478.7518304980986841
 20
-11.8792779985469092
 30
0.0
 40
0.0805349655398101
 50
247.9188243149924062
 51
293.6930093019078072
  0
ARC
  5
2A08
  8
0
 10
478.7593082894973122
 20
-11.8963185315882001
 30
0.0
 40
0.0619259050978465
 50
293.6930093019079209
 51
318.9625005859310249
  0
ARC
  5
2A09
  8
0
 10
478.7773997546436817
 20
-11.9155803090436994
 30
0.0
 40
0.0357319587324041
 50
323.2168900411004984
 51
6.5025298154933351
  0
ARC
  5
2A0A
  8
0
 10
478.7733734218361974
 20
-11.9190434202635291
 30
0.0
 40
0.0402354453890804
 50
10.7569192706644099
 51
56.6970248530523406
  0
ARC
  5
2A0B
  8
0
 10
478.7525312481599258
 20
-11.9507690071342694
 30
0.0
 40
0.0781947534155439
 50
56.6970248530523975
 51
87.8286877415523435
  0
ARC
  5
2A0C
  8
0
 10
478.7523735306605772
 20
-11.9549288052796996
 30
0.0
 40
0.0823575403930777
 50
87.8286877415523435
 51
122.2506152881139059
  0
ARC
  5
2A0D
  8
0
 10
478.7291892698727906
 20
-11.9181848501922207
 30
0.0
 40
0.0389106971964616
 50
122.2506152881139059
 51
173.0242081393816136
  0
ARC
  5
2A0E
  8
0
 10
478.7260082886273267
 20
-11.9151460495317991
 30
0.0
 40
0.0354818042957983
 50
177.2749741732841073
 51
226.8220448028787075
  0
LINE
  5
2A0F
  8
0
 10
478.6993453966870788
 20
-11.9385564880043091
 30
0.0
 11
478.6702794855452225
 21
-11.9079599073054307
 31
0.0
  0
LINE
  5
2A10
  8
0
 10
478.806017763404725
 20
-11.9369761602633293
 30
0.0
 11
478.8319469287433776
 21
-11.9100648532343492
 31
0.0
  0
ARC
  5
2A11
  8
0
 10
478.7834861412350165
 20
-11.8716528387806708
 30
0.0
 40
0.0618379396513073
 50
321.5982082253867134
 51
1.877345074315206
  0
ARC
  5
2A12
  8
0
 10
478.7877996893282102
 20
-11.8715114510974296
 30
0.0
 40
0.057522075006786
 50
1.877345074315206
 51
43.5765706829940669
  0
ARC
  5
2A13
  8
0
 10
478.7525716400207898
 20
-11.9050312108024094
 30
0.0
 40
0.1061491225080473
 50
43.5765706829940669
 51
141.9584383097098907
  0
ARC
  5
2A14
  8
0
 10
478.7082914039697243
 20
-11.87038394262518
 30
0.0
 40
0.0499248172932415
 50
141.9584383097098907
 51
187.8747685519116999
  0
ARC
  5
2A15
  8
0
 10
478.733626851901704
 20
-11.8668797298564499
 30
0.0
 40
0.0755014556385329
 50
187.8747685519115009
 51
212.9630333740404922
  0
ARC
  5
2A16
  8
0
 10
478.7520881175499881
 20
-11.9083298557786694
 30
0.0
 40
0.0258080042944824
 50
223.3781753941451029
 51
308.8179401162057047
  0
ARC
  5
2A17
  8
0
 10
478.7610816041657245
 20
-11.9195083279348193
 30
0.0
 40
0.0114608428591438
 50
308.8179401162053068
 51
34.7341718742865311
  0
ARC
  5
2A18
  8
0
 10
478.7519705902266764
 20
-11.9297373384573309
 30
0.0
 40
0.0249842217977774
 50
42.127714348747169
 51
140.5515126316049077
  0
ARC
  5
2A19
  8
0
 10
478.7416726244604206
 20
-11.9194953051342498
 30
0.0
 40
0.0106127840966445
 50
147.9450551060689065
 51
218.1775345892988014
  0
ARC
  5
2A1A
  8
0
 10
478.1336382516719823
 20
-11.8150443516388499
 30
0.0
 40
0.0623265497818235
 50
226.0450456619936972
 51
247.9147765622944064
  0
ARC
  5
2A1B
  8
0
 10
478.1404790761860113
 20
-11.7981698279585707
 30
0.0
 40
0.0805349655398101
 50
247.9188243149924062
 51
293.6930093019078072
  0
ARC
  5
2A1C
  8
0
 10
478.1479568675845826
 20
-11.8152103609998598
 30
0.0
 40
0.0619259050978465
 50
293.6930093019079209
 51
318.9625005859310249
  0
ARC
  5
2A1D
  8
0
 10
478.1660483327311226
 20
-11.8344721384553608
 30
0.0
 40
0.0357319587324041
 50
323.2168900411004984
 51
6.5025298154933351
  0
ARC
  5
2A1E
  8
0
 10
478.1620219999235246
 20
-11.8379352496751906
 30
0.0
 40
0.0402354453890804
 50
10.7569192706644099
 51
56.6970248530523406
  0
ARC
  5
2A1F
  8
0
 10
478.1411798262471962
 20
-11.8696608365459308
 30
0.0
 40
0.0781947534155439
 50
56.6970248530523975
 51
87.8286877415523435
  0
ARC
  5
2A20
  8
0
 10
478.1410221087480181
 20
-11.8738206346913593
 30
0.0
 40
0.0823575403930777
 50
87.8286877415523435
 51
122.2506152881139059
  0
ARC
  5
2A21
  8
0
 10
478.1178378479601179
 20
-11.8370766796038804
 30
0.0
 40
0.0389106971964616
 50
122.2506152881139059
 51
173.0242081393816136
  0
ARC
  5
2A22
  8
0
 10
478.1146568667144834
 20
-11.8340378789434606
 30
0.0
 40
0.0354818042957983
 50
177.2749741732841073
 51
226.8220448028787075
  0
LINE
  5
2A23
  8
0
 10
478.0879939747745198
 20
-11.8574483174159706
 30
0.0
 11
478.0589280636324929
 21
-11.8268517367170904
 31
0.0
  0
LINE
  5
2A24
  8
0
 10
478.1946663414918817
 20
-11.8558679896749908
 30
0.0
 11
478.2205955068305911
 21
-11.8289566826460106
 31
0.0
  0
ARC
  5
2A25
  8
0
 10
478.1721347193221732
 20
-11.7905446681923305
 30
0.0
 40
0.0618379396513073
 50
321.5982082253867134
 51
1.877345074315206
  0
ARC
  5
2A26
  8
0
 10
478.1764482674154806
 20
-11.7904032805090893
 30
0.0
 40
0.057522075006786
 50
1.877345074315206
 51
43.5765706829940669
  0
ARC
  5
2A27
  8
0
 10
478.1412202181080033
 20
-11.8239230402140691
 30
0.0
 40
0.1061491225080473
 50
43.5765706829940669
 51
141.9584383097098907
  0
ARC
  5
2A28
  8
0
 10
478.096939982056881
 20
-11.7892757720368397
 30
0.0
 40
0.0499248172932415
 50
141.9584383097098907
 51
187.8747685519116999
  0
ARC
  5
2A29
  8
0
 10
478.1222754299889175
 20
-11.7857715592681096
 30
0.0
 40
0.0755014556385329
 50
187.8747685519115009
 51
212.9630333740404922
  0
ARC
  5
2A2A
  8
0
 10
478.1407366956373153
 20
-11.8272216851903291
 30
0.0
 40
0.0258080042944824
 50
223.3781753941451029
 51
308.8179401162057047
  0
ARC
  5
2A2B
  8
0
 10
478.1497301822529948
 20
-11.8384001573464808
 30
0.0
 40
0.0114608428591438
 50
308.8179401162053068
 51
34.7341718742865311
  0
ARC
  5
2A2C
  8
0
 10
478.1406191683140037
 20
-11.8486291678689906
 30
0.0
 40
0.0249842217977774
 50
42.127714348747169
 51
140.5515126316049077
  0
ARC
  5
2A2D
  8
0
 10
478.1303212025475773
 20
-11.8383871345459095
 30
0.0
 40
0.0106127840966445
 50
147.9450551060689065
 51
218.1775345892988014
  0
ARC
  5
2A2E
  8
0
 10
477.5590550083937273
 20
-11.6457637057766199
 30
0.0
 40
0.0623265497818235
 50
226.0450456619936972
 51
247.9147765622944064
  0
ARC
  5
2A2F
  8
0
 10
477.5658958329076995
 20
-11.6288891820963407
 30
0.0
 40
0.0805349655398101
 50
247.9188243149924062
 51
293.6930093019078072
  0
ARC
  5
2A30
  8
0
 10
477.5733736243063277
 20
-11.6459297151376298
 30
0.0
 40
0.0619259050978465
 50
293.6930093019079209
 51
318.9625005859310249
  0
ARC
  5
2A31
  8
0
 10
477.5914650894526972
 20
-11.6651914925931202
 30
0.0
 40
0.0357319587324041
 50
323.2168900411004984
 51
6.5025298154933351
  0
ARC
  5
2A32
  8
0
 10
477.5874387566452128
 20
-11.6686546038129695
 30
0.0
 40
0.0402354453890804
 50
10.7569192706644099
 51
56.6970248530523406
  0
ARC
  5
2A33
  8
0
 10
477.5665965829688844
 20
-11.7003801906837008
 30
0.0
 40
0.0781947534155439
 50
56.6970248530523975
 51
87.8286877415523435
  0
ARC
  5
2A34
  8
0
 10
477.5664388654695927
 20
-11.7045399888291293
 30
0.0
 40
0.0823575403930777
 50
87.8286877415523435
 51
122.2506152881139059
  0
ARC
  5
2A35
  8
0
 10
477.5432546046816924
 20
-11.6677960337416504
 30
0.0
 40
0.0389106971964616
 50
122.2506152881139059
 51
173.0242081393816136
  0
ARC
  5
2A36
  8
0
 10
477.5400736234362853
 20
-11.6647572330812306
 30
0.0
 40
0.0354818042957983
 50
177.2749741732841073
 51
226.8220448028787075
  0
LINE
  5
2A37
  8
0
 10
477.5134107314960943
 20
-11.6881676715537406
 30
0.0
 11
477.4843448203542948
 21
-11.6575710908548604
 31
0.0
  0
LINE
  5
2A38
  8
0
 10
477.6200830982136836
 20
-11.6865873438127608
 30
0.0
 11
477.6460122635522794
 21
-11.6596760367837806
 31
0.0
  0
ARC
  5
2A39
  8
0
 10
477.5975514760439751
 20
-11.6212640223301005
 30
0.0
 40
0.0618379396513073
 50
321.5982082253867134
 51
1.877345074315206
  0
ARC
  5
2A3A
  8
0
 10
477.6018650241372825
 20
-11.6211226346468592
 30
0.0
 40
0.057522075006786
 50
1.877345074315206
 51
43.5765706829940669
  0
ARC
  5
2A3B
  8
0
 10
477.5666369748296916
 20
-11.6546423943518391
 30
0.0
 40
0.1061491225080473
 50
43.5765706829940669
 51
141.9584383097098907
  0
ARC
  5
2A3C
  8
0
 10
477.5223567387786261
 20
-11.6199951261746097
 30
0.0
 40
0.0499248172932415
 50
141.9584383097098907
 51
187.8747685519116999
  0
ARC
  5
2A3D
  8
0
 10
477.5476921867107194
 20
-11.6164909134058796
 30
0.0
 40
0.0755014556385329
 50
187.8747685519115009
 51
212.9630333740404922
  0
ARC
  5
2A3E
  8
0
 10
477.5661534523591172
 20
-11.6579410393281009
 30
0.0
 40
0.0258080042944824
 50
223.3781753941451029
 51
308.8179401162057047
  0
ARC
  5
2A3F
  8
0
 10
477.5751469389746831
 20
-11.6691195114842508
 30
0.0
 40
0.0114608428591438
 50
308.8179401162053068
 51
34.7341718742865311
  0
ARC
  5
2A40
  8
0
 10
477.5660359250356919
 20
-11.6793485220067605
 30
0.0
 40
0.0249842217977774
 50
42.127714348747169
 51
140.5515126316049077
  0
ARC
  5
2A41
  8
0
 10
477.5557379592693792
 20
-11.6691064886836795
 30
0.0
 40
0.0106127840966445
 50
147.9450551060689065
 51
218.1775345892988014
  0
ARC
  5
2A42
  8
0
 10
477.0824295616847053
 20
-11.3640904689271895
 30
0.0
 40
0.0623265497818235
 50
226.0450456619936972
 51
247.9147765622944064
  0
ARC
  5
2A43
  8
0
 10
477.0892703861986774
 20
-11.3472159452469104
 30
0.0
 40
0.0805349655398101
 50
247.9188243149924062
 51
293.6930093019078072
  0
ARC
  5
2A44
  8
0
 10
477.0967481775973056
 20
-11.3642564782881994
 30
0.0
 40
0.0619259050978465
 50
293.6930093019079209
 51
318.9625005859310249
  0
ARC
  5
2A45
  8
0
 10
477.1148396427436751
 20
-11.3835182557437005
 30
0.0
 40
0.0357319587324041
 50
323.2168900411004984
 51
6.5025298154933351
  0
ARC
  5
2A46
  8
0
 10
477.1108133099361908
 20
-11.3869813669635391
 30
0.0
 40
0.0402354453890804
 50
10.7569192706644099
 51
56.6970248530523406
  0
ARC
  5
2A47
  8
0
 10
477.0899711362599191
 20
-11.4187069538342705
 30
0.0
 40
0.0781947534155439
 50
56.6970248530523975
 51
87.8286877415523435
  0
ARC
  5
2A48
  8
0
 10
477.0898134187606274
 20
-11.4228667519797096
 30
0.0
 40
0.0823575403930777
 50
87.8286877415523435
 51
122.2506152881139059
  0
ARC
  5
2A49
  8
0
 10
477.066629157972784
 20
-11.3861227968922201
 30
0.0
 40
0.0389106971964616
 50
122.2506152881139059
 51
173.0242081393816136
  0
ARC
  5
2A4A
  8
0
 10
477.0634481767273201
 20
-11.3830839962318002
 30
0.0
 40
0.0354818042957983
 50
177.2749741732841073
 51
226.8220448028787075
  0
LINE
  5
2A4B
  8
0
 10
477.0367852847871859
 20
-11.4064944347043102
 30
0.0
 11
477.0077193736452728
 21
-11.3758978540054301
 31
0.0
  0
LINE
  5
2A4C
  8
0
 10
477.1434576515047183
 20
-11.4049141069633304
 30
0.0
 11
477.1693868168433141
 21
-11.3780027999343503
 31
0.0
  0
ARC
  5
2A4D
  8
0
 10
477.1209260293350098
 20
-11.3395907854806701
 30
0.0
 40
0.0618379396513073
 50
321.5982082253867134
 51
1.877345074315206
  0
ARC
  5
2A4E
  8
0
 10
477.1252395774282036
 20
-11.3394493977974307
 30
0.0
 40
0.057522075006786
 50
1.877345074315206
 51
43.5765706829940669
  0
ARC
  5
2A4F
  8
0
 10
477.0900115281207263
 20
-11.3729691575024106
 30
0.0
 40
0.1061491225080473
 50
43.5765706829940669
 51
141.9584383097098907
  0
ARC
  5
2A50
  8
0
 10
477.045731292069604
 20
-11.3383218893251794
 30
0.0
 40
0.0499248172932415
 50
141.9584383097098907
 51
187.8747685519116999
  0
ARC
  5
2A51
  8
0
 10
477.0710667400016973
 20
-11.3348176765564492
 30
0.0
 40
0.0755014556385329
 50
187.8747685519115009
 51
212.9630333740404922
  0
ARC
  5
2A52
  8
0
 10
477.0895280056499814
 20
-11.3762678024786705
 30
0.0
 40
0.0258080042944824
 50
223.3781753941451029
 51
308.8179401162057047
  0
ARC
  5
2A53
  8
0
 10
477.0985214922657178
 20
-11.3874462746348204
 30
0.0
 40
0.0114608428591438
 50
308.8179401162053068
 51
34.7341718742865311
  0
ARC
  5
2A54
  8
0
 10
477.0894104783267267
 20
-11.3976752851573302
 30
0.0
 40
0.0249842217977774
 50
42.127714348747169
 51
140.5515126316049077
  0
ARC
  5
2A55
  8
0
 10
477.079112512560414
 20
-11.3874332518342491
 30
0.0
 40
0.0106127840966445
 50
147.9450551060689065
 51
218.1775345892988014
  0
ARC
  5
2A56
  8
0
 10
476.7467623050407042
 20
-10.9945773764663208
 30
0.0
 40
0.0623265497818235
 50
226.0450456619936972
 51
247.9147765622944064
  0
ARC
  5
2A57
  8
0
 10
476.75360312955479
 20
-10.9777028527860292
 30
0.0
 40
0.0805349655398101
 50
247.9188243149924062
 51
293.6930093019078072
  0
ARC
  5
2A58
  8
0
 10
476.7610809209534182
 20
-10.99474338582732
 30
0.0
 40
0.0619259050978465
 50
293.6930093019079209
 51
318.9625005859310249
  0
ARC
  5
2A59
  8
0
 10
476.7791723860997877
 20
-11.0140051632828193
 30
0.0
 40
0.0357319587324041
 50
323.2168900411004984
 51
6.5025298154933351
  0
ARC
  5
2A5A
  8
0
 10
476.7751460532923033
 20
-11.0174682745026598
 30
0.0
 40
0.0402354453890804
 50
10.7569192706644099
 51
56.6970248530523406
  0
ARC
  5
2A5B
  8
0
 10
476.754303879615918
 20
-11.0491938613733893
 30
0.0
 40
0.0781947534155439
 50
56.6970248530523975
 51
87.8286877415523435
  0
ARC
  5
2A5C
  8
0
 10
476.7541461621166832
 20
-11.0533536595188302
 30
0.0
 40
0.0823575403930777
 50
87.8286877415523435
 51
122.2506152881139059
  0
ARC
  5
2A5D
  8
0
 10
476.7309619013287829
 20
-11.0166097044313407
 30
0.0
 40
0.0389106971964616
 50
122.2506152881139059
 51
173.0242081393816136
  0
ARC
  5
2A5E
  8
0
 10
476.727780920083319
 20
-11.0135709037709209
 30
0.0
 40
0.0354818042957983
 50
177.2749741732841073
 51
226.8220448028787075
  0
LINE
  5
2A5F
  8
0
 10
476.7011180281431848
 20
-11.0369813422434309
 30
0.0
 11
476.6720521170012717
 21
-11.0063847615445507
 31
0.0
  0
LINE
  5
2A60
  8
0
 10
476.8077903948607172
 20
-11.0354010145024493
 30
0.0
 11
476.833719560199313
 21
-11.0084897074734709
 31
0.0
  0
ARC
  5
2A61
  8
0
 10
476.7852587726911224
 20
-10.9700776930197907
 30
0.0
 40
0.0618379396513073
 50
321.5982082253867134
 51
1.877345074315206
  0
ARC
  5
2A62
  8
0
 10
476.7895723207843162
 20
-10.9699363053365495
 30
0.0
 40
0.057522075006786
 50
1.877345074315206
 51
43.5765706829940669
  0
ARC
  5
2A63
  8
0
 10
476.7543442714767821
 20
-11.0034560650415401
 30
0.0
 40
0.1061491225080473
 50
43.5765706829940669
 51
141.9584383097098907
  0
ARC
  5
2A64
  8
0
 10
476.7100640354256029
 20
-10.9688087968643107
 30
0.0
 40
0.0499248172932415
 50
141.9584383097098907
 51
187.8747685519116999
  0
ARC
  5
2A65
  8
0
 10
476.7353994833576962
 20
-10.9653045840955699
 30
0.0
 40
0.0755014556385329
 50
187.8747685519115009
 51
212.9630333740404922
  0
ARC
  5
2A66
  8
0
 10
476.7538607490059803
 20
-11.0067547100178
 30
0.0
 40
0.0258080042944824
 50
223.3781753941451029
 51
308.8179401162057047
  0
ARC
  5
2A67
  8
0
 10
476.7628542356217167
 20
-11.0179331821739392
 30
0.0
 40
0.0114608428591438
 50
308.8179401162053068
 51
34.7341718742865311
  0
ARC
  5
2A68
  8
0
 10
476.7537432216827256
 20
-11.0281621926964508
 30
0.0
 40
0.0249842217977774
 50
42.127714348747169
 51
140.5515126316049077
  0
ARC
  5
2A69
  8
0
 10
476.7434452559164129
 20
-11.0179201593733698
 30
0.0
 40
0.0106127840966445
 50
147.9450551060689065
 51
218.1775345892988014
  0
ARC
  5
2A6A
  8
0
 10
476.5707423771223716
 20
-10.57304832693052
 30
0.0
 40
0.0623265497818235
 50
226.0450456619936972
 51
247.9147765622944064
  0
ARC
  5
2A6B
  8
0
 10
476.577583201636287
 20
-10.5561738032502408
 30
0.0
 40
0.0805349655398101
 50
247.9188243149924062
 51
293.6930093019078072
  0
ARC
  5
2A6C
  8
0
 10
476.5850609930349719
 20
-10.5732143362915298
 30
0.0
 40
0.0619259050978465
 50
293.6930093019079209
 51
318.9625005859310249
  0
ARC
  5
2A6D
  8
0
 10
476.6031524581813983
 20
-10.5924761137470291
 30
0.0
 40
0.0357319587324041
 50
323.2168900411004984
 51
6.5025298154933351
  0
ARC
  5
2A6E
  8
0
 10
476.599126125373914
 20
-10.5959392249668696
 30
0.0
 40
0.0402354453890804
 50
10.7569192706644099
 51
56.6970248530523406
  0
ARC
  5
2A6F
  8
0
 10
476.5782839516974718
 20
-10.6276648118375991
 30
0.0
 40
0.0781947534155439
 50
56.6970248530523975
 51
87.8286877415523435
  0
ARC
  5
2A70
  8
0
 10
476.5781262341982938
 20
-10.63182460998304
 30
0.0
 40
0.0823575403930777
 50
87.8286877415523435
 51
122.2506152881139059
  0
ARC
  5
2A71
  8
0
 10
476.5549419734103935
 20
-10.5950806548955505
 30
0.0
 40
0.0389106971964616
 50
122.2506152881139059
 51
173.0242081393816136
  0
ARC
  5
2A72
  8
0
 10
476.5517609921649864
 20
-10.5920418542351307
 30
0.0
 40
0.0354818042957983
 50
177.2749741732841073
 51
226.8220448028787075
  0
LINE
  5
2A73
  8
0
 10
476.5250981002247954
 20
-10.6154522927076407
 30
0.0
 11
476.4960321890828823
 21
-10.5848557120087605
 31
0.0
  0
LINE
  5
2A74
  8
0
 10
476.6317704669423847
 20
-10.6138719649666609
 30
0.0
 11
476.6576996322809237
 21
-10.5869606579376807
 31
0.0
  0
ARC
  5
2A75
  8
0
 10
476.6092388447726194
 20
-10.5485486434840006
 30
0.0
 40
0.0618379396513073
 50
321.5982082253867134
 51
1.877345074315206
  0
ARC
  5
2A76
  8
0
 10
476.6135523928659268
 20
-10.5484072558007593
 30
0.0
 40
0.057522075006786
 50
1.877345074315206
 51
43.5765706829940669
  0
ARC
  5
2A77
  8
0
 10
476.5783243435583927
 20
-10.5819270155057392
 30
0.0
 40
0.1061491225080473
 50
43.5765706829940669
 51
141.9584383097098907
  0
ARC
  5
2A78
  8
0
 10
476.5340441075073272
 20
-10.5472797473285098
 30
0.0
 40
0.0499248172932415
 50
141.9584383097098907
 51
187.8747685519116999
  0
ARC
  5
2A79
  8
0
 10
476.5593795554393068
 20
-10.5437755345597797
 30
0.0
 40
0.0755014556385329
 50
187.8747685519115009
 51
212.9630333740404922
  0
ARC
  5
2A7A
  8
0
 10
476.5778408210875909
 20
-10.5852256604819992
 30
0.0
 40
0.0258080042944824
 50
223.3781753941451029
 51
308.8179401162057047
  0
ARC
  5
2A7B
  8
0
 10
476.5868343077033273
 20
-10.5964041326381508
 30
0.0
 40
0.0114608428591438
 50
308.8179401162053068
 51
34.7341718742865311
  0
ARC
  5
2A7C
  8
0
 10
476.577723293764393
 20
-10.6066331431606606
 30
0.0
 40
0.0249842217977774
 50
42.127714348747169
 51
140.5515126316049077
  0
ARC
  5
2A7D
  8
0
 10
476.5674253279980235
 20
-10.5963911098375796
 30
0.0
 40
0.0106127840966445
 50
147.9450551060689065
 51
218.1775345892988014
  0
ARC
  5
2A7E
  8
0
 10
476.5715911153696993
 20
-10.1307211107298407
 30
0.0
 40
0.0623265497818235
 50
226.0450456619936972
 51
247.9147765622944064
  0
ARC
  5
2A7F
  8
0
 10
476.5784319398837283
 20
-10.1138465870495597
 30
0.0
 40
0.0805349655398101
 50
247.9188243149924062
 51
293.6930093019078072
  0
ARC
  5
2A80
  8
0
 10
476.5859097312822996
 20
-10.1308871200908506
 30
0.0
 40
0.0619259050978465
 50
293.6930093019079209
 51
318.9625005859310249
  0
ARC
  5
2A81
  8
0
 10
476.604001196428726
 20
-10.1501488975463499
 30
0.0
 40
0.0357319587324041
 50
323.2168900411004984
 51
6.5025298154933351
  0
ARC
  5
2A82
  8
0
 10
476.5999748636211848
 20
-10.1536120087661903
 30
0.0
 40
0.0402354453890804
 50
10.7569192706644099
 51
56.6970248530523406
  0
ARC
  5
2A83
  8
0
 10
476.5791326899447995
 20
-10.1853375956369199
 30
0.0
 40
0.0781947534155439
 50
56.6970248530523975
 51
87.8286877415523435
  0
ARC
  5
2A84
  8
0
 10
476.5789749724456215
 20
-10.1894973937823607
 30
0.0
 40
0.0823575403930777
 50
87.8286877415523435
 51
122.2506152881139059
  0
ARC
  5
2A85
  8
0
 10
476.5557907116577212
 20
-10.1527534386948695
 30
0.0
 40
0.0389106971964616
 50
122.2506152881139059
 51
173.0242081393816136
  0
ARC
  5
2A86
  8
0
 10
476.5526097304123141
 20
-10.1497146380344496
 30
0.0
 40
0.0354818042957983
 50
177.2749741732841073
 51
226.8220448028787075
  0
LINE
  5
2A87
  8
0
 10
476.5259468384721231
 20
-10.1731250765069596
 30
0.0
 11
476.4968809273303236
 21
-10.1425284958080795
 31
0.0
  0
LINE
  5
2A88
  8
0
 10
476.6326192051897124
 20
-10.1715447487659798
 30
0.0
 11
476.6585483705283082
 21
-10.1446334417369997
 31
0.0
  0
ARC
  5
2A89
  8
0
 10
476.6100875830200039
 20
-10.1062214272833195
 30
0.0
 40
0.0618379396513073
 50
321.5982082253867134
 51
1.877345074315206
  0
ARC
  5
2A8A
  8
0
 10
476.6144011311133113
 20
-10.1060800396000801
 30
0.0
 40
0.057522075006786
 50
1.877345074315206
 51
43.5765706829940669
  0
ARC
  5
2A8B
  8
0
 10
476.5791730818057204
 20
-10.1395997993050706
 30
0.0
 40
0.1061491225080473
 50
43.5765706829940669
 51
141.9584383097098907
  0
ARC
  5
2A8C
  8
0
 10
476.5348928457545981
 20
-10.1049525311278305
 30
0.0
 40
0.0499248172932415
 50
141.9584383097098907
 51
187.8747685519116999
  0
ARC
  5
2A8D
  8
0
 10
476.5602282936866914
 20
-10.1014483183591004
 30
0.0
 40
0.0755014556385329
 50
187.8747685519115009
 51
212.9630333740404922
  0
ARC
  5
2A8E
  8
0
 10
476.5786895593349755
 20
-10.1428984442813199
 30
0.0
 40
0.0258080042944824
 50
223.3781753941451029
 51
308.8179401162057047
  0
ARC
  5
2A8F
  8
0
 10
476.5876830459505982
 20
-10.1540769164374698
 30
0.0
 40
0.0114608428591438
 50
308.8179401162053068
 51
34.7341718742865311
  0
ARC
  5
2A90
  8
0
 10
476.5785720320117207
 20
-10.1643059269599796
 30
0.0
 40
0.0249842217977774
 50
42.127714348747169
 51
140.5515126316049077
  0
ARC
  5
2A91
  8
0
 10
476.568274066245408
 20
-10.1540638936369003
 30
0.0
 40
0.0106127840966445
 50
147.9450551060689065
 51
218.1775345892988014
  0
ARC
  5
2A92
  8
0
 10
478.8926067750198854
 20
-11.3892946469186196
 30
0.0
 40
0.0623265497818235
 50
226.0450456619936972
 51
247.9147765622944064
  0
ARC
  5
2A93
  8
0
 10
478.8994475995338007
 20
-11.3724201232383404
 30
0.0
 40
0.0805349655398101
 50
247.9188243149924062
 51
293.6930093019078072
  0
ARC
  5
2A94
  8
0
 10
478.9069253909324857
 20
-11.3894606562796294
 30
0.0
 40
0.0619259050978465
 50
293.6930093019079209
 51
318.9625005859310249
  0
ARC
  5
2A95
  8
0
 10
478.925016856078912
 20
-11.4087224337351198
 30
0.0
 40
0.0357319587324041
 50
323.2168900411004984
 51
6.5025298154933351
  0
ARC
  5
2A96
  8
0
 10
478.9209905232714277
 20
-11.4121855449549603
 30
0.0
 40
0.0402354453890804
 50
10.7569192706644099
 51
56.6970248530523406
  0
ARC
  5
2A97
  8
0
 10
478.9001483495949856
 20
-11.4439111318257005
 30
0.0
 40
0.0781947534155439
 50
56.6970248530523975
 51
87.8286877415523435
  0
ARC
  5
2A98
  8
0
 10
478.8999906320958075
 20
-11.4480709299711307
 30
0.0
 40
0.0823575403930777
 50
87.8286877415523435
 51
122.2506152881139059
  0
ARC
  5
2A99
  8
0
 10
478.8768063713079073
 20
-11.4113269748836395
 30
0.0
 40
0.0389106971964616
 50
122.2506152881139059
 51
173.0242081393816136
  0
ARC
  5
2A9A
  8
0
 10
478.8736253900623865
 20
-11.4082881742232196
 30
0.0
 40
0.0354818042957983
 50
177.2749741732841073
 51
226.8220448028787075
  0
LINE
  5
2A9B
  8
0
 10
478.8469624981224229
 20
-11.4316986126957296
 30
0.0
 11
478.8178965869802823
 21
-11.4011020319968601
 31
0.0
  0
LINE
  5
2A9C
  8
0
 10
478.9536348648397848
 20
-11.4301182849547605
 30
0.0
 11
478.9795640301783806
 21
-11.4032069779257696
 31
0.0
  0
ARC
  5
2A9D
  8
0
 10
478.9311032426700763
 20
-11.3647949634721002
 30
0.0
 40
0.0618379396513073
 50
321.5982082253867134
 51
1.877345074315206
  0
ARC
  5
2A9E
  8
0
 10
478.9354167907633268
 20
-11.3646535757888607
 30
0.0
 40
0.057522075006786
 50
1.877345074315206
 51
43.5765706829940669
  0
ARC
  5
2A9F
  8
0
 10
478.9001887414559064
 20
-11.3981733354938406
 30
0.0
 40
0.1061491225080473
 50
43.5765706829940669
 51
141.9584383097098907
  0
ARC
  5
2AA0
  8
0
 10
478.8559085054047273
 20
-11.3635260673166094
 30
0.0
 40
0.0499248172932415
 50
141.9584383097098907
 51
187.8747685519116999
  0
ARC
  5
2AA1
  8
0
 10
478.8812439533367069
 20
-11.3600218545478704
 30
0.0
 40
0.0755014556385329
 50
187.8747685519115009
 51
212.9630333740404922
  0
ARC
  5
2AA2
  8
0
 10
478.8997052189851047
 20
-11.4014719804701006
 30
0.0
 40
0.0258080042944824
 50
223.3781753941451029
 51
308.8179401162057047
  0
ARC
  5
2AA3
  8
0
 10
478.9086987056007843
 20
-11.4126504526262504
 30
0.0
 40
0.0114608428591438
 50
308.8179401162053068
 51
34.7341718742865311
  0
ARC
  5
2AA4
  8
0
 10
478.8995876916617931
 20
-11.4228794631487602
 30
0.0
 40
0.0249842217977774
 50
42.127714348747169
 51
140.5515126316049077
  0
ARC
  5
2AA5
  8
0
 10
478.8892897258954804
 20
-11.4126374298256792
 30
0.0
 40
0.0106127840966445
 50
147.9450551060689065
 51
218.1775345892988014
  0
ARC
  5
2AA6
  8
0
 10
478.27784124306271
 20
-11.3105854256030405
 30
0.0
 40
0.0623265497818235
 50
226.0450456619936972
 51
247.9147765622944064
  0
ARC
  5
2AA7
  8
0
 10
478.2846820675766821
 20
-11.2937109019227506
 30
0.0
 40
0.0805349655398101
 50
247.9188243149924062
 51
293.6930093019078072
  0
ARC
  5
2AA8
  8
0
 10
478.2921598589753103
 20
-11.3107514349640397
 30
0.0
 40
0.0619259050978465
 50
293.6930093019079209
 51
318.9625005859310249
  0
ARC
  5
2AA9
  8
0
 10
478.3102513241216798
 20
-11.3300132124195407
 30
0.0
 40
0.0357319587324041
 50
323.2168900411004984
 51
6.5025298154933351
  0
ARC
  5
2AAA
  8
0
 10
478.3062249913141954
 20
-11.3334763236393794
 30
0.0
 40
0.0402354453890804
 50
10.7569192706644099
 51
56.6970248530523406
  0
ARC
  5
2AAB
  8
0
 10
478.2853828176379238
 20
-11.3652019105101107
 30
0.0
 40
0.0781947534155439
 50
56.6970248530523975
 51
87.8286877415523435
  0
ARC
  5
2AAC
  8
0
 10
478.2852251001385753
 20
-11.3693617086555498
 30
0.0
 40
0.0823575403930777
 50
87.8286877415523435
 51
122.2506152881139059
  0
ARC
  5
2AAD
  8
0
 10
478.2620408393507887
 20
-11.3326177535680603
 30
0.0
 40
0.0389106971964616
 50
122.2506152881139059
 51
173.0242081393816136
  0
ARC
  5
2AAE
  8
0
 10
478.2588598581053247
 20
-11.3295789529076405
 30
0.0
 40
0.0354818042957983
 50
177.2749741732841073
 51
226.8220448028787075
  0
LINE
  5
2AAF
  8
0
 10
478.2321969661651906
 20
-11.3529893913801505
 30
0.0
 11
478.2031310550232206
 21
-11.3223928106812703
 31
0.0
  0
LINE
  5
2AB0
  8
0
 10
478.338869332882723
 20
-11.3514090636391707
 30
0.0
 11
478.3647984982213757
 21
-11.3244977566101905
 31
0.0
  0
ARC
  5
2AB1
  8
0
 10
478.3163377107130145
 20
-11.2860857421565104
 30
0.0
 40
0.0618379396513073
 50
321.5982082253867134
 51
1.877345074315206
  0
ARC
  5
2AB2
  8
0
 10
478.3206512588062083
 20
-11.2859443544732692
 30
0.0
 40
0.057522075006786
 50
1.877345074315206
 51
43.5765706829940669
  0
ARC
  5
2AB3
  8
0
 10
478.2854232094987879
 20
-11.3194641141782597
 30
0.0
 40
0.1061491225080473
 50
43.5765706829940669
 51
141.9584383097098907
  0
ARC
  5
2AB4
  8
0
 10
478.2411429734477224
 20
-11.2848168460010303
 30
0.0
 40
0.0499248172932415
 50
141.9584383097098907
 51
187.8747685519116999
  0
ARC
  5
2AB5
  8
0
 10
478.266478421379702
 20
-11.2813126332322895
 30
0.0
 40
0.0755014556385329
 50
187.8747685519115009
 51
212.9630333740404922
  0
ARC
  5
2AB6
  8
0
 10
478.2849396870279861
 20
-11.3227627591545197
 30
0.0
 40
0.0258080042944824
 50
223.3781753941451029
 51
308.8179401162057047
  0
ARC
  5
2AB7
  8
0
 10
478.2939331736437225
 20
-11.3339412313106607
 30
0.0
 40
0.0114608428591438
 50
308.8179401162053068
 51
34.7341718742865311
  0
ARC
  5
2AB8
  8
0
 10
478.2848221597046745
 20
-11.3441702418331705
 30
0.0
 40
0.0249842217977774
 50
42.127714348747169
 51
140.5515126316049077
  0
ARC
  5
2AB9
  8
0
 10
478.2745241939384186
 20
-11.3339282085101001
 30
0.0
 40
0.0106127840966445
 50
147.9450551060689065
 51
218.1775345892988014
  0
ARC
  5
2ABA
  8
0
 10
477.7219150208135261
 20
-11.1049580275509499
 30
0.0
 40
0.0623265497818235
 50
226.0450456619936972
 51
247.9147765622944064
  0
ARC
  5
2ABB
  8
0
 10
477.7287558453274983
 20
-11.08808350387066
 30
0.0
 40
0.0805349655398101
 50
247.9188243149924062
 51
293.6930093019078072
  0
ARC
  5
2ABC
  8
0
 10
477.7362336367261264
 20
-11.1051240369119508
 30
0.0
 40
0.0619259050978465
 50
293.6930093019079209
 51
318.9625005859310249
  0
ARC
  5
2ABD
  8
0
 10
477.7543251018724959
 20
-11.1243858143674501
 30
0.0
 40
0.0357319587324041
 50
323.2168900411004984
 51
6.5025298154933351
  0
ARC
  5
2ABE
  8
0
 10
477.7502987690651253
 20
-11.1278489255872906
 30
0.0
 40
0.0402354453890804
 50
10.7569192706644099
 51
56.6970248530523406
  0
ARC
  5
2ABF
  8
0
 10
477.7294565953886263
 20
-11.1595745124580308
 30
0.0
 40
0.0781947534155439
 50
56.6970248530523975
 51
87.8286877415523435
  0
ARC
  5
2AC0
  8
0
 10
477.7292988778895051
 20
-11.1637343106034592
 30
0.0
 40
0.0823575403930777
 50
87.8286877415523435
 51
122.2506152881139059
  0
ARC
  5
2AC1
  8
0
 10
477.7061146171016048
 20
-11.1269903555159697
 30
0.0
 40
0.0389106971964616
 50
122.2506152881139059
 51
173.0242081393816136
  0
ARC
  5
2AC2
  8
0
 10
477.702933635856084
 20
-11.1239515548555499
 30
0.0
 40
0.0354818042957983
 50
177.2749741732841073
 51
226.8220448028787075
  0
LINE
  5
2AC3
  8
0
 10
477.6762707439160067
 20
-11.1473619933280599
 30
0.0
 11
477.6472048327739799
 21
-11.1167654126291904
 31
0.0
  0
LINE
  5
2AC4
  8
0
 10
477.7829431106334823
 20
-11.1457816655870801
 30
0.0
 11
477.8088722759720781
 21
-11.1188703585580999
 31
0.0
  0
ARC
  5
2AC5
  8
0
 10
477.760411488463717
 20
-11.0804583441044198
 30
0.0
 40
0.0618379396513073
 50
321.5982082253867134
 51
1.877345074315206
  0
ARC
  5
2AC6
  8
0
 10
477.7647250365570244
 20
-11.0803169564211892
 30
0.0
 40
0.057522075006786
 50
1.877345074315206
 51
43.5765706829940669
  0
ARC
  5
2AC7
  8
0
 10
477.729496987249604
 20
-11.1138367161261709
 30
0.0
 40
0.1061491225080473
 50
43.5765706829940669
 51
141.9584383097098907
  0
ARC
  5
2AC8
  8
0
 10
477.6852167511984248
 20
-11.0791894479489397
 30
0.0
 40
0.0499248172932415
 50
141.9584383097098907
 51
187.8747685519116999
  0
ARC
  5
2AC9
  8
0
 10
477.7105521991305181
 20
-11.0756852351802006
 30
0.0
 40
0.0755014556385329
 50
187.8747685519115009
 51
212.9630333740404922
  0
ARC
  5
2ACA
  8
0
 10
477.7290134647788022
 20
-11.1171353611024308
 30
0.0
 40
0.0258080042944824
 50
223.3781753941451029
 51
308.8179401162057047
  0
ARC
  5
2ACB
  8
0
 10
477.738006951394425
 20
-11.1283138332585807
 30
0.0
 40
0.0114608428591438
 50
308.8179401162053068
 51
34.7341718742865311
  0
ARC
  5
2ACC
  8
0
 10
477.7288959374554906
 20
-11.1385428437810798
 30
0.0
 40
0.0249842217977774
 50
42.127714348747169
 51
140.5515126316049077
  0
ARC
  5
2ACD
  8
0
 10
477.7185979716891779
 20
-11.1283008104580095
 30
0.0
 40
0.0106127840966445
 50
147.9450551060689065
 51
218.1775345892988014
  0
ARC
  5
2ACE
  8
0
 10
477.3537823828618798
 20
-10.7444962138526794
 30
0.0
 40
0.0623265497818235
 50
226.0450456619936972
 51
247.9147765622944064
  0
ARC
  5
2ACF
  8
0
 10
477.3606232073759088
 20
-10.7276216901723895
 30
0.0
 40
0.0805349655398101
 50
247.9188243149924062
 51
293.6930093019078072
  0
ARC
  5
2AD0
  8
0
 10
477.3681009987744801
 20
-10.7446622232136804
 30
0.0
 40
0.0619259050978465
 50
293.6930093019079209
 51
318.9625005859310249
  0
ARC
  5
2AD1
  8
0
 10
477.3861924639209064
 20
-10.7639240006691796
 30
0.0
 40
0.0357319587324041
 50
323.2168900411004984
 51
6.5025298154933351
  0
ARC
  5
2AD2
  8
0
 10
477.3821661311134221
 20
-10.7673871118890201
 30
0.0
 40
0.0402354453890804
 50
10.7569192706644099
 51
56.6970248530523406
  0
ARC
  5
2AD3
  8
0
 10
477.3613239574370937
 20
-10.7991126987597497
 30
0.0
 40
0.0781947534155439
 50
56.6970248530523975
 51
87.8286877415523435
  0
ARC
  5
2AD4
  8
0
 10
477.3611662399379156
 20
-10.8032724969051905
 30
0.0
 40
0.0823575403930777
 50
87.8286877415523435
 51
122.2506152881139059
  0
ARC
  5
2AD5
  8
0
 10
477.3379819791499017
 20
-10.7665285418176992
 30
0.0
 40
0.0389106971964616
 50
122.2506152881139059
 51
173.0242081393816136
  0
ARC
  5
2AD6
  8
0
 10
477.3348009979043809
 20
-10.7634897411572794
 30
0.0
 40
0.0354818042957983
 50
177.2749741732841073
 51
226.8220448028787075
  0
LINE
  5
2AD7
  8
0
 10
477.3081381059644173
 20
-10.7869001796297894
 30
0.0
 11
477.2790721948223904
 21
-10.7563035989309093
 31
0.0
  0
LINE
  5
2AD8
  8
0
 10
477.4148104726817792
 20
-10.7853198518888096
 30
0.0
 11
477.4407396380204887
 21
-10.7584085448598294
 31
0.0
  0
ARC
  5
2AD9
  8
0
 10
477.3922788505121844
 20
-10.7199965304061493
 30
0.0
 40
0.0618379396513073
 50
321.5982082253867134
 51
1.877345074315206
  0
ARC
  5
2ADA
  8
0
 10
477.3965923986053781
 20
-10.7198551427229205
 30
0.0
 40
0.057522075006786
 50
1.877345074315206
 51
43.5765706829940669
  0
ARC
  5
2ADB
  8
0
 10
477.3613643492979008
 20
-10.7533749024279004
 30
0.0
 40
0.1061491225080473
 50
43.5765706829940669
 51
141.9584383097098907
  0
ARC
  5
2ADC
  8
0
 10
477.3170841132467785
 20
-10.7187276342506692
 30
0.0
 40
0.0499248172932415
 50
141.9584383097098907
 51
187.8747685519116999
  0
ARC
  5
2ADD
  8
0
 10
477.3424195611788718
 20
-10.7152234214819302
 30
0.0
 40
0.0755014556385329
 50
187.8747685519115009
 51
212.9630333740404922
  0
ARC
  5
2ADE
  8
0
 10
477.3608808268273265
 20
-10.7566735474041604
 30
0.0
 40
0.0258080042944824
 50
223.3781753941451029
 51
308.8179401162057047
  0
ARC
  5
2ADF
  8
0
 10
477.3698743134428923
 20
-10.7678520195602996
 30
0.0
 40
0.0114608428591438
 50
308.8179401162053068
 51
34.7341718742865311
  0
ARC
  5
2AE0
  8
0
 10
477.3607632995039012
 20
-10.7780810300828094
 30
0.0
 40
0.0249842217977774
 50
42.127714348747169
 51
140.5515126316049077
  0
ARC
  5
2AE1
  8
0
 10
477.3504653337375885
 20
-10.7678389967597301
 30
0.0
 40
0.0106127840966445
 50
147.9450551060689065
 51
218.1775345892988014
  0
ARC
  5
2AE2
  8
0
 10
477.2232104721853148
 20
-10.3088881723687393
 30
0.0
 40
0.0623265497818235
 50
226.0450456619936972
 51
247.9147765622944064
  0
ARC
  5
2AE3
  8
0
 10
477.2300512966991732
 20
-10.2920136486884495
 30
0.0
 40
0.0805349655398101
 50
247.9188243149924062
 51
293.6930093019078072
  0
ARC
  5
2AE4
  8
0
 10
477.2375290880979151
 20
-10.3090541817297492
 30
0.0
 40
0.0619259050978465
 50
293.6930093019079209
 51
318.9625005859310249
  0
ARC
  5
2AE5
  8
0
 10
477.2556205532442846
 20
-10.3283159591852396
 30
0.0
 40
0.0357319587324041
 50
323.2168900411004984
 51
6.5025298154933351
  0
ARC
  5
2AE6
  8
0
 10
477.2515942204369139
 20
-10.33177907040508
 30
0.0
 40
0.0402354453890804
 50
10.7569192706644099
 51
56.6970248530523406
  0
ARC
  5
2AE7
  8
0
 10
477.2307520467604149
 20
-10.3635046572758096
 30
0.0
 40
0.0781947534155439
 50
56.6970248530523975
 51
87.8286877415523435
  0
ARC
  5
2AE8
  8
0
 10
477.2305943292612938
 20
-10.3676644554212505
 30
0.0
 40
0.0823575403930777
 50
87.8286877415523435
 51
122.2506152881139059
  0
ARC
  5
2AE9
  8
0
 10
477.2074100684733935
 20
-10.3309205003337592
 30
0.0
 40
0.0389106971964616
 50
122.2506152881139059
 51
173.0242081393816136
  0
ARC
  5
2AEA
  8
0
 10
477.2042290872278727
 20
-10.3278816996733394
 30
0.0
 40
0.0354818042957983
 50
177.2749741732841073
 51
226.8220448028787075
  0
LINE
  5
2AEB
  8
0
 10
477.1775661952877954
 20
-10.3512921381458494
 30
0.0
 11
477.1485002841458254
 21
-10.3206955574469799
 31
0.0
  0
LINE
  5
2AEC
  8
0
 10
477.2842385620053278
 20
-10.3497118104048695
 30
0.0
 11
477.3101677273439236
 21
-10.3228005033758894
 31
0.0
  0
ARC
  5
2AED
  8
0
 10
477.2617069398356193
 20
-10.2843884889222092
 30
0.0
 40
0.0618379396513073
 50
321.5982082253867134
 51
1.877345074315206
  0
ARC
  5
2AEE
  8
0
 10
477.2660204879288131
 20
-10.2842471012389804
 30
0.0
 40
0.057522075006786
 50
1.877345074315206
 51
43.5765706829940669
  0
ARC
  5
2AEF
  8
0
 10
477.2307924386213926
 20
-10.3177668609439603
 30
0.0
 40
0.1061491225080473
 50
43.5765706829940669
 51
141.9584383097098907
  0
ARC
  5
2AF0
  8
0
 10
477.1865122025702135
 20
-10.2831195927667292
 30
0.0
 40
0.0499248172932415
 50
141.9584383097098907
 51
187.8747685519116999
  0
ARC
  5
2AF1
  8
0
 10
477.2118476505021931
 20
-10.2796153799979901
 30
0.0
 40
0.0755014556385329
 50
187.8747685519115009
 51
212.9630333740404922
  0
ARC
  5
2AF2
  8
0
 10
477.2303089161505909
 20
-10.3210655059202203
 30
0.0
 40
0.0258080042944824
 50
223.3781753941451029
 51
308.8179401162057047
  0
ARC
  5
2AF3
  8
0
 10
477.2393024027662136
 20
-10.3322439780763595
 30
0.0
 40
0.0114608428591438
 50
308.8179401162053068
 51
34.7341718742865311
  0
ARC
  5
2AF4
  8
0
 10
477.2301913888272793
 20
-10.3424729885988693
 30
0.0
 40
0.0249842217977774
 50
42.127714348747169
 51
140.5515126316049077
  0
ARC
  5
2AF5
  8
0
 10
477.2198934230610234
 20
-10.3322309552758007
 30
0.0
 40
0.0106127840966445
 50
147.9450551060689065
 51
218.1775345892988014
  0
ARC
  5
2AF6
  8
0
 10
477.3540957364352835
 20
-9.8799710776195742
 30
0.0
 40
0.0623265497818235
 50
226.0450456619936972
 51
247.9147765622944064
  0
ARC
  5
2AF7
  8
0
 10
477.3609365609494262
 20
-9.8630965539392896
 30
0.0
 40
0.0805349655398101
 50
247.9188243149924062
 51
293.6930093019078072
  0
ARC
  5
2AF8
  8
0
 10
477.3684143523479975
 20
-9.8801370869805805
 30
0.0
 40
0.0619259050978465
 50
293.6930093019079209
 51
318.9625005859310249
  0
ARC
  5
2AF9
  8
0
 10
477.3865058174944238
 20
-9.8993988644360762
 30
0.0
 40
0.0357319587324041
 50
323.2168900411004984
 51
6.5025298154933351
  0
ARC
  5
2AFA
  8
0
 10
477.3824794846868826
 20
-9.9028619756559166
 30
0.0
 40
0.0402354453890804
 50
10.7569192706644099
 51
56.6970248530523406
  0
ARC
  5
2AFB
  8
0
 10
477.361637311010611
 20
-9.9345875625266498
 30
0.0
 40
0.0781947534155439
 50
56.6970248530523975
 51
87.8286877415523435
  0
ARC
  5
2AFC
  8
0
 10
477.3614795935113193
 20
-9.9387473606720853
 30
0.0
 40
0.0823575403930777
 50
87.8286877415523435
 51
122.2506152881139059
  0
ARC
  5
2AFD
  8
0
 10
477.3382953327234191
 20
-9.9020034055845976
 30
0.0
 40
0.0389106971964616
 50
122.2506152881139059
 51
173.0242081393816136
  0
ARC
  5
2AFE
  8
0
 10
477.3351143514778983
 20
-9.8989646049241777
 30
0.0
 40
0.0354818042957983
 50
177.2749741732841073
 51
226.8220448028787075
  0
LINE
  5
2AFF
  8
0
 10
477.3084514595378209
 20
-9.9223750433966877
 30
0.0
 11
477.2793855483959078
 21
-9.8917784626978111
 31
0.0
  0
LINE
  5
2B00
  8
0
 10
477.4151238262552965
 20
-9.9207947156557061
 30
0.0
 11
477.441052991594006
 21
-9.8938834086267278
 31
0.0
  0
ARC
  5
2B01
  8
0
 10
477.392592204085588
 20
-9.8554713941730476
 30
0.0
 40
0.0618379396513073
 50
321.5982082253867134
 51
1.877345074315206
  0
ARC
  5
2B02
  8
0
 10
477.3969057521788955
 20
-9.8553300064898117
 30
0.0
 40
0.057522075006786
 50
1.877345074315206
 51
43.5765706829940669
  0
ARC
  5
2B03
  8
0
 10
477.3616777028714182
 20
-9.8888497661947952
 30
0.0
 40
0.1061491225080473
 50
43.5765706829940669
 51
141.9584383097098907
  0
ARC
  5
2B04
  8
0
 10
477.3173974668202959
 20
-9.8542024980175622
 30
0.0
 40
0.0499248172932415
 50
141.9584383097098907
 51
187.8747685519116999
  0
ARC
  5
2B05
  8
0
 10
477.3427329147523892
 20
-9.8506982852488267
 30
0.0
 40
0.0755014556385329
 50
187.8747685519115009
 51
212.9630333740404922
  0
ARC
  5
2B06
  8
0
 10
477.3611941804006733
 20
-9.8921484111710534
 30
0.0
 40
0.0258080042944824
 50
223.3781753941451029
 51
308.8179401162057047
  0
ARC
  5
2B07
  8
0
 10
477.370187667016296
 20
-9.9033268833271997
 30
0.0
 40
0.0114608428591438
 50
308.8179401162053068
 51
34.7341718742865311
  0
ARC
  5
2B08
  8
0
 10
477.3610766530774185
 20
-9.9135558938497095
 30
0.0
 40
0.0249842217977774
 50
42.127714348747169
 51
140.5515126316049077
  0
ARC
  5
2B09
  8
0
 10
477.3507786873109922
 20
-9.9033138605266302
 30
0.0
 40
0.0106127840966445
 50
147.9450551060689065
 51
218.1775345892988014
  0
ARC
  5
2B0A
  8
0
 10
476.7469122394518877
 20
-9.7115986224706692
 30
0.0
 40
0.0623265497818235
 50
226.0450456619936972
 51
247.9147765622944064
  0
ARC
  5
2B0B
  8
0
 10
476.7537530639659167
 20
-9.6947240987903847
 30
0.0
 40
0.0805349655398101
 50
247.9188243149924062
 51
293.6930093019078072
  0
ARC
  5
2B0C
  8
0
 10
476.761230855364488
 20
-9.7117646318316755
 30
0.0
 40
0.0619259050978465
 50
293.6930093019079209
 51
318.9625005859310249
  0
ARC
  5
2B0D
  8
0
 10
476.7793223205109143
 20
-9.7310264092871712
 30
0.0
 40
0.0357319587324041
 50
323.2168900411004984
 51
6.5025298154933351
  0
ARC
  5
2B0E
  8
0
 10
476.7752959877034868
 20
-9.7344895205070117
 30
0.0
 40
0.0402354453890804
 50
10.7569192706644099
 51
56.6970248530523406
  0
ARC
  5
2B0F
  8
0
 10
476.7544538140271015
 20
-9.7662151073777448
 30
0.0
 40
0.0781947534155439
 50
56.6970248530523975
 51
87.8286877415523435
  0
ARC
  5
2B10
  8
0
 10
476.7542960965279235
 20
-9.7703749055231803
 30
0.0
 40
0.0823575403930777
 50
87.8286877415523435
 51
122.2506152881139059
  0
ARC
  5
2B11
  8
0
 10
476.7311118357400233
 20
-9.7336309504356926
 30
0.0
 40
0.0389106971964616
 50
122.2506152881139059
 51
173.0242081393816136
  0
ARC
  5
2B12
  8
0
 10
476.7279308544945025
 20
-9.7305921497752728
 30
0.0
 40
0.0354818042957983
 50
177.2749741732841073
 51
226.8220448028787075
  0
LINE
  5
2B13
  8
0
 10
476.7012679625544251
 20
-9.7540025882477828
 30
0.0
 11
476.6722020514123983
 21
-9.7234060075489062
 31
0.0
  0
LINE
  5
2B14
  8
0
 10
476.8079403292719007
 20
-9.7524222605068012
 30
0.0
 11
476.8338694946104965
 21
-9.7255109534778228
 31
0.0
  0
ARC
  5
2B15
  8
0
 10
476.7854087071021922
 20
-9.6870989390241427
 30
0.0
 40
0.0618379396513073
 50
321.5982082253867134
 51
1.877345074315206
  0
ARC
  5
2B16
  8
0
 10
476.789722255195386
 20
-9.6869575513409067
 30
0.0
 40
0.057522075006786
 50
1.877345074315206
 51
43.5765706829940669
  0
ARC
  5
2B17
  8
0
 10
476.7544942058880224
 20
-9.7204773110458902
 30
0.0
 40
0.1061491225080473
 50
43.5765706829940669
 51
141.9584383097098907
  0
ARC
  5
2B18
  8
0
 10
476.7102139698367864
 20
-9.685830042868659
 30
0.0
 40
0.0499248172932415
 50
141.9584383097098907
 51
187.8747685519116999
  0
ARC
  5
2B19
  8
0
 10
476.7355494177688797
 20
-9.6823258300999218
 30
0.0
 40
0.0755014556385329
 50
187.8747685519115009
 51
212.9630333740404922
  0
ARC
  5
2B1A
  8
0
 10
476.7540106834172207
 20
-9.7237759560221484
 30
0.0
 40
0.0258080042944824
 50
223.3781753941451029
 51
308.8179401162057047
  0
ARC
  5
2B1B
  8
0
 10
476.7630041700329002
 20
-9.7349544281782947
 30
0.0
 40
0.0114608428591438
 50
308.8179401162053068
 51
34.7341718742865311
  0
ARC
  5
2B1C
  8
0
 10
476.7538931560939091
 20
-9.7451834387008045
 30
0.0
 40
0.0249842217977774
 50
42.127714348747169
 51
140.5515126316049077
  0
ARC
  5
2B1D
  8
0
 10
476.7435951903275964
 20
-9.734941405377727
 30
0.0
 40
0.0106127840966445
 50
147.9450551060689065
 51
218.1775345892988014
  0
ARC
  5
2B1E
  8
0
 10
477.0824282663846816
 20
-9.344069395127196
 30
0.0
 40
0.0623265497818235
 50
226.0450456619936972
 51
247.9147765622944064
  0
ARC
  5
2B1F
  8
0
 10
477.0892690908985969
 20
-9.3271948714469133
 30
0.0
 40
0.0805349655398101
 50
247.9188243149924062
 51
293.6930093019078072
  0
ARC
  5
2B20
  8
0
 10
477.0967468822972819
 20
-9.3442354044882023
 30
0.0
 40
0.0619259050978465
 50
293.6930093019079209
 51
318.9625005859310249
  0
ARC
  5
2B21
  8
0
 10
477.1148383474438219
 20
-9.3634971819436981
 30
0.0
 40
0.0357319587324041
 50
323.2168900411004984
 51
6.5025298154933351
  0
ARC
  5
2B22
  8
0
 10
477.1108120146362239
 20
-9.3669602931635403
 30
0.0
 40
0.0402354453890804
 50
10.7569192706644099
 51
56.6970248530523406
  0
ARC
  5
2B23
  8
0
 10
477.0899698409598955
 20
-9.3986858800342734
 30
0.0
 40
0.0781947534155439
 50
56.6970248530523975
 51
87.8286877415523435
  0
ARC
  5
2B24
  8
0
 10
477.0898121234607174
 20
-9.4028456781797072
 30
0.0
 40
0.0823575403930777
 50
87.8286877415523435
 51
122.2506152881139059
  0
ARC
  5
2B25
  8
0
 10
477.0666278626728172
 20
-9.3661017230922212
 30
0.0
 40
0.0389106971964616
 50
122.2506152881139059
 51
173.0242081393816136
  0
ARC
  5
2B26
  8
0
 10
477.0634468814272964
 20
-9.3630629224318014
 30
0.0
 40
0.0354818042957983
 50
177.2749741732841073
 51
226.8220448028787075
  0
LINE
  5
2B27
  8
0
 10
477.0367839894872191
 20
-9.3864733609043096
 30
0.0
 11
477.0077180783451922
 21
-9.3558767802054348
 31
0.0
  0
LINE
  5
2B28
  8
0
 10
477.143456356204581
 20
-9.3848930331633316
 30
0.0
 11
477.1693855215432905
 21
-9.3579817261343496
 31
0.0
  0
ARC
  5
2B29
  8
0
 10
477.1209247340348725
 20
-9.3195697116806695
 30
0.0
 40
0.0618379396513073
 50
321.5982082253867134
 51
1.877345074315206
  0
ARC
  5
2B2A
  8
0
 10
477.1252382821281799
 20
-9.3194283239974336
 30
0.0
 40
0.057522075006786
 50
1.877345074315206
 51
43.5765706829940669
  0
ARC
  5
2B2B
  8
0
 10
477.0900102328208163
 20
-9.352948083702417
 30
0.0
 40
0.1061491225080473
 50
43.5765706829940669
 51
141.9584383097098907
  0
ARC
  5
2B2C
  8
0
 10
477.045729996769694
 20
-9.3183008155251876
 30
0.0
 40
0.0499248172932415
 50
141.9584383097098907
 51
187.8747685519116999
  0
ARC
  5
2B2D
  8
0
 10
477.0710654447016736
 20
-9.3147966027564504
 30
0.0
 40
0.0755014556385329
 50
187.8747685519115009
 51
212.9630333740404922
  0
ARC
  5
2B2E
  8
0
 10
477.0895267103500146
 20
-9.356246728678677
 30
0.0
 40
0.0258080042944824
 50
223.3781753941451029
 51
308.8179401162057047
  0
ARC
  5
2B2F
  8
0
 10
477.0985201969656941
 20
-9.3674252008348233
 30
0.0
 40
0.0114608428591438
 50
308.8179401162053068
 51
34.7341718742865311
  0
ARC
  5
2B30
  8
0
 10
477.0894091830268167
 20
-9.3776542113573331
 30
0.0
 40
0.0249842217977774
 50
42.127714348747169
 51
140.5515126316049077
  0
ARC
  5
2B31
  8
0
 10
477.0791112172603903
 20
-9.3674121780342556
 30
0.0
 40
0.0106127840966445
 50
147.9450551060689065
 51
218.1775345892988014
  0
ARC
  5
2B32
  8
0
 10
477.7218610818089246
 20
-9.5265287898562736
 30
0.0
 40
0.0623265497818235
 50
226.0450456619936972
 51
247.9147765622944064
  0
ARC
  5
2B33
  8
0
 10
477.7287019063228968
 20
-9.5096542661759891
 30
0.0
 40
0.0805349655398101
 50
247.9188243149924062
 51
293.6930093019078072
  0
ARC
  5
2B34
  8
0
 10
477.7361796977215249
 20
-9.5266947992172781
 30
0.0
 40
0.0619259050978465
 50
293.6930093019079209
 51
318.9625005859310249
  0
ARC
  5
2B35
  8
0
 10
477.7542711628678944
 20
-9.5459565766727756
 30
0.0
 40
0.0357319587324041
 50
323.2168900411004984
 51
6.5025298154933351
  0
ARC
  5
2B36
  8
0
 10
477.7502448300605238
 20
-9.5494196878926161
 30
0.0
 40
0.0402354453890804
 50
10.7569192706644099
 51
56.6970248530523406
  0
ARC
  5
2B37
  8
0
 10
477.7294026563841953
 20
-9.5811452747633492
 30
0.0
 40
0.0781947534155439
 50
56.6970248530523975
 51
87.8286877415523435
  0
ARC
  5
2B38
  8
0
 10
477.7292449388849036
 20
-9.5853050729087848
 30
0.0
 40
0.0823575403930777
 50
87.8286877415523435
 51
122.2506152881139059
  0
ARC
  5
2B39
  8
0
 10
477.7060606780970033
 20
-9.548561117821297
 30
0.0
 40
0.0389106971964616
 50
122.2506152881139059
 51
173.0242081393816136
  0
ARC
  5
2B3A
  8
0
 10
477.7028796968514825
 20
-9.5455223171608772
 30
0.0
 40
0.0354818042957983
 50
177.2749741732841073
 51
226.8220448028787075
  0
LINE
  5
2B3B
  8
0
 10
477.6762168049114052
 20
-9.5689327556333872
 30
0.0
 11
477.6471508937694921
 21
-9.5383361749345106
 31
0.0
  0
LINE
  5
2B3C
  8
0
 10
477.7828891716288808
 20
-9.5673524278924074
 30
0.0
 11
477.8088183369675903
 21
-9.5404411208634272
 31
0.0
  0
ARC
  5
2B3D
  8
0
 10
477.760357549459286
 20
-9.5020291064097471
 30
0.0
 40
0.0618379396513073
 50
321.5982082253867134
 51
1.877345074315206
  0
ARC
  5
2B3E
  8
0
 10
477.7646710975524798
 20
-9.5018877187265112
 30
0.0
 40
0.057522075006786
 50
1.877345074315206
 51
43.5765706829940669
  0
ARC
  5
2B3F
  8
0
 10
477.7294430482450025
 20
-9.5354074784314946
 30
0.0
 40
0.1061491225080473
 50
43.5765706829940669
 51
141.9584383097098907
  0
ARC
  5
2B40
  8
0
 10
477.6851628121938802
 20
-9.5007602102542634
 30
0.0
 40
0.0499248172932415
 50
141.9584383097098907
 51
187.8747685519116999
  0
ARC
  5
2B41
  8
0
 10
477.7104982601259167
 20
-9.4972559974855262
 30
0.0
 40
0.0755014556385329
 50
187.8747685519115009
 51
212.9630333740404922
  0
ARC
  5
2B42
  8
0
 10
477.7289595257743144
 20
-9.5387061234077528
 30
0.0
 40
0.0258080042944824
 50
223.3781753941451029
 51
308.8179401162057047
  0
ARC
  5
2B43
  8
0
 10
477.737953012389994
 20
-9.5498845955638991
 30
0.0
 40
0.0114608428591438
 50
308.8179401162053068
 51
34.7341718742865311
  0
ARC
  5
2B44
  8
0
 10
477.7288419984508892
 20
-9.5601136060864071
 30
0.0
 40
0.0249842217977774
 50
42.127714348747169
 51
140.5515126316049077
  0
ARC
  5
2B45
  8
0
 10
477.7185440326846901
 20
-9.5498715727633314
 30
0.0
 40
0.0106127840966445
 50
147.9450551060689065
 51
218.1775345892988014
  0
ARC
  5
2B46
  8
0
 10
478.9675769178729752
 20
-10.8778252077719007
 30
0.0
 40
0.0623265497818235
 50
226.0450456619936972
 51
247.9147765622944064
  0
ARC
  5
2B47
  8
0
 10
478.9744177423870042
 20
-10.8609506840916197
 30
0.0
 40
0.0805349655398101
 50
247.9188243149924062
 51
293.6930093019078072
  0
ARC
  5
2B48
  8
0
 10
478.9818955337855755
 20
-10.8779912171329105
 30
0.0
 40
0.0619259050978465
 50
293.6930093019079209
 51
318.9625005859310249
  0
ARC
  5
2B49
  8
0
 10
478.9999869989320018
 20
-10.8972529945884098
 30
0.0
 40
0.0357319587324041
 50
323.2168900411004984
 51
6.5025298154933351
  0
ARC
  5
2B4A
  8
0
 10
478.9959606661245743
 20
-10.9007161058082502
 30
0.0
 40
0.0402354453890804
 50
10.7569192706644099
 51
56.6970248530523406
  0
ARC
  5
2B4B
  8
0
 10
478.9751184924480754
 20
-10.9324416926789798
 30
0.0
 40
0.0781947534155439
 50
56.6970248530523975
 51
87.8286877415523435
  0
ARC
  5
2B4C
  8
0
 10
478.9749607749488973
 20
-10.9366014908244207
 30
0.0
 40
0.0823575403930777
 50
87.8286877415523435
 51
122.2506152881139059
  0
ARC
  5
2B4D
  8
0
 10
478.9517765141611108
 20
-10.8998575357369294
 30
0.0
 40
0.0389106971964616
 50
122.2506152881139059
 51
173.0242081393816136
  0
ARC
  5
2B4E
  8
0
 10
478.94859553291559
 20
-10.8968187350765096
 30
0.0
 40
0.0354818042957983
 50
177.2749741732841073
 51
226.8220448028787075
  0
LINE
  5
2B4F
  8
0
 10
478.9219326409755126
 20
-10.9202291735490196
 30
0.0
 11
478.8928667298334858
 21
-10.8896325928501394
 31
0.0
  0
LINE
  5
2B50
  8
0
 10
479.0286050076929882
 20
-10.9186488458080397
 30
0.0
 11
479.054534173031584
 21
-10.8917375387790596
 31
0.0
  0
ARC
  5
2B51
  8
0
 10
479.0060733855232797
 20
-10.8533255243253794
 30
0.0
 40
0.0618379396513073
 50
321.5982082253867134
 51
1.877345074315206
  0
ARC
  5
2B52
  8
0
 10
479.0103869336164735
 20
-10.85318413664214
 30
0.0
 40
0.057522075006786
 50
1.877345074315206
 51
43.5765706829940669
  0
ARC
  5
2B53
  8
0
 10
478.9751588843089962
 20
-10.8867038963471305
 30
0.0
 40
0.1061491225080473
 50
43.5765706829940669
 51
141.9584383097098907
  0
ARC
  5
2B54
  8
0
 10
478.9308786482578739
 20
-10.8520566281698905
 30
0.0
 40
0.0499248172932415
 50
141.9584383097098907
 51
187.8747685519116999
  0
ARC
  5
2B55
  8
0
 10
478.9562140961900241
 20
-10.8485524154011603
 30
0.0
 40
0.0755014556385329
 50
187.8747685519115009
 51
212.9630333740404922
  0
ARC
  5
2B56
  8
0
 10
478.9746753618381945
 20
-10.8900025413233799
 30
0.0
 40
0.0258080042944824
 50
223.3781753941451029
 51
308.8179401162057047
  0
ARC
  5
2B57
  8
0
 10
478.983668848453874
 20
-10.9011810134795297
 30
0.0
 40
0.0114608428591438
 50
308.8179401162053068
 51
34.7341718742865311
  0
ARC
  5
2B58
  8
0
 10
478.9745578345149966
 20
-10.9114100240020395
 30
0.0
 40
0.0249842217977774
 50
42.127714348747169
 51
140.5515126316049077
  0
ARC
  5
2B59
  8
0
 10
478.964259868748627
 20
-10.9011679906789603
 30
0.0
 40
0.0106127840966445
 50
147.9450551060689065
 51
218.1775345892988014
  0
ARC
  5
2B5A
  8
0
 10
478.3803603319523745
 20
-10.7926549811111592
 30
0.0
 40
0.0623265497818235
 50
226.0450456619936972
 51
247.9147765622944064
  0
ARC
  5
2B5B
  8
0
 10
478.3872011564664035
 20
-10.7757804574308693
 30
0.0
 40
0.0805349655398101
 50
247.9188243149924062
 51
293.6930093019078072
  0
ARC
  5
2B5C
  8
0
 10
478.3946789478649748
 20
-10.7928209904721601
 30
0.0
 40
0.0619259050978465
 50
293.6930093019079209
 51
318.9625005859310249
  0
ARC
  5
2B5D
  8
0
 10
478.4127704130114012
 20
-10.8120827679276594
 30
0.0
 40
0.0357319587324041
 50
323.2168900411004984
 51
6.5025298154933351
  0
ARC
  5
2B5E
  8
0
 10
478.4087440802039168
 20
-10.8155458791474999
 30
0.0
 40
0.0402354453890804
 50
10.7569192706644099
 51
56.6970248530523406
  0
ARC
  5
2B5F
  8
0
 10
478.3879019065275884
 20
-10.8472714660182294
 30
0.0
 40
0.0781947534155439
 50
56.6970248530523975
 51
87.8286877415523435
  0
ARC
  5
2B60
  8
0
 10
478.3877441890282967
 20
-10.8514312641636703
 30
0.0
 40
0.0823575403930777
 50
87.8286877415523435
 51
122.2506152881139059
  0
ARC
  5
2B61
  8
0
 10
478.3645599282403964
 20
-10.8146873090761808
 30
0.0
 40
0.0389106971964616
 50
122.2506152881139059
 51
173.0242081393816136
  0
ARC
  5
2B62
  8
0
 10
478.3613789469948756
 20
-10.8116485084157592
 30
0.0
 40
0.0354818042957983
 50
177.2749741732841073
 51
226.8220448028787075
  0
LINE
  5
2B63
  8
0
 10
478.3347160550547983
 20
-10.8350589468882692
 30
0.0
 11
478.3056501439128851
 21
-10.8044623661893908
 31
0.0
  0
LINE
  5
2B64
  8
0
 10
478.4413884217722739
 20
-10.8334786191472894
 30
0.0
 11
478.4673175871109834
 21
-10.8065673121183092
 31
0.0
  0
ARC
  5
2B65
  8
0
 10
478.4188567996026222
 20
-10.7681552976646309
 30
0.0
 40
0.0618379396513073
 50
321.5982082253867134
 51
1.877345074315206
  0
ARC
  5
2B66
  8
0
 10
478.4231703476958728
 20
-10.7680139099813896
 30
0.0
 40
0.057522075006786
 50
1.877345074315206
 51
43.5765706829940669
  0
ARC
  5
2B67
  8
0
 10
478.3879422983885092
 20
-10.8015336696863802
 30
0.0
 40
0.1061491225080473
 50
43.5765706829940669
 51
141.9584383097098907
  0
ARC
  5
2B68
  8
0
 10
478.3436620623372733
 20
-10.7668864015091508
 30
0.0
 40
0.0499248172932415
 50
141.9584383097098907
 51
187.8747685519116999
  0
ARC
  5
2B69
  8
0
 10
478.3689975102693097
 20
-10.76338218874041
 30
0.0
 40
0.0755014556385329
 50
187.8747685519115009
 51
212.9630333740404922
  0
ARC
  5
2B6A
  8
0
 10
478.3874587759177075
 20
-10.8048323146626402
 30
0.0
 40
0.0258080042944824
 50
223.3781753941451029
 51
308.8179401162057047
  0
ARC
  5
2B6B
  8
0
 10
478.3964522625333871
 20
-10.8160107868187794
 30
0.0
 40
0.0114608428591438
 50
308.8179401162053068
 51
34.7341718742865311
  0
ARC
  5
2B6C
  8
0
 10
478.3873412485942822
 20
-10.8262397973412892
 30
0.0
 40
0.0249842217977774
 50
42.127714348747169
 51
140.5515126316049077
  0
ARC
  5
2B6D
  8
0
 10
478.3770432828280832
 20
-10.8159977640182099
 30
0.0
 40
0.0106127840966445
 50
147.9450551060689065
 51
218.1775345892988014
  0
ARC
  5
2B6E
  8
0
 10
477.9549122946838224
 20
-10.4849506252124094
 30
0.0
 40
0.0623265497818235
 50
226.0450456619936972
 51
247.9147765622944064
  0
ARC
  5
2B6F
  8
0
 10
477.9617531191977946
 20
-10.4680761015321302
 30
0.0
 40
0.0805349655398101
 50
247.9188243149924062
 51
293.6930093019078072
  0
ARC
  5
2B70
  8
0
 10
477.9692309105964227
 20
-10.4851166345734192
 30
0.0
 40
0.0619259050978465
 50
293.6930093019079209
 51
318.9625005859310249
  0
ARC
  5
2B71
  8
0
 10
477.9873223757427922
 20
-10.5043784120289097
 30
0.0
 40
0.0357319587324041
 50
323.2168900411004984
 51
6.5025298154933351
  0
ARC
  5
2B72
  8
0
 10
477.9832960429353079
 20
-10.5078415232487501
 30
0.0
 40
0.0402354453890804
 50
10.7569192706644099
 51
56.6970248530523406
  0
ARC
  5
2B73
  8
0
 10
477.9624538692589795
 20
-10.5395671101194903
 30
0.0
 40
0.0781947534155439
 50
56.6970248530523975
 51
87.8286877415523435
  0
ARC
  5
2B74
  8
0
 10
477.9622961517596877
 20
-10.5437269082649205
 30
0.0
 40
0.0823575403930777
 50
87.8286877415523435
 51
122.2506152881139059
  0
ARC
  5
2B75
  8
0
 10
477.9391118909717875
 20
-10.5069829531774399
 30
0.0
 40
0.0389106971964616
 50
122.2506152881139059
 51
173.0242081393816136
  0
ARC
  5
2B76
  8
0
 10
477.9359309097263235
 20
-10.5039441525170201
 30
0.0
 40
0.0354818042957983
 50
177.2749741732841073
 51
226.8220448028787075
  0
LINE
  5
2B77
  8
0
 10
477.9092680177861894
 20
-10.5273545909895301
 30
0.0
 11
477.8802021066442762
 21
-10.4967580102906499
 31
0.0
  0
LINE
  5
2B78
  8
0
 10
478.0159403845037218
 20
-10.5257742632485503
 30
0.0
 11
478.0418695498423745
 21
-10.4988629562195701
 31
0.0
  0
ARC
  5
2B79
  8
0
 10
477.9934087623340133
 20
-10.46045094176589
 30
0.0
 40
0.0618379396513073
 50
321.5982082253867134
 51
1.877345074315206
  0
ARC
  5
2B7A
  8
0
 10
477.9977223104273207
 20
-10.4603095540826505
 30
0.0
 40
0.057522075006786
 50
1.877345074315206
 51
43.5765706829940669
  0
ARC
  5
2B7B
  8
0
 10
477.9624942611197866
 20
-10.4938293137876304
 30
0.0
 40
0.1061491225080473
 50
43.5765706829940669
 51
141.9584383097098907
  0
ARC
  5
2B7C
  8
0
 10
477.9182140250687212
 20
-10.4591820456103992
 30
0.0
 40
0.0499248172932415
 50
141.9584383097098907
 51
187.8747685519116999
  0
ARC
  5
2B7D
  8
0
 10
477.9435494730007008
 20
-10.4556778328416602
 30
0.0
 40
0.0755014556385329
 50
187.8747685519115009
 51
212.9630333740404922
  0
ARC
  5
2B7E
  8
0
 10
477.9620107386490986
 20
-10.4971279587638904
 30
0.0
 40
0.0258080042944824
 50
223.3781753941451029
 51
308.8179401162057047
  0
ARC
  5
2B7F
  8
0
 10
477.9710042252647781
 20
-10.5083064309200402
 30
0.0
 40
0.0114608428591438
 50
308.8179401162053068
 51
34.7341718742865311
  0
ARC
  5
2B80
  8
0
 10
477.9618932113256733
 20
-10.51853544144255
 30
0.0
 40
0.0249842217977774
 50
42.127714348747169
 51
140.5515126316049077
  0
ARC
  5
2B81
  8
0
 10
477.9515952455594743
 20
-10.5082934081194708
 30
0.0
 40
0.0106127840966445
 50
147.9450551060689065
 51
218.1775345892988014
  0
ARC
  5
2B82
  8
0
 10
477.9539376542550144
 20
-10.0602355194943005
 30
0.0
 40
0.0623265497818235
 50
226.0450456619936972
 51
247.9147765622944064
  0
ARC
  5
2B83
  8
0
 10
477.9607784787689866
 20
-10.0433609958140106
 30
0.0
 40
0.0805349655398101
 50
247.9188243149924062
 51
293.6930093019078072
  0
ARC
  5
2B84
  8
0
 10
477.9682562701676147
 20
-10.0604015288552997
 30
0.0
 40
0.0619259050978465
 50
293.6930093019079209
 51
318.9625005859310249
  0
ARC
  5
2B85
  8
0
 10
477.9863477353139842
 20
-10.0796633063108008
 30
0.0
 40
0.0357319587324041
 50
323.2168900411004984
 51
6.5025298154933351
  0
ARC
  5
2B86
  8
0
 10
477.9823214025066136
 20
-10.0831264175306394
 30
0.0
 40
0.0402354453890804
 50
10.7569192706644099
 51
56.6970248530523406
  0
ARC
  5
2B87
  8
0
 10
477.9614792288302283
 20
-10.1148520044013708
 30
0.0
 40
0.0781947534155439
 50
56.6970248530523975
 51
87.8286877415523435
  0
ARC
  5
2B88
  8
0
 10
477.9613215113308797
 20
-10.1190118025468099
 30
0.0
 40
0.0823575403930777
 50
87.8286877415523435
 51
122.2506152881139059
  0
ARC
  5
2B89
  8
0
 10
477.9381372505430932
 20
-10.0822678474593204
 30
0.0
 40
0.0389106971964616
 50
122.2506152881139059
 51
173.0242081393816136
  0
ARC
  5
2B8A
  8
0
 10
477.9349562692975724
 20
-10.0792290467989005
 30
0.0
 40
0.0354818042957983
 50
177.2749741732841073
 51
226.8220448028787075
  0
LINE
  5
2B8B
  8
0
 10
477.908293377357495
 20
-10.1026394852714105
 30
0.0
 11
477.8792274662155819
 21
-10.0720429045725393
 31
0.0
  0
LINE
  5
2B8C
  8
0
 10
478.0149657440750275
 20
-10.1010591575304307
 30
0.0
 11
478.0408949094136801
 21
-10.0741478505014506
 31
0.0
  0
ARC
  5
2B8D
  8
0
 10
477.992434121905319
 20
-10.0357358360477704
 30
0.0
 40
0.0618379396513073
 50
321.5982082253867134
 51
1.877345074315206
  0
ARC
  5
2B8E
  8
0
 10
477.9967476699986264
 20
-10.0355944483645292
 30
0.0
 40
0.057522075006786
 50
1.877345074315206
 51
43.5765706829940669
  0
ARC
  5
2B8F
  8
0
 10
477.9615196206909786
 20
-10.0691142080695197
 30
0.0
 40
0.1061491225080473
 50
43.5765706829940669
 51
141.9584383097098907
  0
ARC
  5
2B90
  8
0
 10
477.9172393846399132
 20
-10.0344669398922903
 30
0.0
 40
0.0499248172932415
 50
141.9584383097098907
 51
187.8747685519116999
  0
ARC
  5
2B91
  8
0
 10
477.9425748325720065
 20
-10.0309627271235495
 30
0.0
 40
0.0755014556385329
 50
187.8747685519115009
 51
212.9630333740404922
  0
ARC
  5
2B92
  8
0
 10
477.9610360982202906
 20
-10.0724128530457797
 30
0.0
 40
0.0258080042944824
 50
223.3781753941451029
 51
308.8179401162057047
  0
ARC
  5
2B93
  8
0
 10
477.970029584836027
 20
-10.0835913252019207
 30
0.0
 40
0.0114608428591438
 50
308.8179401162053068
 51
34.7341718742865311
  0
ARC
  5
2B94
  8
0
 10
477.960918570896979
 20
-10.0938203357244305
 30
0.0
 40
0.0249842217977774
 50
42.127714348747169
 51
140.5515126316049077
  0
ARC
  5
2B95
  8
0
 10
477.9506206051307231
 20
-10.0835783024013601
 30
0.0
 40
0.0106127840966445
 50
147.9450551060689065
 51
218.1775345892988014
  0
ARC
  5
2B96
  8
0
 10
478.3804367010380929
 20
-9.7701113403156956
 30
0.0
 40
0.0623265497818235
 50
226.0450456619936972
 51
247.9147765622944064
  0
ARC
  5
2B97
  8
0
 10
478.3872775255520082
 20
-9.7532368166354111
 30
0.0
 40
0.0805349655398101
 50
247.9188243149924062
 51
293.6930093019078072
  0
ARC
  5
2B98
  8
0
 10
478.3947553169506932
 20
-9.7702773496767001
 30
0.0
 40
0.0619259050978465
 50
293.6930093019079209
 51
318.9625005859310249
  0
ARC
  5
2B99
  8
0
 10
478.4128467820971196
 20
-9.7895391271321976
 30
0.0
 40
0.0357319587324041
 50
323.2168900411004984
 51
6.5025298154933351
  0
ARC
  5
2B9A
  8
0
 10
478.4088204492895784
 20
-9.7930022383520381
 30
0.0
 40
0.0402354453890804
 50
10.7569192706644099
 51
56.6970248530523406
  0
ARC
  5
2B9B
  8
0
 10
478.3879782756131931
 20
-9.8247278252227712
 30
0.0
 40
0.0781947534155439
 50
56.6970248530523975
 51
87.8286877415523435
  0
ARC
  5
2B9C
  8
0
 10
478.3878205581140151
 20
-9.8288876233682068
 30
0.0
 40
0.0823575403930777
 50
87.8286877415523435
 51
122.2506152881139059
  0
ARC
  5
2B9D
  8
0
 10
478.3646362973261716
 20
-9.792143668280719
 30
0.0
 40
0.0389106971964616
 50
122.2506152881139059
 51
173.0242081393816136
  0
ARC
  5
2B9E
  8
0
 10
478.361455316080594
 20
-9.7891048676202992
 30
0.0
 40
0.0354818042957983
 50
177.2749741732841073
 51
226.8220448028787075
  0
LINE
  5
2B9F
  8
0
 10
478.3347924241405735
 20
-9.8125153060928092
 30
0.0
 11
478.3057265129984899
 21
-9.7819187253939326
 31
0.0
  0
LINE
  5
2BA0
  8
0
 10
478.4414647908579923
 20
-9.8109349783518294
 30
0.0
 11
478.4673939561967018
 21
-9.7840236713228492
 31
0.0
  0
ARC
  5
2BA1
  8
0
 10
478.4189331686882838
 20
-9.7456116568691691
 30
0.0
 40
0.0618379396513073
 50
321.5982082253867134
 51
1.877345074315206
  0
ARC
  5
2BA2
  8
0
 10
478.4232467167814775
 20
-9.7454702691859332
 30
0.0
 40
0.057522075006786
 50
1.877345074315206
 51
43.5765706829940669
  0
ARC
  5
2BA3
  8
0
 10
478.388018667474114
 20
-9.7789900288909166
 30
0.0
 40
0.1061491225080473
 50
43.5765706829940669
 51
141.9584383097098907
  0
ARC
  5
2BA4
  8
0
 10
478.3437384314229917
 20
-9.7443427607136854
 30
0.0
 40
0.0499248172932415
 50
141.9584383097098907
 51
187.8747685519116999
  0
ARC
  5
2BA5
  8
0
 10
478.3690738793550281
 20
-9.7408385479449482
 30
0.0
 40
0.0755014556385329
 50
187.8747685519115009
 51
212.9630333740404922
  0
ARC
  5
2BA6
  8
0
 10
478.3875351450033122
 20
-9.7822886738671748
 30
0.0
 40
0.0258080042944824
 50
223.3781753941451029
 51
308.8179401162057047
  0
ARC
  5
2BA7
  8
0
 10
478.3965286316189918
 20
-9.7934671460233211
 30
0.0
 40
0.0114608428591438
 50
308.8179401162053068
 51
34.7341718742865311
  0
ARC
  5
2BA8
  8
0
 10
478.3874176176801143
 20
-9.8036961565458292
 30
0.0
 40
0.0249842217977774
 50
42.127714348747169
 51
140.5515126316049077
  0
ARC
  5
2BA9
  8
0
 10
478.3771196519136879
 20
-9.7934541232227534
 30
0.0
 40
0.0106127840966445
 50
147.9450551060689065
 51
218.1775345892988014
  0
ARC
  5
2BAA
  8
0
 10
478.9684514240112208
 20
-9.6878313479062772
 30
0.0
 40
0.0623265497818235
 50
226.0450456619936972
 51
247.9147765622944064
  0
ARC
  5
2BAB
  8
0
 10
478.9752922485250792
 20
-9.6709568242259927
 30
0.0
 40
0.0805349655398101
 50
247.9188243149924062
 51
293.6930093019078072
  0
ARC
  5
2BAC
  8
0
 10
478.9827700399237074
 20
-9.6879973572672835
 30
0.0
 40
0.0619259050978465
 50
293.6930093019079209
 51
318.9625005859310249
  0
ARC
  5
2BAD
  8
0
 10
479.0008615050701906
 20
-9.7072591347227792
 30
0.0
 40
0.0357319587324041
 50
323.2168900411004984
 51
6.5025298154933351
  0
ARC
  5
2BAE
  8
0
 10
478.9968351722627062
 20
-9.7107222459426197
 30
0.0
 40
0.0402354453890804
 50
10.7569192706644099
 51
56.6970248530523406
  0
ARC
  5
2BAF
  8
0
 10
478.9759929985863209
 20
-9.7424478328133528
 30
0.0
 40
0.0781947534155439
 50
56.6970248530523975
 51
87.8286877415523435
  0
ARC
  5
2BB0
  8
0
 10
478.9758352810870861
 20
-9.7466076309587883
 30
0.0
 40
0.0823575403930777
 50
87.8286877415523435
 51
122.2506152881139059
  0
ARC
  5
2BB1
  8
0
 10
478.9526510202991858
 20
-9.7098636758713006
 30
0.0
 40
0.0389106971964616
 50
122.2506152881139059
 51
173.0242081393816136
  0
ARC
  5
2BB2
  8
0
 10
478.9494700390537218
 20
-9.7068248752108808
 30
0.0
 40
0.0354818042957983
 50
177.2749741732841073
 51
226.8220448028787075
  0
LINE
  5
2BB3
  8
0
 10
478.9228071471135877
 20
-9.7302353136833908
 30
0.0
 11
478.8937412359716177
 21
-9.6996387329845142
 31
0.0
  0
LINE
  5
2BB4
  8
0
 10
479.0294795138311201
 20
-9.7286549859424092
 30
0.0
 11
479.0554086791697159
 21
-9.7017436789134308
 31
0.0
  0
ARC
  5
2BB5
  8
0
 10
479.0069478916612979
 20
-9.6633316644597507
 30
0.0
 40
0.0618379396513073
 50
321.5982082253867134
 51
1.877345074315206
  0
ARC
  5
2BB6
  8
0
 10
479.0112614397546054
 20
-9.6631902767765148
 30
0.0
 40
0.057522075006786
 50
1.877345074315206
 51
43.5765706829940669
  0
ARC
  5
2BB7
  8
0
 10
478.976033390447185
 20
-9.6967100364814982
 30
0.0
 40
0.1061491225080473
 50
43.5765706829940669
 51
141.9584383097098907
  0
ARC
  5
2BB8
  8
0
 10
478.9317531543960058
 20
-9.662062768304267
 30
0.0
 40
0.0499248172932415
 50
141.9584383097098907
 51
187.8747685519116999
  0
ARC
  5
2BB9
  8
0
 10
478.9570886023279854
 20
-9.6585585555355298
 30
0.0
 40
0.0755014556385329
 50
187.8747685519115009
 51
212.9630333740404922
  0
ARC
  5
2BBA
  8
0
 10
478.9755498679763832
 20
-9.7000086814577564
 30
0.0
 40
0.0258080042944824
 50
223.3781753941451029
 51
308.8179401162057047
  0
ARC
  5
2BBB
  8
0
 10
478.9845433545921196
 20
-9.7111871536139027
 30
0.0
 40
0.0114608428591438
 50
308.8179401162053068
 51
34.7341718742865311
  0
ARC
  5
2BBC
  8
0
 10
478.9754323406530716
 20
-9.7214161641364125
 30
0.0
 40
0.0249842217977774
 50
42.127714348747169
 51
140.5515126316049077
  0
ARC
  5
2BBD
  8
0
 10
478.9651343748868157
 20
-9.711174130813335
 30
0.0
 40
0.0106127840966445
 50
147.9450551060689065
 51
218.1775345892988014
  0
ARC
  5
2BBE
  8
0
 10
478.8934218681454809
 20
-9.2500858946075457
 30
0.0
 40
0.0623265497818235
 50
226.0450456619936972
 51
247.9147765622944064
  0
ARC
  5
2BBF
  8
0
 10
478.9002626926595099
 20
-9.2332113709272612
 30
0.0
 40
0.0805349655398101
 50
247.9188243149924062
 51
293.6930093019078072
  0
ARC
  5
2BC0
  8
0
 10
478.9077404840580812
 20
-9.250251903968552
 30
0.0
 40
0.0619259050978465
 50
293.6930093019079209
 51
318.9625005859310249
  0
ARC
  5
2BC1
  8
0
 10
478.9258319492045075
 20
-9.2695136814240477
 30
0.0
 40
0.0357319587324041
 50
323.2168900411004984
 51
6.5025298154933351
  0
ARC
  5
2BC2
  8
0
 10
478.92180561639708
 20
-9.2729767926438882
 30
0.0
 40
0.0402354453890804
 50
10.7569192706644099
 51
56.6970248530523406
  0
ARC
  5
2BC3
  8
0
 10
478.900963442720581
 20
-9.3047023795146213
 30
0.0
 40
0.0781947534155439
 50
56.6970248530523975
 51
87.8286877415523435
  0
ARC
  5
2BC4
  8
0
 10
478.9008057252215167
 20
-9.3088621776600569
 30
0.0
 40
0.0823575403930777
 50
87.8286877415523435
 51
122.2506152881139059
  0
ARC
  5
2BC5
  8
0
 10
478.8776214644336164
 20
-9.2721182225725691
 30
0.0
 40
0.0389106971964616
 50
122.2506152881139059
 51
173.0242081393816136
  0
ARC
  5
2BC6
  8
0
 10
478.8744404831880956
 20
-9.2690794219121493
 30
0.0
 40
0.0354818042957983
 50
177.2749741732841073
 51
226.8220448028787075
  0
LINE
  5
2BC7
  8
0
 10
478.8477775912480183
 20
-9.2924898603846593
 30
0.0
 11
478.8187116801061052
 21
-9.2618932796857827
 31
0.0
  0
LINE
  5
2BC8
  8
0
 10
478.9544499579654939
 20
-9.2909095326436795
 30
0.0
 11
478.9803791233040897
 21
-9.2639982256146993
 31
0.0
  0
ARC
  5
2BC9
  8
0
 10
478.9319183357957854
 20
-9.2255862111610192
 30
0.0
 40
0.0618379396513073
 50
321.5982082253867134
 51
1.877345074315206
  0
ARC
  5
2BCA
  8
0
 10
478.9362318838889792
 20
-9.2254448234777833
 30
0.0
 40
0.057522075006786
 50
1.877345074315206
 51
43.5765706829940669
  0
ARC
  5
2BCB
  8
0
 10
478.9010038345816156
 20
-9.2589645831827667
 30
0.0
 40
0.1061491225080473
 50
43.5765706829940669
 51
141.9584383097098907
  0
ARC
  5
2BCC
  8
0
 10
478.8567235985303796
 20
-9.2243173150055355
 30
0.0
 40
0.0499248172932415
 50
141.9584383097098907
 51
187.8747685519116999
  0
ARC
  5
2BCD
  8
0
 10
478.8820590464624729
 20
-9.2208131022367983
 30
0.0
 40
0.0755014556385329
 50
187.8747685519115009
 51
212.9630333740404922
  0
ARC
  5
2BCE
  8
0
 10
478.9005203121108138
 20
-9.2622632281590231
 30
0.0
 40
0.0258080042944824
 50
223.3781753941451029
 51
308.8179401162057047
  0
ARC
  5
2BCF
  8
0
 10
478.9095137987263797
 20
-9.2734417003151712
 30
0.0
 40
0.0114608428591438
 50
308.8179401162053068
 51
34.7341718742865311
  0
ARC
  5
2BD0
  8
0
 10
478.9004027847875022
 20
-9.283670710837681
 30
0.0
 40
0.0249842217977774
 50
42.127714348747169
 51
140.5515126316049077
  0
ARC
  5
2BD1
  8
0
 10
478.8901048190211895
 20
-9.2734286775146035
 30
0.0
 40
0.0106127840966445
 50
147.9450551060689065
 51
218.1775345892988014
  0
ARC
  5
2BD2
  8
0
 10
478.278009335158572
 20
-9.3283000053544161
 30
0.0
 40
0.0623265497818235
 50
226.0450456619936972
 51
247.9147765622944064
  0
ARC
  5
2BD3
  8
0
 10
478.284850159672601
 20
-9.3114254816741315
 30
0.0
 40
0.0805349655398101
 50
247.9188243149924062
 51
293.6930093019078072
  0
ARC
  5
2BD4
  8
0
 10
478.2923279510711723
 20
-9.3284660147154224
 30
0.0
 40
0.0619259050978465
 50
293.6930093019079209
 51
318.9625005859310249
  0
ARC
  5
2BD5
  8
0
 10
478.3104194162175986
 20
-9.3477277921709181
 30
0.0
 40
0.0357319587324041
 50
323.2168900411004984
 51
6.5025298154933351
  0
ARC
  5
2BD6
  8
0
 10
478.3063930834101143
 20
-9.3511909033907585
 30
0.0
 40
0.0402354453890804
 50
10.7569192706644099
 51
56.6970248530523406
  0
ARC
  5
2BD7
  8
0
 10
478.2855509097337858
 20
-9.3829164902614917
 30
0.0
 40
0.0781947534155439
 50
56.6970248530523975
 51
87.8286877415523435
  0
ARC
  5
2BD8
  8
0
 10
478.2853931922344941
 20
-9.3870762884069272
 30
0.0
 40
0.0823575403930777
 50
87.8286877415523435
 51
122.2506152881139059
  0
ARC
  5
2BD9
  8
0
 10
478.2622089314465939
 20
-9.3503323333194395
 30
0.0
 40
0.0389106971964616
 50
122.2506152881139059
 51
173.0242081393816136
  0
ARC
  5
2BDA
  8
0
 10
478.2590279502010731
 20
-9.3472935326590196
 30
0.0
 40
0.0354818042957983
 50
177.2749741732841073
 51
226.8220448028787075
  0
LINE
  5
2BDB
  8
0
 10
478.2323650582609957
 20
-9.3707039711315296
 30
0.0
 11
478.2032991471190826
 21
-9.340107390432653
 31
0.0
  0
LINE
  5
2BDC
  8
0
 10
478.3390374249785282
 20
-9.3691236433905498
 30
0.0
 11
478.3649665903171808
 21
-9.3422123363615697
 31
0.0
  0
ARC
  5
2BDD
  8
0
 10
478.3165058028088197
 20
-9.3038003219078895
 30
0.0
 40
0.0618379396513073
 50
321.5982082253867134
 51
1.877345074315206
  0
ARC
  5
2BDE
  8
0
 10
478.3208193509021271
 20
-9.3036589342246536
 30
0.0
 40
0.057522075006786
 50
1.877345074315206
 51
43.5765706829940669
  0
ARC
  5
2BDF
  8
0
 10
478.285591301594593
 20
-9.3371786939296371
 30
0.0
 40
0.1061491225080473
 50
43.5765706829940669
 51
141.9584383097098907
  0
ARC
  5
2BE0
  8
0
 10
478.2413110655435275
 20
-9.3025314257524059
 30
0.0
 40
0.0499248172932415
 50
141.9584383097098907
 51
187.8747685519116999
  0
ARC
  5
2BE1
  8
0
 10
478.2666465134755072
 20
-9.2990272129836686
 30
0.0
 40
0.0755014556385329
 50
187.8747685519115009
 51
212.9630333740404922
  0
ARC
  5
2BE2
  8
0
 10
478.2851077791239049
 20
-9.3404773389058953
 30
0.0
 40
0.0258080042944824
 50
223.3781753941451029
 51
308.8179401162057047
  0
ARC
  5
2BE3
  8
0
 10
478.2941012657395845
 20
-9.3516558110620416
 30
0.0
 40
0.0114608428591438
 50
308.8179401162053068
 51
34.7341718742865311
  0
ARC
  5
2BE4
  8
0
 10
478.2849902518004797
 20
-9.3618848215845514
 30
0.0
 40
0.0249842217977774
 50
42.127714348747169
 51
140.5515126316049077
  0
ARC
  5
2BE5
  8
0
 10
478.2746922860342806
 20
-9.3516427882614739
 30
0.0
 40
0.0106127840966445
 50
147.9450551060689065
 51
218.1775345892988014
  0
ARC
  5
2BE6
  8
0
 10
477.5587627497774861
 20
-9.0647603173914906
 30
0.0
 40
0.0623265497818235
 50
226.0450456619936972
 51
247.9147765622944064
  0
ARC
  5
2BE7
  8
0
 10
477.5656035742914014
 20
-9.047885793711206
 30
0.0
 40
0.0805349655398101
 50
247.9188243149924062
 51
293.6930093019078072
  0
ARC
  5
2BE8
  8
0
 10
477.5730813656900864
 20
-9.0649263267524969
 30
0.0
 40
0.0619259050978465
 50
293.6930093019079209
 51
318.9625005859310249
  0
ARC
  5
2BE9
  8
0
 10
477.5911728308365127
 20
-9.0841881042079926
 30
0.0
 40
0.0357319587324041
 50
323.2168900411004984
 51
6.5025298154933351
  0
ARC
  5
2BEA
  8
0
 10
477.5871464980290284
 20
-9.0876512154278331
 30
0.0
 40
0.0402354453890804
 50
10.7569192706644099
 51
56.6970248530523406
  0
ARC
  5
2BEB
  8
0
 10
477.5663043243525863
 20
-9.1193768022985662
 30
0.0
 40
0.0781947534155439
 50
56.6970248530523975
 51
87.8286877415523435
  0
ARC
  5
2BEC
  8
0
 10
477.5661466068534082
 20
-9.1235366004440017
 30
0.0
 40
0.0823575403930777
 50
87.8286877415523435
 51
122.2506152881139059
  0
ARC
  5
2BED
  8
0
 10
477.542962346065508
 20
-9.0867926453565122
 30
0.0
 40
0.0389106971964616
 50
122.2506152881139059
 51
173.0242081393816136
  0
ARC
  5
2BEE
  8
0
 10
477.5397813648201009
 20
-9.0837538446960941
 30
0.0
 40
0.0354818042957983
 50
177.2749741732841073
 51
226.8220448028787075
  0
LINE
  5
2BEF
  8
0
 10
477.5131184728799099
 20
-9.1071642831686042
 30
0.0
 11
477.4840525617379967
 21
-9.0765677024697275
 31
0.0
  0
LINE
  5
2BF0
  8
0
 10
477.6197908395974991
 20
-9.1055839554276243
 30
0.0
 11
477.6457200049359813
 21
-9.0786726483986442
 31
0.0
  0
ARC
  5
2BF1
  8
0
 10
477.597259217427677
 20
-9.040260633944964
 30
0.0
 40
0.0618379396513073
 50
321.5982082253867134
 51
1.877345074315206
  0
ARC
  5
2BF2
  8
0
 10
477.6015727655209844
 20
-9.0401192462617281
 30
0.0
 40
0.057522075006786
 50
1.877345074315206
 51
43.5765706829940669
  0
ARC
  5
2BF3
  8
0
 10
477.5663447162135071
 20
-9.0736390059667116
 30
0.0
 40
0.1061491225080473
 50
43.5765706829940669
 51
141.9584383097098907
  0
ARC
  5
2BF4
  8
0
 10
477.5220644801623848
 20
-9.0389917377894804
 30
0.0
 40
0.0499248172932415
 50
141.9584383097098907
 51
187.8747685519116999
  0
ARC
  5
2BF5
  8
0
 10
477.5473999280944213
 20
-9.0354875250207431
 30
0.0
 40
0.0755014556385329
 50
187.8747685519115009
 51
212.9630333740404922
  0
ARC
  5
2BF6
  8
0
 10
477.5658611937428191
 20
-9.0769376509429698
 30
0.0
 40
0.0258080042944824
 50
223.3781753941451029
 51
308.8179401162057047
  0
ARC
  5
2BF7
  8
0
 10
477.5748546803583849
 20
-9.0881161230991161
 30
0.0
 40
0.0114608428591438
 50
308.8179401162053068
 51
34.7341718742865311
  0
ARC
  5
2BF8
  8
0
 10
477.5657436664195075
 20
-9.0983451336216241
 30
0.0
 40
0.0249842217977774
 50
42.127714348747169
 51
140.5515126316049077
  0
ARC
  5
2BF9
  8
0
 10
477.5554457006530811
 20
-9.0881031002985484
 30
0.0
 40
0.0106127840966445
 50
147.9450551060689065
 51
218.1775345892988014
  0
ARC
  5
2BFA
  8
0
 10
478.1703418750946071
 20
-8.8899509215951813
 30
0.0
 40
0.0623265497818235
 50
226.0450456619936972
 51
247.9147765622944064
  0
ARC
  5
2BFB
  8
0
 10
478.1771826996085224
 20
-8.8730763979148968
 30
0.0
 40
0.0805349655398101
 50
247.9188243149924062
 51
293.6930093019078072
  0
ARC
  5
2BFC
  8
0
 10
478.1846604910072074
 20
-8.8901169309561876
 30
0.0
 40
0.0619259050978465
 50
293.6930093019079209
 51
318.9625005859310249
  0
ARC
  5
2BFD
  8
0
 10
478.2027519561535769
 20
-8.9093787084116833
 30
0.0
 40
0.0357319587324041
 50
323.2168900411004984
 51
6.5025298154933351
  0
ARC
  5
2BFE
  8
0
 10
478.1987256233460926
 20
-8.9128418196315238
 30
0.0
 40
0.0402354453890804
 50
10.7569192706644099
 51
56.6970248530523406
  0
ARC
  5
2BFF
  8
0
 10
478.1778834496697073
 20
-8.9445674065022551
 30
0.0
 40
0.0781947534155439
 50
56.6970248530523975
 51
87.8286877415523435
  0
ARC
  5
2C00
  8
0
 10
478.1777257321704724
 20
-8.9487272046476924
 30
0.0
 40
0.0823575403930777
 50
87.8286877415523435
 51
122.2506152881139059
  0
ARC
  5
2C01
  8
0
 10
478.1545414713826858
 20
-8.9119832495602047
 30
0.0
 40
0.0389106971964616
 50
122.2506152881139059
 51
173.0242081393816136
  0
ARC
  5
2C02
  8
0
 10
478.1513604901372219
 20
-8.9089444488997849
 30
0.0
 40
0.0354818042957983
 50
177.2749741732841073
 51
226.8220448028787075
  0
LINE
  5
2C03
  8
0
 10
478.1246975981970877
 20
-8.9323548873722949
 30
0.0
 11
478.095631687055004
 21
-8.9017583066734183
 31
0.0
  0
LINE
  5
2C04
  8
0
 10
478.2313699649145065
 20
-8.9307745596313151
 30
0.0
 11
478.2572991302532159
 21
-8.9038632526023331
 31
0.0
  0
ARC
  5
2C05
  8
0
 10
478.208838342744798
 20
-8.8654512381486548
 30
0.0
 40
0.0618379396513073
 50
321.5982082253867134
 51
1.877345074315206
  0
ARC
  5
2C06
  8
0
 10
478.2131518908379917
 20
-8.8653098504654189
 30
0.0
 40
0.057522075006786
 50
1.877345074315206
 51
43.5765706829940669
  0
ARC
  5
2C07
  8
0
 10
478.1779238415306281
 20
-8.8988296101704023
 30
0.0
 40
0.1061491225080473
 50
43.5765706829940669
 51
141.9584383097098907
  0
ARC
  5
2C08
  8
0
 10
478.1336436054795058
 20
-8.8641823419931711
 30
0.0
 40
0.0499248172932415
 50
141.9584383097098907
 51
187.8747685519116999
  0
ARC
  5
2C09
  8
0
 10
478.1589790534114854
 20
-8.8606781292244339
 30
0.0
 40
0.0755014556385329
 50
187.8747685519115009
 51
212.9630333740404922
  0
ARC
  5
2C0A
  8
0
 10
478.1774403190598264
 20
-8.9021282551466605
 30
0.0
 40
0.0258080042944824
 50
223.3781753941451029
 51
308.8179401162057047
  0
ARC
  5
2C0B
  8
0
 10
478.1864338056755059
 20
-8.9133067273028068
 30
0.0
 40
0.0114608428591438
 50
308.8179401162053068
 51
34.7341718742865311
  0
ARC
  5
2C0C
  8
0
 10
478.1773227917365716
 20
-8.9235357378253166
 30
0.0
 40
0.0249842217977774
 50
42.127714348747169
 51
140.5515126316049077
  0
ARC
  5
2C0D
  8
0
 10
478.1670248259702021
 20
-8.9132937045022391
 30
0.0
 40
0.0106127840966445
 50
147.9450551060689065
 51
218.1775345892988014
  0
ARC
  5
2C0E
  8
0
 10
478.8607874352691169
 20
-8.8094400504740182
 30
0.0
 40
0.0623265497818235
 50
226.0450456619936972
 51
247.9147765622944064
  0
ARC
  5
2C0F
  8
0
 10
478.8676282597830891
 20
-8.7925655267937337
 30
0.0
 40
0.0805349655398101
 50
247.9188243149924062
 51
293.6930093019078072
  0
ARC
  5
2C10
  8
0
 10
478.8751060511817741
 20
-8.8096060598350245
 30
0.0
 40
0.0619259050978465
 50
293.6930093019079209
 51
318.9625005859310249
  0
ARC
  5
2C11
  8
0
 10
478.8931975163282004
 20
-8.8288678372905203
 30
0.0
 40
0.0357319587324041
 50
323.2168900411004984
 51
6.5025298154933351
  0
ARC
  5
2C12
  8
0
 10
478.8891711835207161
 20
-8.8323309485103607
 30
0.0
 40
0.0402354453890804
 50
10.7569192706644099
 51
56.6970248530523406
  0
ARC
  5
2C13
  8
0
 10
478.868329009844274
 20
-8.8640565353810938
 30
0.0
 40
0.0781947534155439
 50
56.6970248530523975
 51
87.8286877415523435
  0
ARC
  5
2C14
  8
0
 10
478.8681712923450959
 20
-8.8682163335265294
 30
0.0
 40
0.0823575403930777
 50
87.8286877415523435
 51
122.2506152881139059
  0
ARC
  5
2C15
  8
0
 10
478.8449870315571957
 20
-8.8314723784390416
 30
0.0
 40
0.0389106971964616
 50
122.2506152881139059
 51
173.0242081393816136
  0
ARC
  5
2C16
  8
0
 10
478.8418060503117886
 20
-8.8284335777786218
 30
0.0
 40
0.0354818042957983
 50
177.2749741732841073
 51
226.8220448028787075
  0
LINE
  5
2C17
  8
0
 10
478.8151431583715976
 20
-8.8518440162511318
 30
0.0
 11
478.7860772472296844
 21
-8.8212474355522552
 31
0.0
  0
LINE
  5
2C18
  8
0
 10
478.9218155250891868
 20
-8.8502636885101502
 30
0.0
 11
478.9477446904277258
 21
-8.8233523814811718
 31
0.0
  0
ARC
  5
2C19
  8
0
 10
478.8992839029194215
 20
-8.7849403670274917
 30
0.0
 40
0.0618379396513073
 50
321.5982082253867134
 51
1.877345074315206
  0
ARC
  5
2C1A
  8
0
 10
478.9035974510126152
 20
-8.7847989793442558
 30
0.0
 40
0.057522075006786
 50
1.877345074315206
 51
43.5765706829940669
  0
ARC
  5
2C1B
  8
0
 10
478.8683694017051948
 20
-8.8183187390492392
 30
0.0
 40
0.1061491225080473
 50
43.5765706829940669
 51
141.9584383097098907
  0
ARC
  5
2C1C
  8
0
 10
478.8240891656540725
 20
-8.7836714708720081
 30
0.0
 40
0.0499248172932415
 50
141.9584383097098907
 51
187.8747685519116999
  0
ARC
  5
2C1D
  8
0
 10
478.849424613586109
 20
-8.7801672581032708
 30
0.0
 40
0.0755014556385329
 50
187.8747685519115009
 51
212.9630333740404922
  0
ARC
  5
2C1E
  8
0
 10
478.8678858792343931
 20
-8.8216173840254974
 30
0.0
 40
0.0258080042944824
 50
223.3781753941451029
 51
308.8179401162057047
  0
ARC
  5
2C1F
  8
0
 10
478.8768793658500726
 20
-8.8327958561816438
 30
0.0
 40
0.0114608428591438
 50
308.8179401162053068
 51
34.7341718742865311
  0
ARC
  5
2C20
  8
0
 10
478.8677683519111952
 20
-8.8430248667041536
 30
0.0
 40
0.0249842217977774
 50
42.127714348747169
 51
140.5515126316049077
  0
ARC
  5
2C21
  8
0
 10
478.8574703861448256
 20
-8.8327828333810761
 30
0.0
 40
0.0106127840966445
 50
147.9450551060689065
 51
218.1775345892988014
  0
ARC
  5
2C22
  8
0
 10
479.6006064103904123
 20
-8.786955341949481
 30
0.0
 40
0.0623265497818235
 50
226.0450456619936972
 51
247.9147765622944064
  0
ARC
  5
2C23
  8
0
 10
479.6074472349043845
 20
-8.7700808182691965
 30
0.0
 40
0.0805349655398101
 50
247.9188243149924062
 51
293.6930093019078072
  0
ARC
  5
2C24
  8
0
 10
479.6149250263030126
 20
-8.7871213513104873
 30
0.0
 40
0.0619259050978465
 50
293.6930093019079209
 51
318.9625005859310249
  0
ARC
  5
2C25
  8
0
 10
479.6330164914493821
 20
-8.8063831287659831
 30
0.0
 40
0.0357319587324041
 50
323.2168900411004984
 51
6.5025298154933351
  0
ARC
  5
2C26
  8
0
 10
479.6289901586420115
 20
-8.8098462399858235
 30
0.0
 40
0.0402354453890804
 50
10.7569192706644099
 51
56.6970248530523406
  0
ARC
  5
2C27
  8
0
 10
479.6081479849656262
 20
-8.8415718268565566
 30
0.0
 40
0.0781947534155439
 50
56.6970248530523975
 51
87.8286877415523435
  0
ARC
  5
2C28
  8
0
 10
479.6079902674662776
 20
-8.8457316250019922
 30
0.0
 40
0.0823575403930777
 50
87.8286877415523435
 51
122.2506152881139059
  0
ARC
  5
2C29
  8
0
 10
479.584806006678491
 20
-8.8089876699145044
 30
0.0
 40
0.0389106971964616
 50
122.2506152881139059
 51
173.0242081393816136
  0
ARC
  5
2C2A
  8
0
 10
479.5816250254330271
 20
-8.8059488692540846
 30
0.0
 40
0.0354818042957983
 50
177.2749741732843063
 51
226.8220448028787075
  0
LINE
  5
2C2B
  8
0
 10
479.5549621334928929
 20
-8.8293593077265946
 30
0.0
 11
479.5258962223509798
 21
-8.798762727027718
 31
0.0
  0
LINE
  5
2C2C
  8
0
 10
479.6616345002104254
 20
-8.8277789799856148
 30
0.0
 11
479.6875636655490212
 21
-8.8008676729566346
 31
0.0
  0
ARC
  5
2C2D
  8
0
 10
479.6391028780407169
 20
-8.7624556585029545
 30
0.0
 40
0.0618379396513073
 50
321.5982082253867134
 51
1.877345074315206
  0
ARC
  5
2C2E
  8
0
 10
479.6434164261340243
 20
-8.7623142708197186
 30
0.0
 40
0.057522075006786
 50
1.877345074315206
 51
43.5765706829940669
  0
ARC
  5
2C2F
  8
0
 10
479.6081883768263765
 20
-8.795834030524702
 30
0.0
 40
0.1061491225080473
 50
43.5765706829940669
 51
141.9584383097098907
  0
ARC
  5
2C30
  8
0
 10
479.563908140775311
 20
-8.7611867623474708
 30
0.0
 40
0.0499248172932415
 50
141.9584383097098907
 51
187.8747685519116999
  0
ARC
  5
2C31
  8
0
 10
479.5892435887074043
 20
-8.7576825495787354
 30
0.0
 40
0.0755014556385329
 50
187.8747685519115009
 51
212.9630333740404922
  0
ARC
  5
2C32
  8
0
 10
479.6077048543556884
 20
-8.7991326755009602
 30
0.0
 40
0.0258080042944824
 50
223.3781753941451029
 51
308.8179401162057047
  0
ARC
  5
2C33
  8
0
 10
479.6166983409714248
 20
-8.8103111476571065
 30
0.0
 40
0.0114608428591438
 50
308.8179401162053068
 51
34.7341718742865311
  0
ARC
  5
2C34
  8
0
 10
479.6075873270323768
 20
-8.8205401581796163
 30
0.0
 40
0.0249842217977774
 50
42.127714348747169
 51
140.5515126316049077
  0
ARC
  5
2C35
  8
0
 10
479.597289361266121
 20
-8.8102981248565388
 30
0.0
 40
0.0106127840966445
 50
147.9450551060689065
 51
218.1775345892990003
  0
LINE
  5
2C36
  8
0
 10
479.9876999057470925
 20
-9.8686017065162837
 30
0.0
 11
479.9876999057470925
 21
-9.5142002276854907
 31
0.0
  0
ARC
  5
2C37
  8
0
 10
479.9995003740676793
 20
-8.8310268795713114
 30
0.0
 40
1.047803826322145
 50
258.8918470087394894
 51
268.796336383378673
  0
ARC
  5
2C38
  8
0
 10
479.9607423212486879
 20
-9.0284296360305607
 30
0.0
 40
0.8466321709727255
 50
236.5795446030429048
 51
258.8918470087394894
  0
ARC
  5
2C39
  8
0
 10
479.7413068278983133
 20
-9.3609626415267702
 30
0.0
 40
0.4482226636987951
 50
209.0139974042411097
 51
236.5795446030429048
  0
ARC
  5
2C3A
  8
0
 10
479.6255579262847846
 20
-9.4251602764600673
 30
0.0
 40
0.3158627583053501
 50
168.515575430241995
 51
209.0139974042411097
  0
ARC
  5
2C3B
  8
0
 10
479.662551639171113
 20
-9.4433435491979463
 30
0.0
 40
0.3558896968606509
 50
139.6544307200447008
 51
166.8323570811396053
  0
ARC
  5
2C3C
  8
0
 10
478.981753240122373
 20
-11.6209858032913402
 30
0.0
 40
2.447711623187518
 50
72.9242110232837035
 51
80.0398649060824852
  0
LINE
  5
2C3D
  8
0
 10
479.7059047724594052
 20
-9.2875998357325251
 30
0.0
 11
479.707416260492721
 21
-9.1947996068469813
 31
0.0
  0
ARC
  5
2C3E
  8
0
 10
479.8251952907078248
 20
-9.3904423759304478
 30
0.0
 40
0.1553051916834923
 50
141.45547943389289
 51
169.2120610628091129
  0
ARC
  5
2C3F
  8
0
 10
479.8086513014702064
 20
-9.3872900503796082
 30
0.0
 40
0.1384635547003341
 50
169.2120610628091129
 51
210.5900944170346918
  0
ARC
  5
2C40
  8
0
 10
479.8927362443860147
 20
-9.3375819731393062
 30
0.0
 40
0.2361424703786157
 50
210.5900944170346918
 51
240.3467501738392968
  0
ARC
  5
2C41
  8
0
 10
479.9881176271719028
 20
-9.1700431170482855
 30
0.0
 40
0.4289295977560709
 50
240.3467501738392968
 51
268.7200767019044179
  0
ARC
  5
2C42
  8
0
 10
479.9782947842879821
 20
-9.6096896328952024
 30
0.0
 40
0.0108266382868723
 50
29.6918572369242995
 51
88.7200767019076579
  0
ARC
  5
2C43
  8
0
 10
480.0056210437467143
 20
-8.9596064500048751
 30
0.0
 40
0.5548832538735154
 50
265.6640357747508006
 51
269.1827083126390789
  0
ARC
  5
2C44
  8
0
 10
480.0067268966571987
 20
-9.0150350309399343
 30
0.0
 40
0.4997249598825827
 50
252.0995756114704136
 51
265.0571178428348276
  0
ARC
  5
2C45
  8
0
 10
479.9454944984850044
 20
-9.2046093835281102
 30
0.0
 40
0.3005068840331451
 50
228.3874400768775104
 51
252.0995756114704136
  0
ARC
  5
2C46
  8
0
 10
479.8685481598939759
 20
-9.2912378739632917
 30
0.0
 40
0.1846395703608406
 50
189.2555856925700937
 51
228.3874400768775104
  0
ARC
  5
2C47
  8
0
 10
478.9626251882896781
 20
-11.6427475262148192
 30
0.0
 40
2.5587424171202668
 50
72.9459662019839925
 51
79.7238446691957137
  0
ARC
  5
2C48
  8
0
 10
479.7159690997796133
 20
-9.1869562980087078
 30
0.0
 40
0.01
 50
252.9459662019839072
 51
311.6416165994144762
  0
ARC
  5
2C49
  8
0
 10
479.4208928116323136
 20
-9.1150845506565386
 30
0.0
 40
0.010126854098525
 50
174.2829566906738989
 51
259.7238446691923741
  0
LINE
  5
2C4A
  8
0
 10
479.4108163286873037
 20
-9.1140757566283117
 30
0.0
 11
479.4103895821828019
 21
-9.0892948670762088
 31
0.0
  0
ARC
  5
2C4B
  8
0
 10
480.0007421845868976
 20
-9.9862132021099654
 30
0.0
 40
1.100820359562144
 50
90.1580169480035352
 51
95.8905636412226414
  0
ARC
  5
2C4C
  8
0
 10
479.9959841201895756
 20
-9.9400960830121221
 30
0.0
 40
1.05445843713982
 50
95.8905636412226414
 51
104.4590855472193027
  0
ARC
  5
2C4D
  8
0
 10
479.9427923616618159
 20
-9.7338112385138942
 30
0.0
 40
0.8414260446617547
 50
104.4590855472193027
 51
119.8469464037896017
  0
ARC
  5
2C4E
  8
0
 10
479.8122569831938904
 20
-9.5063160530656674
 30
0.0
 40
0.5791408097858941
 50
119.8469464037867027
 51
135.7377785432956045
  0
ARC
  5
2C4F
  8
0
 10
479.6882267619402
 20
-9.3854395874179382
 30
0.0
 40
0.4059512727700933
 50
135.7377785432956045
 51
155.4474144048845972
  0
ARC
  5
2C50
  8
0
 10
479.5853172136253875
 20
-9.3384268911216122
 30
0.0
 40
0.2928116742760712
 50
155.4474144048845972
 51
199.8806846240979951
  0
ARC
  5
2C51
  8
0
 10
479.4002038711223008
 20
-9.2214546477570156
 30
0.0
 40
0.012311991174508
 50
66.4829814906695304
 51
136.257628330921392
  0
LINE
  5
2C52
  8
0
 10
479.3977503582693771
 20
-9.2093895990061014
 30
0.0
 11
479.3977503582693771
 21
-9.1018555043675722
 31
0.0
  0
ARC
  5
2C53
  8
0
 10
479.6959060986163195
 20
-9.2874369818684368
 30
0.0
 40
0.01
 50
321.4554794339402974
 51
359.0668748416482003
  0
ARC
  5
2C54
  8
0
 10
479.6984783516048765
 20
-9.2884800628312298
 30
0.0
 40
0.0075759507161718
 50
11.0412710073252995
 51
74.5974926802181528
  0
ARC
  5
2C55
  8
0
 10
479.9670307876319271
 20
-9.4693205214331861
 30
0.0
 40
0.3678379623295856
 50
100.8719457379233972
 51
131.641616599414192
  0
ARC
  5
2C56
  8
0
 10
480.0051217532940768
 20
-9.667647029407302
 30
0.0
 40
0.569789257027801
 50
90.7456982487260575
 51
100.8719457379233972
  0
ARC
  5
2C57
  8
0
 10
480.0050064444258169
 20
-9.6035859007504332
 30
0.0
 40
0.5008255270907941
 50
90.8351949633173206
 51
104.8667761806969025
  0
ARC
  5
2C58
  8
0
 10
479.9711546783830727
 20
-9.4686589899388949
 30
0.0
 40
0.3617348533387724
 50
105.167712209911798
 51
122.0715150419455028
  0
ARC
  5
2C59
  8
0
 10
479.9015719637238249
 20
-9.3576120361207948
 30
0.0
 40
0.2306883725327524
 50
122.0715150419455028
 51
147.6083718739245114
  0
ARC
  5
2C5A
  8
0
 10
479.9776999057471016
 20
-9.8686017065162837
 30
0.0
 40
0.01
 50
268.7963363833885069
 51
359.9999999999973284
  0
LINE
  5
2C5B
  8
0
 10
479.9876999057470925
 20
-9.5945760856877556
 30
0.0
 11
480.0077125309218218
 21
-9.5945760856877556
 31
0.0
  0
ARC
  5
2C5C
  8
0
 10
479.6721910798714816
 20
-11.2942007960108093
 30
0.0
 40
0.1326854339181073
 50
206.4621798397936914
 51
261.7599743744675038
  0
ARC
  5
2C5D
  8
0
 10
479.6806554807956786
 20
-11.2357511880965006
 30
0.0
 40
0.1917447494266845
 50
261.7599743744675038
 51
300.9172670040447883
  0
ARC
  5
2C5E
  8
0
 10
479.720061191893592
 20
-11.3138208705721297
 30
0.0
 40
0.1047113651854516
 50
304.369659855309294
 51
338.4628125966244738
  0
ARC
  5
2C5F
  8
0
 10
479.7340481744960243
 20
-11.3250217430059106
 30
0.0
 40
0.0877483115923154
 50
341.9152054478880132
 51
32.7244888775662872
  0
ARC
  5
2C60
  8
0
 10
479.6962303776925864
 20
-11.3601471098616198
 30
0.0
 40
0.1388513407029051
 50
36.4846826353095111
 51
83.0964237898260052
  0
ARC
  5
2C61
  8
0
 10
479.6849718924015065
 20
-11.3923123716303891
 30
0.0
 40
0.1722918268282115
 50
80.6645368703533876
 51
117.6548335696539027
  0
ARC
  5
2C62
  8
0
 10
479.6531651115116119
 20
-11.3357153898126697
 30
0.0
 40
0.1074144481753097
 50
116.6391593064339958
 51
162.6977874868892116
  0
ARC
  5
2C63
  8
0
 10
479.6422441640917782
 20
-11.3234566408280397
 30
0.0
 40
0.0937240259558395
 50
167.8741939008845918
 51
198.5842368110147049
  0
ARC
  5
2C64
  8
0
 10
479.6544532879054259
 20
-11.2967194352777298
 30
0.0
 40
0.1089447411252005
 50
193.5224014893379945
 51
238.5911079122068941
  0
ARC
  5
2C65
  8
0
 10
479.6853561212524255
 20
-11.2461101306494502
 30
0.0
 40
0.168243027979289
 50
238.5911079122068941
 51
294.5280386886196879
  0
ARC
  5
2C66
  8
0
 10
479.7034245074647174
 20
-11.2857062245425404
 30
0.0
 40
0.1247192731791073
 50
294.5280386886196879
 51
341.6420278687870109
  0
ARC
  5
2C67
  8
0
 10
479.6377880922398163
 20
-11.29332477297495
 30
0.0
 40
0.0420787597589241
 50
221.1409248156585932
 51
310.8723868253456999
  0
ARC
  5
2C68
  8
0
 10
479.651042139732283
 20
-11.3086405727881996
 30
0.0
 40
0.0218242911444759
 50
310.8723868253456999
 51
34.9262319445651599
  0
ARC
  5
2C69
  8
0
 10
479.6377527963117018
 20
-11.3223735476213996
 30
0.0
 40
0.0407464178633237
 50
40.0671316761364409
 51
145.3100914355561883
  0
ARC
  5
2C6A
  8
0
 10
479.6232020947359729
 20
-11.3085684061292593
 30
0.0
 40
0.0211491907754392
 50
153.6562881149856139
 51
216.0313539772662068
  0
ARC
  5
2C6B
  8
0
 10
479.7338368835551137
 20
-11.29332477297495
 30
0.0
 40
0.0420787597589241
 50
221.1409248156583942
 51
310.8723868253456999
  0
ARC
  5
2C6C
  8
0
 10
479.7470909310475804
 20
-11.3086405727881996
 30
0.0
 40
0.0218242911444759
 50
310.8723868253456999
 51
34.9262319445651599
  0
ARC
  5
2C6D
  8
0
 10
479.7338015876269992
 20
-11.3223735476213996
 30
0.0
 40
0.0407464178633237
 50
40.0671316761364409
 51
145.3100914355561883
  0
ARC
  5
2C6E
  8
0
 10
479.7192508860513271
 20
-11.3085684061292593
 30
0.0
 40
0.0211491907754392
 50
153.6562881149856139
 51
216.0313539772662068
  0
ARC
  5
2C6F
  8
0
 10
479.6860852007542917
 20
-11.3560207956626407
 30
0.0
 40
0.0420787597589241
 50
221.1409248156583942
 51
310.8723868253456999
  0
ARC
  5
2C70
  8
0
 10
479.6993392482468153
 20
-11.3713365954758991
 30
0.0
 40
0.0218242911444759
 50
310.8723868253456999
 51
34.9262319445651599
  0
ARC
  5
2C71
  8
0
 10
479.6860499048261772
 20
-11.3850695703090903
 30
0.0
 40
0.0407464178633237
 50
40.0671316761364409
 51
145.3100914355561883
  0
ARC
  5
2C72
  8
0
 10
479.6714992032503915
 20
-11.3712644288169606
 30
0.0
 40
0.0211491907754392
 50
153.6562881149856139
 51
216.0313539772662068
  0
ARC
  5
2C73
  8
0
 10
479.6863828246586081
 20
-11.4039820501939904
 30
0.0
 40
0.2060355064494431
 50
38.5653118836452293
 51
146.7717746440634983
  0
ARC
  5
2C74
  8
0
 10
479.7673684343678815
 20
-11.3394123244615201
 30
0.0
 40
0.1024598410586691
 50
322.7947222356369821
 51
38.5653118836452293
  0
ARC
  5
2C75
  8
0
 10
479.6872093721032115
 20
-11.27036462736827
 30
0.0
 40
0.2081579946548296
 50
211.7417491752403009
 51
320.9984865218131063
  0
ARC
  5
2C76
  8
0
 10
479.6097943936239858
 20
-11.3397118208766496
 30
0.0
 40
0.1074006395840683
 50
153.0758442733929883
 51
201.9597082378043069
  0
ARC
  5
2C77
  8
0
 10
479.6720235602883236
 20
-10.8201034466500907
 30
0.0
 40
0.1326854339181073
 50
206.4621798397936914
 51
261.7599743744675038
  0
ARC
  5
2C78
  8
0
 10
479.6804879612124068
 20
-10.7616538387357892
 30
0.0
 40
0.1917447494266845
 50
261.7599743744675038
 51
300.9172670040447883
  0
ARC
  5
2C79
  8
0
 10
479.7198936723104907
 20
-10.83972352121142
 30
0.0
 40
0.1047113651854516
 50
304.369659855309294
 51
338.4628125966244738
  0
ARC
  5
2C7A
  8
0
 10
479.7338806549126957
 20
-10.8509243936451991
 30
0.0
 40
0.0877483115923154
 50
341.9152054478880132
 51
32.7244888775662872
  0
ARC
  5
2C7B
  8
0
 10
479.6960628581094284
 20
-10.8860497605009101
 30
0.0
 40
0.1388513407029051
 50
36.4846826353095111
 51
83.0964237898260052
  0
ARC
  5
2C7C
  8
0
 10
479.6848043728182915
 20
-10.9182150222696794
 30
0.0
 40
0.1722918268282115
 50
80.6645368703533876
 51
117.6548335696539027
  0
ARC
  5
2C7D
  8
0
 10
479.652997591928397
 20
-10.86161804045196
 30
0.0
 40
0.1074144481753097
 50
116.6391593064339958
 51
162.6977874868892116
  0
ARC
  5
2C7E
  8
0
 10
479.6420766445086201
 20
-10.8493592914673194
 30
0.0
 40
0.0937240259558395
 50
167.8741939008845918
 51
198.5842368110147049
  0
ARC
  5
2C7F
  8
0
 10
479.654285768322211
 20
-10.8226220859170201
 30
0.0
 40
0.1089447411252005
 50
193.5224014893379945
 51
238.5911079122068941
  0
ARC
  5
2C80
  8
0
 10
479.6851886016693243
 20
-10.7720127812887405
 30
0.0
 40
0.168243027979289
 50
238.5911079122068941
 51
294.5280386886196879
  0
ARC
  5
2C81
  8
0
 10
479.7032569878815025
 20
-10.8116088751818307
 30
0.0
 40
0.1247192731791073
 50
294.5280386886196879
 51
341.6420278687870109
  0
ARC
  5
2C82
  8
0
 10
479.6302842583854726
 20
-10.8404852887483294
 30
0.0
 40
0.0420787597589241
 50
221.1409248156583942
 51
310.8723868253456999
  0
ARC
  5
2C83
  8
0
 10
479.6435383058779962
 20
-10.8558010885615808
 30
0.0
 40
0.0218242911444759
 50
310.8723868253456999
 51
34.9262319445651599
  0
ARC
  5
2C84
  8
0
 10
479.630248962457415
 20
-10.8695340633947808
 30
0.0
 40
0.0407464178633237
 50
40.0671316761364409
 51
145.3100914355561883
  0
ARC
  5
2C85
  8
0
 10
479.6156982608816861
 20
-10.8557289219026405
 30
0.0
 40
0.0211491907754392
 50
153.6562881149856139
 51
216.0313539772662068
  0
ARC
  5
2C86
  8
0
 10
479.7135345817479219
 20
-10.8034919918038703
 30
0.0
 40
0.0420787597589241
 50
221.1409248156583942
 51
310.8723868253456999
  0
ARC
  5
2C87
  8
0
 10
479.7267886292403887
 20
-10.8188077916171306
 30
0.0
 40
0.0218242911444759
 50
310.8723868253456999
 51
34.9262319445651599
  0
ARC
  5
2C88
  8
0
 10
479.7134992858198075
 20
-10.8325407664503199
 30
0.0
 40
0.0407464178633237
 50
40.0671316761364409
 51
145.3100914355561883
  0
ARC
  5
2C89
  8
0
 10
479.6989485842440217
 20
-10.8187356249581796
 30
0.0
 40
0.0211491907754392
 50
153.6562881149856139
 51
216.0313539772662068
  0
ARC
  5
2C8A
  8
0
 10
479.713550797869118
 20
-10.8764592379511207
 30
0.0
 40
0.0420787597589241
 50
221.1409248156583942
 51
310.8723868253456999
  0
ARC
  5
2C8B
  8
0
 10
479.7268048453615847
 20
-10.8917750377643703
 30
0.0
 40
0.0218242911444759
 50
310.8723868253456999
 51
34.9262319445651599
  0
ARC
  5
2C8C
  8
0
 10
479.7135155019411172
 20
-10.9055080125975596
 30
0.0
 40
0.0407464178633237
 50
40.0671316761364409
 51
145.3100914355561883
  0
ARC
  5
2C8D
  8
0
 10
479.6989648003653883
 20
-10.89170287110543
 30
0.0
 40
0.0211491907754392
 50
153.6562881149856139
 51
216.0313539772662068
  0
ARC
  5
2C8E
  8
0
 10
479.6862153050756206
 20
-10.92988470083327
 30
0.0
 40
0.2060355064494431
 50
38.5653118836452293
 51
146.7717746440634983
  0
ARC
  5
2C8F
  8
0
 10
479.7672009147847803
 20
-10.8653149751008105
 30
0.0
 40
0.1024598410586691
 50
322.7947222356369821
 51
38.5653118836452293
  0
ARC
  5
2C90
  8
0
 10
479.6870418525199966
 20
-10.7962672780075604
 30
0.0
 40
0.2081579946548296
 50
211.7417491752403009
 51
320.9984865218131063
  0
ARC
  5
2C91
  8
0
 10
479.6096268740408277
 20
-10.86561447151594
 30
0.0
 40
0.1074006395840683
 50
153.0758442733929883
 51
201.9597082378043069
  0
ARC
  5
2C92
  8
0
 10
478.7181802304178859
 20
-10.1780716214506608
 30
0.0
 40
0.0763054404442097
 50
223.2278666843633914
 51
316.3168175501617725
  0
ARC
  5
2C93
  8
0
 10
478.7480124592256061
 20
-10.2065631703674793
 30
0.0
 40
0.0350534073389909
 50
316.3168175501617156
 51
41.2481771653910982
  0
ARC
  5
2C94
  8
0
 10
478.7182673152872212
 20
-10.2483349525313994
 30
0.0
 40
0.0857735122345261
 50
49.1521147751749297
 51
131.2554050242260928
  0
ARC
  5
2C95
  8
0
 10
478.6880303800115826
 20
-10.2066068463349708
 30
0.0
 40
0.0347950679333757
 50
139.1593426340110113
 51
223.0213853521973135
  0
ARC
  5
2C96
  8
0
 10
478.7181726132621975
 20
-10.1929526889465301
 30
0.0
 40
0.0342487102092692
 50
220.2129369366988101
 51
319.8041147636553774
  0
ARC
  5
2C97
  8
0
 10
478.7328467260995808
 20
-10.2053514694217196
 30
0.0
 40
0.0150377928746559
 50
319.8041147636549795
 51
40.8534259027896312
  0
ARC
  5
2C98
  8
0
 10
478.7190050308137756
 20
-10.2218239846095305
 30
0.0
 40
0.036442010231806
 50
46.2153026087641976
 51
144.6678843400486016
  0
ARC
  5
2C99
  8
0
 10
478.705895340129814
 20
-10.2049846609552493
 30
0.0
 40
0.017151429057098
 50
165.7025807529269912
 51
215.9945090915396122
  0
ARC
  5
2C9A
  8
0
 10
479.2295320659554818
 20
-10.1780716214506608
 30
0.0
 40
0.0763054404442097
 50
223.2278666843633914
 51
316.3168175501617725
  0
ARC
  5
2C9B
  8
0
 10
479.259364294763202
 20
-10.2065631703674793
 30
0.0
 40
0.0350534073389909
 50
316.3168175501617156
 51
41.2481771653910982
  0
ARC
  5
2C9C
  8
0
 10
479.2296191508248171
 20
-10.2483349525313994
 30
0.0
 40
0.0857735122345261
 50
49.1521147751749297
 51
131.2554050242260928
  0
ARC
  5
2C9D
  8
0
 10
479.1993822155491785
 20
-10.2066068463349708
 30
0.0
 40
0.0347950679333757
 50
139.1593426340110113
 51
223.0213853521973135
  0
ARC
  5
2C9E
  8
0
 10
479.2295244487997934
 20
-10.1929526889465301
 30
0.0
 40
0.0342487102092692
 50
220.2129369366988101
 51
319.8041147636553774
  0
ARC
  5
2C9F
  8
0
 10
479.2441985616371767
 20
-10.2053514694217196
 30
0.0
 40
0.0150377928746559
 50
319.8041147636549795
 51
40.8534259027896312
  0
ARC
  5
2CA0
  8
0
 10
479.2303568663514852
 20
-10.2218239846095305
 30
0.0
 40
0.036442010231806
 50
46.2153026087641976
 51
144.6678843400486016
  0
ARC
  5
2CA1
  8
0
 10
479.2172471756674099
 20
-10.2049846609552493
 30
0.0
 40
0.017151429057098
 50
165.7025807529269912
 51
215.9945090915396122
  0
ARC
  5
2CA2
  8
0
 10
479.7413547330489223
 20
-10.1780716214506608
 30
0.0
 40
0.0763054404442097
 50
223.2278666843633914
 51
316.3168175501617725
  0
ARC
  5
2CA3
  8
0
 10
479.7711869618565856
 20
-10.2065631703674793
 30
0.0
 40
0.0350534073389909
 50
316.3168175501617156
 51
41.2481771653910982
  0
ARC
  5
2CA4
  8
0
 10
479.7414418179180871
 20
-10.2483349525313994
 30
0.0
 40
0.0857735122345261
 50
49.1521147751749297
 51
131.2554050242260928
  0
ARC
  5
2CA5
  8
0
 10
479.7112048826426189
 20
-10.2066068463349708
 30
0.0
 40
0.0347950679333757
 50
139.1593426340110113
 51
223.0213853521973135
  0
ARC
  5
2CA6
  8
0
 10
479.741347115893177
 20
-10.1929526889465301
 30
0.0
 40
0.0342487102092692
 50
220.2129369366988101
 51
319.8041147636553774
  0
ARC
  5
2CA7
  8
0
 10
479.7560212287306172
 20
-10.2053514694217196
 30
0.0
 40
0.0150377928746559
 50
319.8041147636549795
 51
40.8534259027896312
  0
ARC
  5
2CA8
  8
0
 10
479.742179533444812
 20
-10.2218239846095305
 30
0.0
 40
0.036442010231806
 50
46.2153026087641976
 51
144.6678843400486016
  0
ARC
  5
2CA9
  8
0
 10
479.7290698427607936
 20
-10.2049846609552493
 30
0.0
 40
0.017151429057098
 50
165.7025807529269912
 51
215.9945090915396122
  0
LINE
  5
2CAA
  8
0
 10
479.5325796084109129
 20
-6.8186520944057172
 30
0.0
 11
479.5325796084109129
 21
-6.7546325613518858
 31
0.0
  0
LINE
  5
2CAB
  8
0
 10
479.2988873128003888
 20
-7.4634877607792411
 30
0.0
 11
479.2988873128003888
 21
-7.590003921809223
 31
0.0
  0
ARC
  5
2CAC
  8
0
 10
480.0034912682090749
 20
-7.9695219481328863
 30
0.0
 40
1.0071182584782321
 50
90.3291180177697157
 51
104.4944709920836061
  0
ARC
  5
2CAD
  8
0
 10
479.9553719631600757
 20
-7.762347253067273
 30
0.0
 40
0.7945113923707945
 50
104.8741775364277942
 51
124.7239751830991992
  0
ARC
  5
2CAE
  8
0
 10
479.7977171738455127
 20
-7.5348682609170723
 30
0.0
 40
0.5177412269564505
 50
124.7239751830992986
 51
149.3190932711825099
  0
ARC
  5
2CAF
  8
0
 10
479.6815748555969208
 20
-7.4659603364730538
 30
0.0
 40
0.382695530470628
 50
149.3190932711825099
 51
179.6298124065014008
  0
ARC
  5
2CB0
  8
0
 10
480.0564491289276816
 20
-6.7985100410048487
 30
0.0
 40
0.5242565944665504
 50
182.2018583471700879
 51
197.284250214450509
  0
ARC
  5
2CB1
  8
0
 10
479.7940800624410826
 20
-6.7622929454317946
 30
0.0
 40
0.261612631465377
 50
146.9140388245133977
 51
178.3220595315798107
  0
ARC
  5
2CB2
  8
0
 10
479.8861463486243792
 20
-6.8222780625516419
 30
0.0
 40
0.3714962759602389
 50
114.5446635578800993
 51
146.9140388245133977
  0
ARC
  5
2CB3
  8
0
 10
479.9823972584800913
 20
-6.9929650421975804
 30
0.0
 40
0.5669869698699048
 50
99.371402540167594
 51
116.2274057645736036
  0
ARC
  5
2CB4
  8
0
 10
480.0123457799792277
 20
-7.2444157046303683
 30
0.0
 40
0.82003746938719
 50
91.0229162544742536
 51
98.5751569201575961
  0
LINE
  5
2CB5
  8
0
 10
479.5597140844004116
 20
-6.746082756079562
 30
0.0
 11
479.5597140844004116
 21
-7.0733601736656393
 31
0.0
  0
ARC
  5
2CB6
  8
0
 10
479.6572983615304793
 20
-6.8239282026718078
 30
0.0
 40
0.1248303036051113
 50
141.4197499744763888
 51
177.5776009045841874
  0
ARC
  5
2CB7
  8
0
 10
480.0002356123071081
 20
-8.5322882158975286
 30
0.0
 40
0.9895615411855752
 50
90.1464524955126052
 51
106.5605869620056012
  0
ARC
  5
2CB8
  8
0
 10
482.6054507669209102
 20
-10.3339872577744103
 30
0.0
 40
1.377245118995563
 50
0.4929630110305966
 51
13.1690332624802906
  0
ARC
  5
2CB9
  8
0
 10
482.5157845463730837
 20
-10.3549671583434204
 30
0.0
 40
1.46933305162094
 50
13.1690332624802906
 51
26.0599780701510717
  0
ARC
  5
2CBA
  8
0
 10
482.2895670331187148
 20
-10.4655941019328296
 30
0.0
 40
1.7211518038037881
 50
26.0599780701510717
 51
39.0914447238068377
  0
ARC
  5
2CBB
  8
0
 10
481.982302829990374
 20
-10.7152247743270799
 30
0.0
 40
2.1170391149469259
 50
39.0914447238068377
 51
53.3112500087978773
  0
ARC
  5
2CBC
  8
0
 10
481.7772670803677784
 20
-10.9904140854010404
 30
0.0
 40
2.4602137287408521
 50
53.3112500087979484
 51
66.9429263037194318
  0
ARC
  5
2CBD
  8
0
 10
481.4242319876498755
 20
-11.8198146048192001
 30
0.0
 40
3.3616231797127569
 50
66.9429263037194318
 51
77.746044547119638
  0
ARC
  5
2CBE
  8
0
 10
480.7792878286579139
 20
-14.7892586120786493
 30
0.0
 40
6.4002989900727396
 50
77.746044547119638
 51
84.248996921888093
  0
ARC
  5
2CBF
  8
0
 10
480.7829382295055893
 20
-14.7530128149425508
 30
0.0
 40
6.3638698364127961
 50
84.248996921888093
 51
89.59015754316043
  0
ARC
  5
2CC0
  8
0
 10
480.1578186291790189
 20
-30.5245277960320891
 30
0.0
 40
22.1453790259013203
 50
88.2646152872222274
 51
89.7520057474071535
  0
ARC
  5
2CC1
  8
0
 10
483.3022785344472254
 20
374.3852643152333144
 30
0.0
 40
382.7767609663687267
 50
269.5053503291338188
 51
269.5436655608037881
  0
ARC
  5
2CC2
  8
0
 10
479.1547681600442843
 20
118.9296053923757057
 30
0.0
 40
131.225791894904404
 50
270.3680459807375769
 51
270.5474107801675245
  0
ARC
  5
2CC3
  8
0
 10
480.2386067005629116
 20
5.5788725627386562
 30
0.0
 40
17.8698774756356009
 50
270.5447207388181141
 51
272.8899856413517
  0
ARC
  5
2CC4
  8
0
 10
480.8983723336016283
 20
-6.540990318498757
 30
0.0
 40
5.7323643263197406
 50
272.4115858777016115
 51
279.6734252452117744
  0
ARC
  5
2CC5
  8
0
 10
481.120443798803592
 20
-7.8545039976076998
 30
0.0
 40
4.4002120428144966
 50
279.6968452830706724
 51
289.9875694700126019
  0
ARC
  5
2CC6
  8
0
 10
481.7962472850587119
 20
-9.7213108054103117
 30
0.0
 40
2.4148502291911429
 50
290.0589208234450211
 51
309.7726167820304113
  0
ARC
  5
2CC7
  8
0
 10
482.1511074200562916
 20
-10.1224456041591608
 30
0.0
 40
1.879592316574711
 50
309.281260902816598
 51
334.8350658473316912
  0
ARC
  5
2CC8
  8
0
 10
482.5308300713500103
 20
-10.3200486770401891
 30
0.0
 40
1.45198827497882
 50
335.5209139561391112
 51
354.5179957582113275
  0
ARC
  5
2CC9
  8
0
 10
482.7904169724344001
 20
-10.3341643107204693
 30
0.0
 40
1.1922885944041659
 50
354.0014870330833787
 51
0.5779461446143052
  0
LINE
  5
2CCA
  8
0
 10
483.9806586688551988
 20
-10.0954950264206804
 30
0.0
 11
483.9826410553779965
 21
-10.3216979463013505
 31
0.0
  0
ARC
  5
2CCB
  8
0
 10
475.7323947031617877
 20
-10.1256035601605401
 30
0.0
 40
8.2483189179104457
 50
0.2091451311215357
 51
2.2596512044740811
  0
ARC
  5
2CCC
  8
0
 10
481.9335231269824931
 20
-9.8809143904945618
 30
0.0
 40
2.0423647996086429
 50
2.2596512044738781
 51
13.672000556095
  0
ARC
  5
2CCD
  8
0
 10
481.8635155961326859
 20
-9.8979441467513372
 30
0.0
 40
2.114413859101707
 50
13.6720005560952007
 51
30.7980904664663413
  0
ARC
  5
2CCE
  8
0
 10
481.9209447204855792
 20
-9.8637121118685478
 30
0.0
 40
2.0475562751179219
 50
30.7980904664663413
 51
50.3843848291308234
  0
ARC
  5
2CCF
  8
0
 10
481.5741583431837967
 20
-10.2826722980698904
 30
0.0
 40
2.5914206231900918
 50
50.3843848291308234
 51
68.5994540449503489
  0
ARC
  5
2CD0
  8
0
 10
481.2499653419217793
 20
-11.1098921327862996
 30
0.0
 40
3.479898961145206
 50
68.5994540449503489
 51
83.9613242552519523
  0
ARC
  5
2CD1
  8
0
 10
480.4493158603997927
 20
-18.6784147289160884
 30
0.0
 40
11.0906527924281892
 50
83.9613242552519523
 51
87.7566050275427472
  0
ARC
  5
2CD2
  8
0
 10
480.239791946376215
 20
-24.0268712823612312
 30
0.0
 40
16.4432117855302913
 50
87.7566050275427472
 51
89.5909687403875381
  0
ARC
  5
2CD3
  8
0
 10
480.6189567185342071
 20
71.8511969471194192
 30
0.0
 40
79.4357067962119174
 50
269.551896798199607
 51
269.8111826728980986
  0
ARC
  5
2CD4
  8
0
 10
480.8006311489712061
 20
98.622841956583855
 30
0.0
 40
107.0632210230969008
 50
269.5703039699420174
 51
269.6547007137684773
  0
ARC
  5
2CD5
  8
0
 10
480.0072462429973257
 20
-37.4643356446972717
 30
0.0
 40
29.0262789765433098
 50
88.5485539431119264
 51
89.7075404155223737
  0
ARC
  5
2CD6
  8
0
 10
480.6141255411531006
 20
-17.622091321788151
 30
0.0
 40
9.1756192875624318
 50
85.228853286169425
 51
89.1985075445296758
  0
ARC
  5
2CD7
  8
0
 10
480.9027188575369109
 20
-14.1644442242244502
 30
0.0
 40
5.705949338770175
 50
81.9562614546271959
 51
85.228853286169425
  0
ARC
  5
2CD8
  8
0
 10
481.0658715054750019
 20
-13.0099482866006806
 30
0.0
 40
4.5399820765715138
 50
74.8405164329763153
 51
81.9562614546271959
  0
ARC
  5
2CD9
  8
0
 10
481.3390395245847913
 20
-12.0722373042283593
 30
0.0
 40
3.563514345879796
 50
67.6387658487756198
 51
75.1370769240373022
  0
ARC
  5
2CDA
  8
0
 10
481.7967480757200178
 20
-10.9241173409389791
 30
0.0
 40
2.3276351795679582
 50
57.7783384893833514
 51
67.3063158335794327
  0
ARC
  5
2CDB
  8
0
 10
481.1860491300179206
 20
-11.6844379279163295
 30
0.0
 40
3.29835894696566
 50
47.6562002688446285
 51
55.8455147752605328
  0
ARC
  5
2CDC
  8
0
 10
482.3802676943996062
 20
-10.3740226870690009
 30
0.0
 40
1.5254105317660309
 50
21.7979267427720487
 51
47.6562002688446285
  0
ARC
  5
2CDD
  8
0
 10
482.4820735761128958
 20
-10.3333075126434295
 30
0.0
 40
1.415764907229931
 50
0.8568222190215053
 51
21.7979267427720487
  0
ARC
  5
2CDE
  8
0
 10
482.5454346958584892
 20
-10.3323599164504891
 30
0.0
 40
1.3523967020007339
 50
343.0617916986021214
 51
0.8568222190215053
  0
ARC
  5
2CDF
  8
0
 10
482.3730518957547133
 20
-10.2798604251987804
 30
0.0
 40
1.5325966641353681
 50
323.7807857966897132
 51
343.0617916986021214
  0
ARC
  5
2CE0
  8
0
 10
481.9500632514738072
 20
-9.9700616497057641
 30
0.0
 40
2.056900654667241
 50
300.0986045526177008
 51
323.7807857966897132
  0
ARC
  5
2CE1
  8
0
 10
481.5846862551662184
 20
-9.3397178729283201
 30
0.0
 40
2.7854839555689082
 50
285.1216079012692148
 51
300.0986045526177008
  0
ARC
  5
2CE2
  8
0
 10
480.8852465889136738
 20
-6.7513607589422078
 30
0.0
 40
5.4666792853145507
 50
271.3646836450004116
 51
285.1216079012692148
  0
ARC
  5
2CE3
  8
0
 10
480.0727990660992077
 20
12.3204846901088292
 30
0.0
 40
24.5550743153208693
 50
270.3694731876994979
 51
272.2000613950739876
  0
ARC
  5
2CE4
  8
0
 10
482.0618168077705263
 20
-299.4766800766107053
 30
0.0
 40
287.2484346260902157
 50
90.3651565707246078
 51
90.4117197128783801
  0
ARC
  5
2CE5
  8
0
 10
480.6284678499841903
 20
-11.9214516115271891
 30
0.0
 40
0.0623265497818235
 50
292.085223437705622
 51
313.9549543380061891
  0
ARC
  5
2CE6
  8
0
 10
480.6216270254702749
 20
-11.9045770878469099
 30
0.0
 40
0.0805349655398101
 50
246.3069906980919939
 51
292.0811756850046095
  0
ARC
  5
2CE7
  8
0
 10
480.6141492340715899
 20
-11.9216176208882008
 30
0.0
 40
0.0619259050978465
 50
221.0374994140690035
 51
246.3069906980919939
  0
ARC
  5
2CE8
  8
0
 10
480.5960577689252204
 20
-11.9408793983437
 30
0.0
 40
0.0357319587324041
 50
173.4974701845067955
 51
216.7831099588995016
  0
ARC
  5
2CE9
  8
0
 10
480.6000841017325911
 20
-11.9443425095635405
 30
0.0
 40
0.0402354453890804
 50
123.3029751469476025
 51
169.2430807293355883
  0
ARC
  5
2CEA
  8
0
 10
480.6209262754089764
 20
-11.9760680964342701
 30
0.0
 40
0.0781947534155439
 50
92.1713122584476707
 51
123.3029751469476025
  0
ARC
  5
2CEB
  8
0
 10
480.6210839929082113
 20
-11.9802278945797003
 30
0.0
 40
0.0823575403930777
 50
57.7493847118860515
 51
92.1713122584476707
  0
ARC
  5
2CEC
  8
0
 10
480.6442682536961115
 20
-11.9434839394922196
 30
0.0
 40
0.0389106971964616
 50
6.9757918606183464
 51
57.7493847118860515
  0
ARC
  5
2CED
  8
0
 10
480.6474492349415755
 20
-11.9404451388317998
 30
0.0
 40
0.0354818042957983
 50
313.1779551971212072
 51
2.7250258267158909
  0
LINE
  5
2CEE
  8
0
 10
480.6741121268817096
 20
-11.9638555773043098
 30
0.0
 11
480.7031780380236796
 21
-11.9332589966054297
 31
0.0
  0
LINE
  5
2CEF
  8
0
 10
480.5674397601641772
 20
-11.96227524956333
 30
0.0
 11
480.5415105948255814
 21
-11.9353639425343498
 31
0.0
  0
ARC
  5
2CF0
  8
0
 10
480.5899713823338857
 20
-11.8969519280806697
 30
0.0
 40
0.0618379396513073
 50
178.1226549256847989
 51
218.4017917746134003
  0
ARC
  5
2CF1
  8
0
 10
480.585657834240692
 20
-11.8968105403974302
 30
0.0
 40
0.057522075006786
 50
136.4234293170059118
 51
178.1226549256847989
  0
ARC
  5
2CF2
  8
0
 10
480.6208858835481124
 20
-11.9303303001024208
 30
0.0
 40
0.1061491225080473
 50
38.0415616902901235
 51
136.4234293170059118
  0
ARC
  5
2CF3
  8
0
 10
480.6651661195991778
 20
-11.8956830319251896
 30
0.0
 40
0.0499248172932415
 50
352.1252314480883001
 51
38.0415616902901235
  0
ARC
  5
2CF4
  8
0
 10
480.6398306716671982
 20
-11.8921788191564506
 30
0.0
 40
0.0755014556385329
 50
327.0369666259596215
 51
352.1252314480884138
  0
ARC
  5
2CF5
  8
0
 10
480.6213694060189141
 20
-11.9336289450786808
 30
0.0
 40
0.0258080042944824
 50
231.182059883794409
 51
316.6218246058548971
  0
ARC
  5
2CF6
  8
0
 10
480.6123759194031777
 20
-11.94480741723482
 30
0.0
 40
0.0114608428591438
 50
145.2658281257135116
 51
231.1820598837946932
  0
ARC
  5
2CF7
  8
0
 10
480.6214869333422257
 20
-11.9550364277573298
 30
0.0
 40
0.0249842217977774
 50
39.4484873683950568
 51
137.8722856512528097
  0
ARC
  5
2CF8
  8
0
 10
480.6317848991084816
 20
-11.9447943944342505
 30
0.0
 40
0.0106127840966445
 50
321.8224654107009997
 51
32.0549448939311432
  0
ARC
  5
2CF9
  8
0
 10
481.2504227630840887
 20
-11.8961525222271902
 30
0.0
 40
0.0623265497818235
 50
292.085223437705622
 51
313.9549543380061891
  0
ARC
  5
2CFA
  8
0
 10
481.2435819385701734
 20
-11.8792779985469092
 30
0.0
 40
0.0805349655398101
 50
246.3069906980919939
 51
292.0811756850046095
  0
ARC
  5
2CFB
  8
0
 10
481.2361041471714884
 20
-11.8963185315882001
 30
0.0
 40
0.0619259050978465
 50
221.0374994140690035
 51
246.3069906980919939
  0
ARC
  5
2CFC
  8
0
 10
481.2180126820251189
 20
-11.9155803090436994
 30
0.0
 40
0.0357319587324041
 50
173.4974701845067955
 51
216.7831099588995016
  0
ARC
  5
2CFD
  8
0
 10
481.2220390148326032
 20
-11.9190434202635291
 30
0.0
 40
0.0402354453890804
 50
123.3029751469476025
 51
169.2430807293355883
  0
ARC
  5
2CFE
  8
0
 10
481.2428811885089885
 20
-11.9507690071342694
 30
0.0
 40
0.0781947534155439
 50
92.1713122584476707
 51
123.3029751469476025
  0
ARC
  5
2CFF
  8
0
 10
481.2430389060082234
 20
-11.9549288052796996
 30
0.0
 40
0.0823575403930777
 50
57.7493847118860515
 51
92.1713122584476707
  0
ARC
  5
2D00
  8
0
 10
481.2662231667961237
 20
-11.9181848501922207
 30
0.0
 40
0.0389106971964616
 50
6.9757918606183464
 51
57.7493847118860515
  0
ARC
  5
2D01
  8
0
 10
481.2694041480415876
 20
-11.9151460495317991
 30
0.0
 40
0.0354818042957983
 50
313.1779551971212072
 51
2.7250258267158909
  0
LINE
  5
2D02
  8
0
 10
481.2960670399817218
 20
-11.9385564880043091
 30
0.0
 11
481.3251329511236918
 21
-11.9079599073054307
 31
0.0
  0
LINE
  5
2D03
  8
0
 10
481.1893946732641894
 20
-11.9369761602633293
 30
0.0
 11
481.1634655079255936
 21
-11.9100648532343492
 31
0.0
  0
ARC
  5
2D04
  8
0
 10
481.2119262954338978
 20
-11.8716528387806708
 30
0.0
 40
0.0618379396513073
 50
178.1226549256847989
 51
218.4017917746134003
  0
ARC
  5
2D05
  8
0
 10
481.2076127473407041
 20
-11.8715114510974296
 30
0.0
 40
0.057522075006786
 50
136.4234293170059118
 51
178.1226549256847989
  0
ARC
  5
2D06
  8
0
 10
481.2428407966481245
 20
-11.9050312108024094
 30
0.0
 40
0.1061491225080473
 50
38.0415616902901235
 51
136.4234293170059118
  0
ARC
  5
2D07
  8
0
 10
481.2871210326993037
 20
-11.87038394262518
 30
0.0
 40
0.0499248172932415
 50
352.1252314480883001
 51
38.0415616902901235
  0
ARC
  5
2D08
  8
0
 10
481.2617855847673241
 20
-11.8668797298564499
 30
0.0
 40
0.0755014556385329
 50
327.0369666259596215
 51
352.1252314480884138
  0
ARC
  5
2D09
  8
0
 10
481.2433243191189263
 20
-11.9083298557786694
 30
0.0
 40
0.0258080042944824
 50
231.182059883794409
 51
316.6218246058548971
  0
ARC
  5
2D0A
  8
0
 10
481.2343308325031899
 20
-11.9195083279348193
 30
0.0
 40
0.0114608428591438
 50
145.2658281257135116
 51
231.1820598837946932
  0
ARC
  5
2D0B
  8
0
 10
481.243441846442181
 20
-11.9297373384573309
 30
0.0
 40
0.0249842217977774
 50
39.4484873683950568
 51
137.8722856512528097
  0
ARC
  5
2D0C
  8
0
 10
481.2537398122084937
 20
-11.9194953051342498
 30
0.0
 40
0.0106127840966445
 50
321.8224654107009997
 51
32.0549448939311432
  0
ARC
  5
2D0D
  8
0
 10
481.8617741849968752
 20
-11.8150443516388499
 30
0.0
 40
0.0623265497818235
 50
292.085223437705622
 51
313.9549543380061891
  0
ARC
  5
2D0E
  8
0
 10
481.854933360482903
 20
-11.7981698279585707
 30
0.0
 40
0.0805349655398101
 50
246.3069906980919939
 51
292.0811756850046095
  0
ARC
  5
2D0F
  8
0
 10
481.8474555690842749
 20
-11.8152103609998598
 30
0.0
 40
0.0619259050978465
 50
221.0374994140690035
 51
246.3069906980919939
  0
ARC
  5
2D10
  8
0
 10
481.8293641039379054
 20
-11.8344721384553608
 30
0.0
 40
0.0357319587324041
 50
173.4974701845067955
 51
216.7831099588995016
  0
ARC
  5
2D11
  8
0
 10
481.833390436745276
 20
-11.8379352496751906
 30
0.0
 40
0.0402354453890804
 50
123.3029751469476025
 51
169.2430807293355883
  0
ARC
  5
2D12
  8
0
 10
481.854232610421775
 20
-11.8696608365459308
 30
0.0
 40
0.0781947534155439
 50
92.1713122584476707
 51
123.3029751469476025
  0
ARC
  5
2D13
  8
0
 10
481.8543903279210099
 20
-11.8738206346913593
 30
0.0
 40
0.0823575403930777
 50
57.7493847118860515
 51
92.1713122584476707
  0
ARC
  5
2D14
  8
0
 10
481.8775745887087965
 20
-11.8370766796038804
 30
0.0
 40
0.0389106971964616
 50
6.9757918606183464
 51
57.7493847118860515
  0
ARC
  5
2D15
  8
0
 10
481.8807555699543173
 20
-11.8340378789434606
 30
0.0
 40
0.0354818042957983
 50
313.1779551971212072
 51
2.7250258267158909
  0
LINE
  5
2D16
  8
0
 10
481.9074184618943946
 20
-11.8574483174159706
 30
0.0
 11
481.9364843730364214
 21
-11.8268517367170904
 31
0.0
  0
LINE
  5
2D17
  8
0
 10
481.800746095176919
 20
-11.8558679896749908
 30
0.0
 11
481.7748169298383232
 21
-11.8289566826460106
 31
0.0
  0
ARC
  5
2D18
  8
0
 10
481.8232777173466275
 20
-11.7905446681923305
 30
0.0
 40
0.0618379396513073
 50
178.1226549256847989
 51
218.4017917746134003
  0
ARC
  5
2D19
  8
0
 10
481.8189641692533769
 20
-11.7904032805090893
 30
0.0
 40
0.057522075006786
 50
136.4234293170059118
 51
178.1226549256847989
  0
ARC
  5
2D1A
  8
0
 10
481.854192218560911
 20
-11.8239230402140691
 30
0.0
 40
0.1061491225080473
 50
38.0415616902901235
 51
136.4234293170059118
  0
ARC
  5
2D1B
  8
0
 10
481.8984724546119764
 20
-11.7892757720368397
 30
0.0
 40
0.0499248172932415
 50
352.1252314480883001
 51
38.0415616902901235
  0
ARC
  5
2D1C
  8
0
 10
481.8731370066798831
 20
-11.7857715592681096
 30
0.0
 40
0.0755014556385329
 50
327.0369666259596215
 51
352.1252314480884138
  0
ARC
  5
2D1D
  8
0
 10
481.854675741031599
 20
-11.8272216851903291
 30
0.0
 40
0.0258080042944824
 50
231.182059883794409
 51
316.6218246058548971
  0
ARC
  5
2D1E
  8
0
 10
481.8456822544159763
 20
-11.8384001573464808
 30
0.0
 40
0.0114608428591438
 50
145.2658281257135116
 51
231.1820598837946932
  0
ARC
  5
2D1F
  8
0
 10
481.8547932683549107
 20
-11.8486291678689906
 30
0.0
 40
0.0249842217977774
 50
39.4484873683950568
 51
137.8722856512528097
  0
ARC
  5
2D20
  8
0
 10
481.8650912341212802
 20
-11.8383871345459095
 30
0.0
 40
0.0106127840966445
 50
321.8224654107009997
 51
32.0549448939311432
  0
ARC
  5
2D21
  8
0
 10
482.436357428275187
 20
-11.6457637057766199
 30
0.0
 40
0.0623265497818235
 50
292.085223437705622
 51
313.9549543380061891
  0
ARC
  5
2D22
  8
0
 10
482.4295166037612717
 20
-11.6288891820963407
 30
0.0
 40
0.0805349655398101
 50
246.3069906980919939
 51
292.0811756850046095
  0
ARC
  5
2D23
  8
0
 10
482.4220388123625867
 20
-11.6459297151376298
 30
0.0
 40
0.0619259050978465
 50
221.0374994140690035
 51
246.3069906980919939
  0
ARC
  5
2D24
  8
0
 10
482.4039473472161035
 20
-11.6651914925931202
 30
0.0
 40
0.0357319587324041
 50
173.4974701845067955
 51
216.7831099588995016
  0
ARC
  5
2D25
  8
0
 10
482.4079736800237015
 20
-11.6686546038129695
 30
0.0
 40
0.0402354453890804
 50
123.3029751469476025
 51
169.2430807293355883
  0
ARC
  5
2D26
  8
0
 10
482.4288158536999731
 20
-11.7003801906837008
 30
0.0
 40
0.0781947534155439
 50
92.1713122584476707
 51
123.3029751469476025
  0
ARC
  5
2D27
  8
0
 10
482.428973571199208
 20
-11.7045399888291293
 30
0.0
 40
0.0823575403930777
 50
57.7493847118860515
 51
92.1713122584476707
  0
ARC
  5
2D28
  8
0
 10
482.4521578319871082
 20
-11.6677960337416504
 30
0.0
 40
0.0389106971964616
 50
6.9757918606183464
 51
57.7493847118860515
  0
ARC
  5
2D29
  8
0
 10
482.4553388132325722
 20
-11.6647572330812306
 30
0.0
 40
0.0354818042957983
 50
313.1779551971212072
 51
2.7250258267158909
  0
LINE
  5
2D2A
  8
0
 10
482.4820017051727064
 20
-11.6881676715537406
 30
0.0
 11
482.5110676163146763
 21
-11.6575710908548604
 31
0.0
  0
LINE
  5
2D2B
  8
0
 10
482.3753293384551739
 20
-11.6865873438127608
 30
0.0
 11
482.3494001731165781
 21
-11.6596760367837806
 31
0.0
  0
ARC
  5
2D2C
  8
0
 10
482.3978609606248824
 20
-11.6212640223301005
 30
0.0
 40
0.0618379396513073
 50
178.1226549256847989
 51
218.4017917746134003
  0
ARC
  5
2D2D
  8
0
 10
482.3935474125316887
 20
-11.6211226346468592
 30
0.0
 40
0.057522075006786
 50
136.4234293170059118
 51
178.1226549256847989
  0
ARC
  5
2D2E
  8
0
 10
482.4287754618391091
 20
-11.6546423943518391
 30
0.0
 40
0.1061491225080473
 50
38.0415616902901235
 51
136.4234293170059118
  0
ARC
  5
2D2F
  8
0
 10
482.4730556978901745
 20
-11.6199951261746097
 30
0.0
 40
0.0499248172932415
 50
352.1252314480883001
 51
38.0415616902901235
  0
ARC
  5
2D30
  8
0
 10
482.4477202499581949
 20
-11.6164909134058796
 30
0.0
 40
0.0755014556385329
 50
327.0369666259596215
 51
352.1252314480884138
  0
ARC
  5
2D31
  8
0
 10
482.4292589843099108
 20
-11.6579410393281009
 30
0.0
 40
0.0258080042944824
 50
231.182059883794409
 51
316.6218246058548971
  0
ARC
  5
2D32
  8
0
 10
482.4202654976941744
 20
-11.6691195114842508
 30
0.0
 40
0.0114608428591438
 50
145.2658281257135116
 51
231.1820598837946932
  0
ARC
  5
2D33
  8
0
 10
482.4293765116332224
 20
-11.6793485220067605
 30
0.0
 40
0.0249842217977774
 50
39.4484873683950568
 51
137.8722856512528097
  0
ARC
  5
2D34
  8
0
 10
482.4396744773994783
 20
-11.6691064886836795
 30
0.0
 40
0.0106127840966445
 50
321.8224654107009997
 51
32.0549448939311432
  0
ARC
  5
2D35
  8
0
 10
482.912982874984209
 20
-11.3640904689271895
 30
0.0
 40
0.0623265497818235
 50
292.085223437705622
 51
313.9549543380061891
  0
ARC
  5
2D36
  8
0
 10
482.90614205047018
 20
-11.3472159452469104
 30
0.0
 40
0.0805349655398101
 50
246.3069906980919939
 51
292.0811756850046095
  0
ARC
  5
2D37
  8
0
 10
482.8986642590716087
 20
-11.3642564782881994
 30
0.0
 40
0.0619259050978465
 50
221.0374994140690035
 51
246.3069906980919939
  0
ARC
  5
2D38
  8
0
 10
482.8805727939251824
 20
-11.3835182557437005
 30
0.0
 40
0.0357319587324041
 50
173.4974701845067955
 51
216.7831099588995016
  0
ARC
  5
2D39
  8
0
 10
482.8845991267327236
 20
-11.3869813669635391
 30
0.0
 40
0.0402354453890804
 50
123.3029751469476025
 51
169.2430807293355883
  0
ARC
  5
2D3A
  8
0
 10
482.9054413004089952
 20
-11.4187069538342705
 30
0.0
 40
0.0781947534155439
 50
92.1713122584476707
 51
123.3029751469476025
  0
ARC
  5
2D3B
  8
0
 10
482.9055990179082869
 20
-11.4228667519797096
 30
0.0
 40
0.0823575403930777
 50
57.7493847118860515
 51
92.1713122584476707
  0
ARC
  5
2D3C
  8
0
 10
482.9287832786960735
 20
-11.3861227968922201
 30
0.0
 40
0.0389106971964616
 50
6.9757918606183464
 51
57.7493847118860515
  0
ARC
  5
2D3D
  8
0
 10
482.9319642599415943
 20
-11.3830839962318002
 30
0.0
 40
0.0354818042957983
 50
313.1779551971212072
 51
2.7250258267158909
  0
LINE
  5
2D3E
  8
0
 10
482.9586271518816716
 20
-11.4064944347043102
 30
0.0
 11
482.9876930630236984
 21
-11.3758978540054301
 31
0.0
  0
LINE
  5
2D3F
  8
0
 10
482.851954785164196
 20
-11.4049141069633304
 30
0.0
 11
482.8260256198254865
 21
-11.3780027999343503
 31
0.0
  0
ARC
  5
2D40
  8
0
 10
482.8744864073339045
 20
-11.3395907854806701
 30
0.0
 40
0.0618379396513073
 50
178.1226549256847989
 51
218.4017917746134003
  0
ARC
  5
2D41
  8
0
 10
482.8701728592407107
 20
-11.3394493977974307
 30
0.0
 40
0.057522075006786
 50
136.4234293170059118
 51
178.1226549256847989
  0
ARC
  5
2D42
  8
0
 10
482.9054009085480743
 20
-11.3729691575024106
 30
0.0
 40
0.1061491225080473
 50
38.0415616902901235
 51
136.4234293170059118
  0
ARC
  5
2D43
  8
0
 10
482.9496811445991966
 20
-11.3383218893251794
 30
0.0
 40
0.0499248172932415
 50
352.1252314480883001
 51
38.0415616902901235
  0
ARC
  5
2D44
  8
0
 10
482.924345696667217
 20
-11.3348176765564492
 30
0.0
 40
0.0755014556385329
 50
327.0369666259596215
 51
352.1252314480884138
  0
ARC
  5
2D45
  8
0
 10
482.9058844310188761
 20
-11.3762678024786705
 30
0.0
 40
0.0258080042944824
 50
231.182059883794409
 51
316.6218246058548971
  0
ARC
  5
2D46
  8
0
 10
482.8968909444031965
 20
-11.3874462746348204
 30
0.0
 40
0.0114608428591438
 50
145.2658281257135116
 51
231.1820598837946932
  0
ARC
  5
2D47
  8
0
 10
482.9060019583421877
 20
-11.3976752851573302
 30
0.0
 40
0.0249842217977774
 50
39.4484873683950568
 51
137.8722856512528097
  0
ARC
  5
2D48
  8
0
 10
482.9162999241085004
 20
-11.3874332518342491
 30
0.0
 40
0.0106127840966445
 50
321.8224654107009997
 51
32.0549448939311432
  0
ARC
  5
2D49
  8
0
 10
483.2486501316282101
 20
-10.9945773764663208
 30
0.0
 40
0.0623265497818235
 50
292.085223437705622
 51
313.9549543380061891
  0
ARC
  5
2D4A
  8
0
 10
483.2418093071141243
 20
-10.9777028527860292
 30
0.0
 40
0.0805349655398101
 50
246.3069906980919939
 51
292.0811756850046095
  0
ARC
  5
2D4B
  8
0
 10
483.2343315157154962
 20
-10.99474338582732
 30
0.0
 40
0.0619259050978465
 50
221.0374994140690035
 51
246.3069906980919939
  0
ARC
  5
2D4C
  8
0
 10
483.2162400505691267
 20
-11.0140051632828193
 30
0.0
 40
0.0357319587324041
 50
173.4974701845067955
 51
216.7831099588995016
  0
ARC
  5
2D4D
  8
0
 10
483.2202663833767247
 20
-11.0174682745026598
 30
0.0
 40
0.0402354453890804
 50
123.3029751469476025
 51
169.2430807293355883
  0
ARC
  5
2D4E
  8
0
 10
483.2411085570528826
 20
-11.0491938613733893
 30
0.0
 40
0.0781947534155439
 50
92.1713122584476707
 51
123.3029751469476025
  0
ARC
  5
2D4F
  8
0
 10
483.2412662745521743
 20
-11.0533536595188302
 30
0.0
 40
0.0823575403930777
 50
57.7493847118860515
 51
92.1713122584476707
  0
ARC
  5
2D50
  8
0
 10
483.2644505353400746
 20
-11.0166097044313407
 30
0.0
 40
0.0389106971964616
 50
6.9757918606183464
 51
57.7493847118860515
  0
ARC
  5
2D51
  8
0
 10
483.2676315165855954
 20
-11.0135709037709209
 30
0.0
 40
0.0354818042957983
 50
313.1779551971212072
 51
2.7250258267158909
  0
LINE
  5
2D52
  8
0
 10
483.2942944085256727
 20
-11.0369813422434309
 30
0.0
 11
483.3233603196675858
 21
-11.0063847615445507
 31
0.0
  0
LINE
  5
2D53
  8
0
 10
483.1876220418081971
 20
-11.0354010145024493
 30
0.0
 11
483.1616928764694876
 21
-11.0084897074734709
 31
0.0
  0
ARC
  5
2D54
  8
0
 10
483.2101536639779056
 20
-10.9700776930197907
 30
0.0
 40
0.0618379396513073
 50
178.1226549256847989
 51
218.4017917746134003
  0
ARC
  5
2D55
  8
0
 10
483.2058401158845982
 20
-10.9699363053365495
 30
0.0
 40
0.057522075006786
 50
136.4234293170059118
 51
178.1226549256847989
  0
ARC
  5
2D56
  8
0
 10
483.2410681651920754
 20
-11.0034560650415401
 30
0.0
 40
0.1061491225080473
 50
38.0415616902901235
 51
136.4234293170059118
  0
ARC
  5
2D57
  8
0
 10
483.2853484012431977
 20
-10.9688087968643107
 30
0.0
 40
0.0499248172932415
 50
352.1252314480883001
 51
38.0415616902901235
  0
ARC
  5
2D58
  8
0
 10
483.2600129533112181
 20
-10.9653045840955699
 30
0.0
 40
0.0755014556385329
 50
327.0369666259596215
 51
352.1252314480884138
  0
ARC
  5
2D59
  8
0
 10
483.2415516876628203
 20
-11.0067547100178
 30
0.0
 40
0.0258080042944824
 50
231.182059883794409
 51
316.6218246058548971
  0
ARC
  5
2D5A
  8
0
 10
483.2325582010470839
 20
-11.0179331821739392
 30
0.0
 40
0.0114608428591438
 50
145.2658281257135116
 51
231.1820598837946932
  0
ARC
  5
2D5B
  8
0
 10
483.2416692149861888
 20
-11.0281621926964508
 30
0.0
 40
0.0249842217977774
 50
39.4484873683950568
 51
137.8722856512528097
  0
ARC
  5
2D5C
  8
0
 10
483.2519671807523878
 20
-11.0179201593733698
 30
0.0
 40
0.0106127840966445
 50
321.8224654107009997
 51
32.0549448939311432
  0
ARC
  5
2D5D
  8
0
 10
483.4246700595465995
 20
-10.57304832693052
 30
0.0
 40
0.0623265497818235
 50
292.085223437705622
 51
313.9549543380061891
  0
ARC
  5
2D5E
  8
0
 10
483.4178292350326274
 20
-10.5561738032502408
 30
0.0
 40
0.0805349655398101
 50
246.3069906980919939
 51
292.0811756850046095
  0
ARC
  5
2D5F
  8
0
 10
483.4103514436339992
 20
-10.5732143362915298
 30
0.0
 40
0.0619259050978465
 50
221.0374994140690035
 51
246.3069906980919939
  0
ARC
  5
2D60
  8
0
 10
483.3922599784875729
 20
-10.5924761137470291
 30
0.0
 40
0.0357319587324041
 50
173.4974701845067955
 51
216.7831099588995016
  0
ARC
  5
2D61
  8
0
 10
483.3962863112950004
 20
-10.5959392249668696
 30
0.0
 40
0.0402354453890804
 50
123.3029751469476025
 51
169.2430807293355883
  0
ARC
  5
2D62
  8
0
 10
483.4171284849713857
 20
-10.6276648118375991
 30
0.0
 40
0.0781947534155439
 50
92.1713122584476707
 51
123.3029751469476025
  0
ARC
  5
2D63
  8
0
 10
483.4172862024706205
 20
-10.63182460998304
 30
0.0
 40
0.0823575403930777
 50
57.7493847118860515
 51
92.1713122584476707
  0
ARC
  5
2D64
  8
0
 10
483.4404704632585208
 20
-10.5950806548955505
 30
0.0
 40
0.0389106971964616
 50
6.9757918606183464
 51
57.7493847118860515
  0
ARC
  5
2D65
  8
0
 10
483.4436514445039279
 20
-10.5920418542351307
 30
0.0
 40
0.0354818042957983
 50
313.1779551971212072
 51
2.7250258267158909
  0
LINE
  5
2D66
  8
0
 10
483.4703143364441189
 20
-10.6154522927076407
 30
0.0
 11
483.4993802475859752
 21
-10.5848557120087605
 31
0.0
  0
LINE
  5
2D67
  8
0
 10
483.3636419697264728
 20
-10.6138719649666609
 30
0.0
 11
483.337712804387877
 21
-10.5869606579376807
 31
0.0
  0
ARC
  5
2D68
  8
0
 10
483.3861735918961813
 20
-10.5485486434840006
 30
0.0
 40
0.0618379396513073
 50
178.1226549256847989
 51
218.4017917746134003
  0
ARC
  5
2D69
  8
0
 10
483.3818600438029875
 20
-10.5484072558007593
 30
0.0
 40
0.057522075006786
 50
136.4234293170059118
 51
178.1226549256847989
  0
ARC
  5
2D6A
  8
0
 10
483.4170880931105216
 20
-10.5819270155057392
 30
0.0
 40
0.1061491225080473
 50
38.0415616902901235
 51
136.4234293170059118
  0
ARC
  5
2D6B
  8
0
 10
483.4613683291615871
 20
-10.5472797473285098
 30
0.0
 40
0.0499248172932415
 50
352.1252314480883001
 51
38.0415616902901235
  0
ARC
  5
2D6C
  8
0
 10
483.4360328812294938
 20
-10.5437755345597797
 30
0.0
 40
0.0755014556385329
 50
327.0369666259596215
 51
352.1252314480884138
  0
ARC
  5
2D6D
  8
0
 10
483.4175716155812097
 20
-10.5852256604819992
 30
0.0
 40
0.0258080042944824
 50
231.182059883794409
 51
316.6218246058548971
  0
ARC
  5
2D6E
  8
0
 10
483.408578128965587
 20
-10.5964041326381508
 30
0.0
 40
0.0114608428591438
 50
145.2658281257135116
 51
231.1820598837946932
  0
ARC
  5
2D6F
  8
0
 10
483.4176891429045213
 20
-10.6066331431606606
 30
0.0
 40
0.0249842217977774
 50
39.4484873683950568
 51
137.8722856512528097
  0
ARC
  5
2D70
  8
0
 10
483.4279871086707772
 20
-10.5963911098375796
 30
0.0
 40
0.0106127840966445
 50
321.8224654107009997
 51
32.0549448939311432
  0
ARC
  5
2D71
  8
0
 10
483.4238213212992719
 20
-10.1307211107298407
 30
0.0
 40
0.0623265497818235
 50
292.085223437705622
 51
313.9549543380061891
  0
ARC
  5
2D72
  8
0
 10
483.4169804967852997
 20
-10.1138465870495597
 30
0.0
 40
0.0805349655398101
 50
246.3069906980919939
 51
292.0811756850046095
  0
ARC
  5
2D73
  8
0
 10
483.4095027053867284
 20
-10.1308871200908506
 30
0.0
 40
0.0619259050978465
 50
221.0374994140690035
 51
246.3069906980919939
  0
ARC
  5
2D74
  8
0
 10
483.3914112402401884
 20
-10.1501488975463499
 30
0.0
 40
0.0357319587324041
 50
173.4974701845067955
 51
216.7831099588995016
  0
ARC
  5
2D75
  8
0
 10
483.3954375730476727
 20
-10.1536120087661903
 30
0.0
 40
0.0402354453890804
 50
123.3029751469476025
 51
169.2430807293355883
  0
ARC
  5
2D76
  8
0
 10
483.4162797467240011
 20
-10.1853375956369199
 30
0.0
 40
0.0781947534155439
 50
92.1713122584476707
 51
123.3029751469476025
  0
ARC
  5
2D77
  8
0
 10
483.4164374642232929
 20
-10.1894973937823607
 30
0.0
 40
0.0823575403930777
 50
57.7493847118860515
 51
92.1713122584476707
  0
ARC
  5
2D78
  8
0
 10
483.4396217250111931
 20
-10.1527534386948695
 30
0.0
 40
0.0389106971964616
 50
6.9757918606183464
 51
57.7493847118860515
  0
ARC
  5
2D79
  8
0
 10
483.4428027062566002
 20
-10.1497146380344496
 30
0.0
 40
0.0354818042957983
 50
313.1779551971212072
 51
2.7250258267158909
  0
LINE
  5
2D7A
  8
0
 10
483.4694655981967912
 20
-10.1731250765069596
 30
0.0
 11
483.4985315093387044
 21
-10.1425284958080795
 31
0.0
  0
LINE
  5
2D7B
  8
0
 10
483.3627932314792019
 20
-10.1715447487659798
 30
0.0
 11
483.3368640661406062
 21
-10.1446334417369997
 31
0.0
  0
ARC
  5
2D7C
  8
0
 10
483.3853248536489104
 20
-10.1062214272833195
 30
0.0
 40
0.0618379396513073
 50
178.1226549256847989
 51
218.4017917746134003
  0
ARC
  5
2D7D
  8
0
 10
483.3810113055557167
 20
-10.1060800396000801
 30
0.0
 40
0.057522075006786
 50
136.4234293170059118
 51
178.1226549256847989
  0
ARC
  5
2D7E
  8
0
 10
483.4162393548630803
 20
-10.1395997993050706
 30
0.0
 40
0.1061491225080473
 50
38.0415616902901235
 51
136.4234293170059118
  0
ARC
  5
2D7F
  8
0
 10
483.4605195909142026
 20
-10.1049525311278305
 30
0.0
 40
0.0499248172932415
 50
352.1252314480883001
 51
38.0415616902901235
  0
ARC
  5
2D80
  8
0
 10
483.435184142982223
 20
-10.1014483183591004
 30
0.0
 40
0.0755014556385329
 50
327.0369666259596215
 51
352.1252314480884138
  0
ARC
  5
2D81
  8
0
 10
483.416722877333882
 20
-10.1428984442813199
 30
0.0
 40
0.0258080042944824
 50
231.182059883794409
 51
316.6218246058548971
  0
ARC
  5
2D82
  8
0
 10
483.4077293907182025
 20
-10.1540769164374698
 30
0.0
 40
0.0114608428591438
 50
145.2658281257135116
 51
231.1820598837946932
  0
ARC
  5
2D83
  8
0
 10
483.4168404046571936
 20
-10.1643059269599796
 30
0.0
 40
0.0249842217977774
 50
39.4484873683950568
 51
137.8722856512528097
  0
ARC
  5
2D84
  8
0
 10
483.4271383704235063
 20
-10.1540638936369003
 30
0.0
 40
0.0106127840966445
 50
321.8224654107009997
 51
32.0549448939311432
  0
ARC
  5
2D85
  8
0
 10
481.1028056616490858
 20
-11.3892946469186196
 30
0.0
 40
0.0623265497818235
 50
292.085223437705622
 51
313.9549543380061891
  0
ARC
  5
2D86
  8
0
 10
481.0959648371349999
 20
-11.3724201232383404
 30
0.0
 40
0.0805349655398101
 50
246.3069906980919939
 51
292.0811756850046095
  0
ARC
  5
2D87
  8
0
 10
481.0884870457363718
 20
-11.3894606562796294
 30
0.0
 40
0.0619259050978465
 50
221.0374994140690035
 51
246.3069906980919939
  0
ARC
  5
2D88
  8
0
 10
481.0703955805900023
 20
-11.4087224337351198
 30
0.0
 40
0.0357319587324041
 50
173.4974701845067955
 51
216.7831099588995016
  0
ARC
  5
2D89
  8
0
 10
481.0744219133974866
 20
-11.4121855449549603
 30
0.0
 40
0.0402354453890804
 50
123.3029751469476025
 51
169.2430807293355883
  0
ARC
  5
2D8A
  8
0
 10
481.0952640870738719
 20
-11.4439111318257005
 30
0.0
 40
0.0781947534155439
 50
92.1713122584476707
 51
123.3029751469476025
  0
ARC
  5
2D8B
  8
0
 10
481.0954218045731068
 20
-11.4480709299711307
 30
0.0
 40
0.0823575403930777
 50
57.7493847118860515
 51
92.1713122584476707
  0
ARC
  5
2D8C
  8
0
 10
481.118606065361007
 20
-11.4113269748836395
 30
0.0
 40
0.0389106971964616
 50
6.9757918606183464
 51
57.7493847118860515
  0
ARC
  5
2D8D
  8
0
 10
481.1217870466065278
 20
-11.4082881742232196
 30
0.0
 40
0.0354818042957983
 50
313.1779551971212072
 51
2.7250258267158909
  0
LINE
  5
2D8E
  8
0
 10
481.1484499385466052
 20
-11.4316986126957296
 30
0.0
 11
481.1775158496885183
 21
-11.4011020319968601
 31
0.0
  0
LINE
  5
2D8F
  8
0
 10
481.0417775718290727
 20
-11.4301182849547605
 30
0.0
 11
481.0158484064904201
 21
-11.4032069779257696
 31
0.0
  0
ARC
  5
2D90
  8
0
 10
481.0643091939987812
 20
-11.3647949634721002
 30
0.0
 40
0.0618379396513073
 50
178.1226549256847989
 51
218.4017917746134003
  0
ARC
  5
2D91
  8
0
 10
481.0599956459054738
 20
-11.3646535757888607
 30
0.0
 40
0.057522075006786
 50
136.4234293170059118
 51
178.1226549256847989
  0
ARC
  5
2D92
  8
0
 10
481.0952236952131216
 20
-11.3981733354938406
 30
0.0
 40
0.1061491225080473
 50
38.0415616902901235
 51
136.4234293170059118
  0
ARC
  5
2D93
  8
0
 10
481.139503931264187
 20
-11.3635260673166094
 30
0.0
 40
0.0499248172932415
 50
352.1252314480883001
 51
38.0415616902901235
  0
ARC
  5
2D94
  8
0
 10
481.1141684833320937
 20
-11.3600218545478704
 30
0.0
 40
0.0755014556385329
 50
327.0369666259596215
 51
352.1252314480884138
  0
ARC
  5
2D95
  8
0
 10
481.0957072176836959
 20
-11.4014719804701006
 30
0.0
 40
0.0258080042944824
 50
231.182059883794409
 51
316.6218246058548971
  0
ARC
  5
2D96
  8
0
 10
481.0867137310680732
 20
-11.4126504526262504
 30
0.0
 40
0.0114608428591438
 50
145.2658281257135116
 51
231.1820598837946932
  0
ARC
  5
2D97
  8
0
 10
481.0958247450071212
 20
-11.4228794631487602
 30
0.0
 40
0.0249842217977774
 50
39.4484873683950568
 51
137.8722856512528097
  0
ARC
  5
2D98
  8
0
 10
481.1061227107733771
 20
-11.4126374298256792
 30
0.0
 40
0.0106127840966445
 50
321.8224654107009997
 51
32.0549448939311432
  0
ARC
  5
2D99
  8
0
 10
481.7175711936060907
 20
-11.3105854256030405
 30
0.0
 40
0.0623265497818235
 50
292.085223437705622
 51
313.9549543380061891
  0
ARC
  5
2D9A
  8
0
 10
481.7107303690921754
 20
-11.2937109019227506
 30
0.0
 40
0.0805349655398101
 50
246.3069906980919939
 51
292.0811756850046095
  0
ARC
  5
2D9B
  8
0
 10
481.7032525776934904
 20
-11.3107514349640397
 30
0.0
 40
0.0619259050978465
 50
221.0374994140690035
 51
246.3069906980919939
  0
ARC
  5
2D9C
  8
0
 10
481.6851611125471209
 20
-11.3300132124195407
 30
0.0
 40
0.0357319587324041
 50
173.4974701845067955
 51
216.7831099588995016
  0
ARC
  5
2D9D
  8
0
 10
481.6891874453546052
 20
-11.3334763236393794
 30
0.0
 40
0.0402354453890804
 50
123.3029751469476025
 51
169.2430807293355883
  0
ARC
  5
2D9E
  8
0
 10
481.7100296190309905
 20
-11.3652019105101107
 30
0.0
 40
0.0781947534155439
 50
92.1713122584476707
 51
123.3029751469476025
  0
ARC
  5
2D9F
  8
0
 10
481.7101873365302254
 20
-11.3693617086555498
 30
0.0
 40
0.0823575403930777
 50
57.7493847118860515
 51
92.1713122584476707
  0
ARC
  5
2DA0
  8
0
 10
481.7333715973181256
 20
-11.3326177535680603
 30
0.0
 40
0.0389106971964616
 50
6.9757918606183464
 51
57.7493847118860515
  0
ARC
  5
2DA1
  8
0
 10
481.7365525785635896
 20
-11.3295789529076405
 30
0.0
 40
0.0354818042957983
 50
313.1779551971212072
 51
2.7250258267158909
  0
LINE
  5
2DA2
  8
0
 10
481.76321547050361
 20
-11.3529893913801505
 30
0.0
 11
481.7922813816456937
 21
-11.3223928106812703
 31
0.0
  0
LINE
  5
2DA3
  8
0
 10
481.6565431037861913
 20
-11.3514090636391707
 30
0.0
 11
481.6306139384475955
 21
-11.3244977566101905
 31
0.0
  0
ARC
  5
2DA4
  8
0
 10
481.6790747259558998
 20
-11.2860857421565104
 30
0.0
 40
0.0618379396513073
 50
178.1226549256847989
 51
218.4017917746134003
  0
ARC
  5
2DA5
  8
0
 10
481.6747611778627061
 20
-11.2859443544732692
 30
0.0
 40
0.057522075006786
 50
136.4234293170059118
 51
178.1226549256847989
  0
ARC
  5
2DA6
  8
0
 10
481.7099892271701265
 20
-11.3194641141782597
 30
0.0
 40
0.1061491225080473
 50
38.0415616902901235
 51
136.4234293170059118
  0
ARC
  5
2DA7
  8
0
 10
481.7542694632213056
 20
-11.2848168460010303
 30
0.0
 40
0.0499248172932415
 50
352.1252314480883001
 51
38.0415616902901235
  0
ARC
  5
2DA8
  8
0
 10
481.728934015289326
 20
-11.2813126332322895
 30
0.0
 40
0.0755014556385329
 50
327.0369666259596215
 51
352.1252314480884138
  0
ARC
  5
2DA9
  8
0
 10
481.7104727496408145
 20
-11.3227627591545197
 30
0.0
 40
0.0258080042944824
 50
231.182059883794409
 51
316.6218246058548971
  0
ARC
  5
2DAA
  8
0
 10
481.7014792630251918
 20
-11.3339412313106607
 30
0.0
 40
0.0114608428591438
 50
145.2658281257135116
 51
231.1820598837946932
  0
ARC
  5
2DAB
  8
0
 10
481.710590276964183
 20
-11.3441702418331705
 30
0.0
 40
0.0249842217977774
 50
39.4484873683950568
 51
137.8722856512528097
  0
ARC
  5
2DAC
  8
0
 10
481.7208882427304957
 20
-11.3339282085101001
 30
0.0
 40
0.0106127840966445
 50
321.8224654107009997
 51
32.0549448939311432
  0
ARC
  5
2DAD
  8
0
 10
482.2734974158553882
 20
-11.1049580275509499
 30
0.0
 40
0.0623265497818235
 50
292.085223437705622
 51
313.9549543380061891
  0
ARC
  5
2DAE
  8
0
 10
482.2666565913414161
 20
-11.08808350387066
 30
0.0
 40
0.0805349655398101
 50
246.3069906980919939
 51
292.0811756850046095
  0
ARC
  5
2DAF
  8
0
 10
482.2591787999427879
 20
-11.1051240369119508
 30
0.0
 40
0.0619259050978465
 50
221.0374994140690035
 51
246.3069906980919939
  0
ARC
  5
2DB0
  8
0
 10
482.2410873347964184
 20
-11.1243858143674501
 30
0.0
 40
0.0357319587324041
 50
173.4974701845067955
 51
216.7831099588995016
  0
ARC
  5
2DB1
  8
0
 10
482.2451136676039027
 20
-11.1278489255872906
 30
0.0
 40
0.0402354453890804
 50
123.3029751469476025
 51
169.2430807293355883
  0
ARC
  5
2DB2
  8
0
 10
482.2659558412801744
 20
-11.1595745124580308
 30
0.0
 40
0.0781947534155439
 50
92.1713122584476707
 51
123.3029751469476025
  0
ARC
  5
2DB3
  8
0
 10
482.2661135587794092
 20
-11.1637343106034592
 30
0.0
 40
0.0823575403930777
 50
57.7493847118860515
 51
92.1713122584476707
  0
ARC
  5
2DB4
  8
0
 10
482.2892978195674232
 20
-11.1269903555159697
 30
0.0
 40
0.0389106971964616
 50
6.9757918606183464
 51
57.7493847118860515
  0
ARC
  5
2DB5
  8
0
 10
482.2924788008127734
 20
-11.1239515548555499
 30
0.0
 40
0.0354818042957983
 50
313.1779551971212072
 51
2.7250258267158909
  0
LINE
  5
2DB6
  8
0
 10
482.3191416927529076
 20
-11.1473619933280599
 30
0.0
 11
482.3482076038948207
 21
-11.1167654126291904
 31
0.0
  0
LINE
  5
2DB7
  8
0
 10
482.2124693260353752
 20
-11.1457816655870801
 30
0.0
 11
482.1865401606967794
 21
-11.1188703585580999
 31
0.0
  0
ARC
  5
2DB8
  8
0
 10
482.2350009482050837
 20
-11.0804583441044198
 30
0.0
 40
0.0618379396513073
 50
178.1226549256847989
 51
218.4017917746134003
  0
ARC
  5
2DB9
  8
0
 10
482.2306874001117762
 20
-11.0803169564211892
 30
0.0
 40
0.057522075006786
 50
136.4234293170059118
 51
178.1226549256847989
  0
ARC
  5
2DBA
  8
0
 10
482.265915449419424
 20
-11.1138367161261709
 30
0.0
 40
0.1061491225080473
 50
38.0415616902901235
 51
136.4234293170059118
  0
ARC
  5
2DBB
  8
0
 10
482.3101956854704895
 20
-11.0791894479489397
 30
0.0
 40
0.0499248172932415
 50
352.1252314480883001
 51
38.0415616902901235
  0
ARC
  5
2DBC
  8
0
 10
482.2848602375383962
 20
-11.0756852351802006
 30
0.0
 40
0.0755014556385329
 50
327.0369666259596215
 51
352.1252314480884138
  0
ARC
  5
2DBD
  8
0
 10
482.2663989718899984
 20
-11.1171353611024308
 30
0.0
 40
0.0258080042944824
 50
231.182059883794409
 51
316.6218246058548971
  0
ARC
  5
2DBE
  8
0
 10
482.2574054852743757
 20
-11.1283138332585807
 30
0.0
 40
0.0114608428591438
 50
145.2658281257135116
 51
231.1820598837946932
  0
ARC
  5
2DBF
  8
0
 10
482.2665164992134237
 20
-11.1385428437810798
 30
0.0
 40
0.0249842217977774
 50
39.4484873683950568
 51
137.8722856512528097
  0
ARC
  5
2DC0
  8
0
 10
482.2768144649796795
 20
-11.1283008104580095
 30
0.0
 40
0.0106127840966445
 50
321.8224654107009997
 51
32.0549448939311432
  0
ARC
  5
2DC1
  8
0
 10
482.6416300538069777
 20
-10.7444962138526794
 30
0.0
 40
0.0623265497818235
 50
292.085223437705622
 51
313.9549543380061891
  0
ARC
  5
2DC2
  8
0
 10
482.6347892292930055
 20
-10.7276216901723895
 30
0.0
 40
0.0805349655398101
 50
246.3069906980919939
 51
292.0811756850046095
  0
ARC
  5
2DC3
  8
0
 10
482.6273114378943774
 20
-10.7446622232136804
 30
0.0
 40
0.0619259050978465
 50
221.0374994140690035
 51
246.3069906980919939
  0
ARC
  5
2DC4
  8
0
 10
482.6092199727478942
 20
-10.7639240006691796
 30
0.0
 40
0.0357319587324041
 50
173.4974701845067955
 51
216.7831099588995016
  0
ARC
  5
2DC5
  8
0
 10
482.6132463055554922
 20
-10.7673871118890201
 30
0.0
 40
0.0402354453890804
 50
123.3029751469476025
 51
169.2430807293355883
  0
ARC
  5
2DC6
  8
0
 10
482.6340884792318207
 20
-10.7991126987597497
 30
0.0
 40
0.0781947534155439
 50
92.1713122584476707
 51
123.3029751469476025
  0
ARC
  5
2DC7
  8
0
 10
482.6342461967309987
 20
-10.8032724969051905
 30
0.0
 40
0.0823575403930777
 50
57.7493847118860515
 51
92.1713122584476707
  0
ARC
  5
2DC8
  8
0
 10
482.6574304575188989
 20
-10.7665285418176992
 30
0.0
 40
0.0389106971964616
 50
6.9757918606183464
 51
57.7493847118860515
  0
ARC
  5
2DC9
  8
0
 10
482.6606114387644197
 20
-10.7634897411572794
 30
0.0
 40
0.0354818042957983
 50
313.1779551971212072
 51
2.7250258267158909
  0
LINE
  5
2DCA
  8
0
 10
482.6872743307044971
 20
-10.7869001796297894
 30
0.0
 11
482.7163402418465239
 21
-10.7563035989309093
 31
0.0
  0
LINE
  5
2DCB
  8
0
 10
482.5806019639870783
 20
-10.7853198518888096
 30
0.0
 11
482.5546727986484257
 21
-10.7584085448598294
 31
0.0
  0
ARC
  5
2DCC
  8
0
 10
482.6031335861567868
 20
-10.7199965304061493
 30
0.0
 40
0.0618379396513073
 50
178.1226549256847989
 51
218.4017917746134003
  0
ARC
  5
2DCD
  8
0
 10
482.5988200380634225
 20
-10.7198551427229205
 30
0.0
 40
0.057522075006786
 50
136.4234293170059118
 51
178.1226549256847989
  0
ARC
  5
2DCE
  8
0
 10
482.6340480873708998
 20
-10.7533749024279004
 30
0.0
 40
0.1061491225080473
 50
38.0415616902901235
 51
136.4234293170059118
  0
ARC
  5
2DCF
  8
0
 10
482.6783283234220221
 20
-10.7187276342506692
 30
0.0
 40
0.0499248172932415
 50
352.1252314480883001
 51
38.0415616902901235
  0
ARC
  5
2DD0
  8
0
 10
482.6529928754899856
 20
-10.7152234214819302
 30
0.0
 40
0.0755014556385329
 50
327.0369666259596215
 51
352.1252314480884138
  0
ARC
  5
2DD1
  8
0
 10
482.6345316098417015
 20
-10.7566735474041604
 30
0.0
 40
0.0258080042944824
 50
231.182059883794409
 51
316.6218246058548971
  0
ARC
  5
2DD2
  8
0
 10
482.625538123226022
 20
-10.7678520195602996
 30
0.0
 40
0.0114608428591438
 50
145.2658281257135116
 51
231.1820598837946932
  0
ARC
  5
2DD3
  8
0
 10
482.6346491371650131
 20
-10.7780810300828094
 30
0.0
 40
0.0249842217977774
 50
39.4484873683950568
 51
137.8722856512528097
  0
ARC
  5
2DD4
  8
0
 10
482.6449471029313258
 20
-10.7678389967597301
 30
0.0
 40
0.0106127840966445
 50
321.8224654107009997
 51
32.0549448939311432
  0
ARC
  5
2DD5
  8
0
 10
482.7722019644835996
 20
-10.3088881723687393
 30
0.0
 40
0.0623265497818235
 50
292.085223437705622
 51
313.9549543380061891
  0
ARC
  5
2DD6
  8
0
 10
482.7653611399696274
 20
-10.2920136486884495
 30
0.0
 40
0.0805349655398101
 50
246.3069906980919939
 51
292.0811756850046095
  0
ARC
  5
2DD7
  8
0
 10
482.7578833485709993
 20
-10.3090541817297492
 30
0.0
 40
0.0619259050978465
 50
221.0374994140690035
 51
246.3069906980919939
  0
ARC
  5
2DD8
  8
0
 10
482.7397918834245729
 20
-10.3283159591852396
 30
0.0
 40
0.0357319587324041
 50
173.4974701845067955
 51
216.7831099588995016
  0
ARC
  5
2DD9
  8
0
 10
482.7438182162321141
 20
-10.33177907040508
 30
0.0
 40
0.0402354453890804
 50
123.3029751469476025
 51
169.2430807293355883
  0
ARC
  5
2DDA
  8
0
 10
482.7646603899083857
 20
-10.3635046572758096
 30
0.0
 40
0.0781947534155439
 50
92.1713122584476707
 51
123.3029751469476025
  0
ARC
  5
2DDB
  8
0
 10
482.7648181074076206
 20
-10.3676644554212505
 30
0.0
 40
0.0823575403930777
 50
57.7493847118860515
 51
92.1713122584476707
  0
ARC
  5
2DDC
  8
0
 10
482.7880023681955208
 20
-10.3309205003337592
 30
0.0
 40
0.0389106971964616
 50
6.9757918606183464
 51
57.7493847118860515
  0
ARC
  5
2DDD
  8
0
 10
482.7911833494409848
 20
-10.3278816996733394
 30
0.0
 40
0.0354818042957983
 50
313.1779551971212072
 51
2.7250258267158909
  0
LINE
  5
2DDE
  8
0
 10
482.8178462413811189
 20
-10.3512921381458494
 30
0.0
 11
482.8469121525229752
 21
-10.3206955574469799
 31
0.0
  0
LINE
  5
2DDF
  8
0
 10
482.7111738746635865
 20
-10.3497118104048695
 30
0.0
 11
482.6852447093251044
 21
-10.3228005033758894
 31
0.0
  0
ARC
  5
2DE0
  8
0
 10
482.733705496833295
 20
-10.2843884889222092
 30
0.0
 40
0.0618379396513073
 50
178.1226549256847989
 51
218.4017917746134003
  0
ARC
  5
2DE1
  8
0
 10
482.7293919487399876
 20
-10.2842471012389804
 30
0.0
 40
0.057522075006786
 50
136.4234293170059118
 51
178.1226549256847989
  0
ARC
  5
2DE2
  8
0
 10
482.7646199980475785
 20
-10.3177668609439603
 30
0.0
 40
0.1061491225080473
 50
38.0415616902901235
 51
136.4234293170059118
  0
ARC
  5
2DE3
  8
0
 10
482.8089002340987008
 20
-10.2831195927667292
 30
0.0
 40
0.0499248172932415
 50
352.1252314480883001
 51
38.0415616902901235
  0
ARC
  5
2DE4
  8
0
 10
482.7835647861666075
 20
-10.2796153799979901
 30
0.0
 40
0.0755014556385329
 50
327.0369666259596215
 51
352.1252314480884138
  0
ARC
  5
2DE5
  8
0
 10
482.7651035205183234
 20
-10.3210655059202203
 30
0.0
 40
0.0258080042944824
 50
231.182059883794409
 51
316.6218246058548971
  0
ARC
  5
2DE6
  8
0
 10
482.7561100339027007
 20
-10.3322439780763595
 30
0.0
 40
0.0114608428591438
 50
145.2658281257135116
 51
231.1820598837946932
  0
ARC
  5
2DE7
  8
0
 10
482.7652210478415782
 20
-10.3424729885988693
 30
0.0
 40
0.0249842217977774
 50
39.4484873683950568
 51
137.8722856512528097
  0
ARC
  5
2DE8
  8
0
 10
482.7755190136080046
 20
-10.3322309552758007
 30
0.0
 40
0.0106127840966445
 50
321.8224654107009997
 51
32.0549448939311432
  0
ARC
  5
2DE9
  8
0
 10
482.641316700233574
 20
-9.8799710776195742
 30
0.0
 40
0.0623265497818235
 50
292.085223437705622
 51
313.9549543380061891
  0
ARC
  5
2DEA
  8
0
 10
482.6344758757196018
 20
-9.8630965539392896
 30
0.0
 40
0.0805349655398101
 50
246.3069906980919939
 51
292.0811756850046095
  0
ARC
  5
2DEB
  8
0
 10
482.6269980843209737
 20
-9.8801370869805805
 30
0.0
 40
0.0619259050978465
 50
221.0374994140690035
 51
246.3069906980919939
  0
ARC
  5
2DEC
  8
0
 10
482.6089066191744905
 20
-9.8993988644360762
 30
0.0
 40
0.0357319587324041
 50
173.4974701845067955
 51
216.7831099588995016
  0
ARC
  5
2DED
  8
0
 10
482.6129329519819748
 20
-9.9028619756559166
 30
0.0
 40
0.0402354453890804
 50
123.3029751469476025
 51
169.2430807293355883
  0
ARC
  5
2DEE
  8
0
 10
482.633775125658417
 20
-9.9345875625266498
 30
0.0
 40
0.0781947534155439
 50
92.1713122584476707
 51
123.3029751469476025
  0
ARC
  5
2DEF
  8
0
 10
482.633932843157595
 20
-9.9387473606720853
 30
0.0
 40
0.0823575403930777
 50
57.7493847118860515
 51
92.1713122584476707
  0
ARC
  5
2DF0
  8
0
 10
482.6571171039453816
 20
-9.9020034055845976
 30
0.0
 40
0.0389106971964616
 50
6.9757918606183464
 51
57.7493847118860515
  0
ARC
  5
2DF1
  8
0
 10
482.6602980851909024
 20
-9.8989646049241777
 30
0.0
 40
0.0354818042957983
 50
313.1779551971212072
 51
2.7250258267158909
  0
LINE
  5
2DF2
  8
0
 10
482.6869609771310934
 20
-9.9223750433966877
 30
0.0
 11
482.7160268882730065
 21
-9.8917784626978111
 31
0.0
  0
LINE
  5
2DF3
  8
0
 10
482.5802886104136178
 20
-9.9207947156557061
 30
0.0
 11
482.5543594450749083
 21
-9.8938834086267278
 31
0.0
  0
ARC
  5
2DF4
  8
0
 10
482.6028202325833263
 20
-9.8554713941730476
 30
0.0
 40
0.0618379396513073
 50
178.1226549256847989
 51
218.4017917746134003
  0
ARC
  5
2DF5
  8
0
 10
482.5985066844900189
 20
-9.8553300064898117
 30
0.0
 40
0.057522075006786
 50
136.4234293170059118
 51
178.1226549256847989
  0
ARC
  5
2DF6
  8
0
 10
482.6337347337973824
 20
-9.8888497661947952
 30
0.0
 40
0.1061491225080473
 50
38.0415616902901235
 51
136.4234293170059118
  0
ARC
  5
2DF7
  8
0
 10
482.6780149698485047
 20
-9.8542024980175622
 30
0.0
 40
0.0499248172932415
 50
352.1252314480883001
 51
38.0415616902901235
  0
ARC
  5
2DF8
  8
0
 10
482.6526795219165251
 20
-9.8506982852488267
 30
0.0
 40
0.0755014556385329
 50
327.0369666259596215
 51
352.1252314480884138
  0
ARC
  5
2DF9
  8
0
 10
482.6342182562681842
 20
-9.8921484111710534
 30
0.0
 40
0.0258080042944824
 50
231.182059883794409
 51
316.6218246058548971
  0
ARC
  5
2DFA
  8
0
 10
482.6252247696526183
 20
-9.9033268833271997
 30
0.0
 40
0.0114608428591438
 50
145.2658281257135116
 51
231.1820598837946932
  0
ARC
  5
2DFB
  8
0
 10
482.6343357835916095
 20
-9.9135558938497095
 30
0.0
 40
0.0249842217977774
 50
39.4484873683950568
 51
137.8722856512528097
  0
ARC
  5
2DFC
  8
0
 10
482.6446337493578085
 20
-9.9033138605266302
 30
0.0
 40
0.0106127840966445
 50
321.8224654107009997
 51
32.0549448939311432
  0
ARC
  5
2DFD
  8
0
 10
483.2485001972170267
 20
-9.7115986224706692
 30
0.0
 40
0.0623265497818235
 50
292.085223437705622
 51
313.9549543380061891
  0
ARC
  5
2DFE
  8
0
 10
483.2416593727029976
 20
-9.6947240987903847
 30
0.0
 40
0.0805349655398101
 50
246.3069906980919939
 51
292.0811756850046095
  0
ARC
  5
2DFF
  8
0
 10
483.2341815813044263
 20
-9.7117646318316755
 30
0.0
 40
0.0619259050978465
 50
221.0374994140690035
 51
246.3069906980919939
  0
ARC
  5
2E00
  8
0
 10
483.216090116158
 20
-9.7310264092871712
 30
0.0
 40
0.0357319587324041
 50
173.4974701845067955
 51
216.7831099588995016
  0
ARC
  5
2E01
  8
0
 10
483.2201164489654843
 20
-9.7344895205070117
 30
0.0
 40
0.0402354453890804
 50
123.3029751469476025
 51
169.2430807293355883
  0
ARC
  5
2E02
  8
0
 10
483.2409586226418128
 20
-9.7662151073777448
 30
0.0
 40
0.0781947534155439
 50
92.1713122584476707
 51
123.3029751469476025
  0
ARC
  5
2E03
  8
0
 10
483.2411163401409908
 20
-9.7703749055231803
 30
0.0
 40
0.0823575403930777
 50
57.7493847118860515
 51
92.1713122584476707
  0
ARC
  5
2E04
  8
0
 10
483.2643006009288911
 20
-9.7336309504356926
 30
0.0
 40
0.0389106971964616
 50
6.9757918606183464
 51
57.7493847118860515
  0
ARC
  5
2E05
  8
0
 10
483.2674815821744119
 20
-9.7305921497752728
 30
0.0
 40
0.0354818042957983
 50
313.1779551971212072
 51
2.7250258267158909
  0
LINE
  5
2E06
  8
0
 10
483.2941444741144892
 20
-9.7540025882477828
 30
0.0
 11
483.323210385256516
 21
-9.7234060075489062
 31
0.0
  0
LINE
  5
2E07
  8
0
 10
483.1874721073971273
 20
-9.7524222605068012
 30
0.0
 11
483.1615429420584178
 21
-9.7255109534778228
 31
0.0
  0
ARC
  5
2E08
  8
0
 10
483.2100037295667221
 20
-9.6870989390241427
 30
0.0
 40
0.0618379396513073
 50
178.1226549256847989
 51
218.4017917746134003
  0
ARC
  5
2E09
  8
0
 10
483.2056901814734147
 20
-9.6869575513409067
 30
0.0
 40
0.057522075006786
 50
136.4234293170059118
 51
178.1226549256847989
  0
ARC
  5
2E0A
  8
0
 10
483.2409182307808919
 20
-9.7204773110458902
 30
0.0
 40
0.1061491225080473
 50
38.0415616902901235
 51
136.4234293170059118
  0
ARC
  5
2E0B
  8
0
 10
483.2851984668320142
 20
-9.685830042868659
 30
0.0
 40
0.0499248172932415
 50
352.1252314480883001
 51
38.0415616902901235
  0
ARC
  5
2E0C
  8
0
 10
483.2598630188999778
 20
-9.6823258300999218
 30
0.0
 40
0.0755014556385329
 50
327.0369666259596215
 51
352.1252314480884138
  0
ARC
  5
2E0D
  8
0
 10
483.24140175325158
 20
-9.7237759560221484
 30
0.0
 40
0.0258080042944824
 50
231.182059883794409
 51
316.6218246058548971
  0
ARC
  5
2E0E
  8
0
 10
483.2324082666360141
 20
-9.7349544281782947
 30
0.0
 40
0.0114608428591438
 50
145.2658281257135116
 51
231.1820598837946932
  0
ARC
  5
2E0F
  8
0
 10
483.2415192805750053
 20
-9.7451834387008045
 30
0.0
 40
0.0249842217977774
 50
39.4484873683950568
 51
137.8722856512528097
  0
ARC
  5
2E10
  8
0
 10
483.251817246341318
 20
-9.734941405377727
 30
0.0
 40
0.0106127840966445
 50
321.8224654107009997
 51
32.0549448939311432
  0
ARC
  5
2E11
  8
0
 10
482.9129841702841759
 20
-9.344069395127196
 30
0.0
 40
0.0623265497818235
 50
292.085223437705622
 51
313.9549543380061891
  0
ARC
  5
2E12
  8
0
 10
482.9061433457702037
 20
-9.3271948714469133
 30
0.0
 40
0.0805349655398101
 50
246.3069906980919939
 51
292.0811756850046095
  0
ARC
  5
2E13
  8
0
 10
482.8986655543715756
 20
-9.3442354044882023
 30
0.0
 40
0.0619259050978465
 50
221.0374994140690035
 51
246.3069906980919939
  0
ARC
  5
2E14
  8
0
 10
482.8805740892252061
 20
-9.3634971819436981
 30
0.0
 40
0.0357319587324041
 50
173.4974701845067955
 51
216.7831099588995016
  0
ARC
  5
2E15
  8
0
 10
482.8846004220325767
 20
-9.3669602931635403
 30
0.0
 40
0.0402354453890804
 50
123.3029751469476025
 51
169.2430807293355883
  0
ARC
  5
2E16
  8
0
 10
482.9054425957090757
 20
-9.3986858800342734
 30
0.0
 40
0.0781947534155439
 50
92.1713122584476707
 51
123.3029751469476025
  0
ARC
  5
2E17
  8
0
 10
482.9056003132081969
 20
-9.4028456781797072
 30
0.0
 40
0.0823575403930777
 50
57.7493847118860515
 51
92.1713122584476707
  0
ARC
  5
2E18
  8
0
 10
482.9287845739960972
 20
-9.3661017230922212
 30
0.0
 40
0.0389106971964616
 50
6.9757918606183464
 51
57.7493847118860515
  0
ARC
  5
2E19
  8
0
 10
482.9319655552416179
 20
-9.3630629224318014
 30
0.0
 40
0.0354818042957983
 50
313.1779551971212072
 51
2.7250258267158909
  0
LINE
  5
2E1A
  8
0
 10
482.9586284471816953
 20
-9.3864733609043096
 30
0.0
 11
482.9876943583236084
 21
-9.3558767802054348
 31
0.0
  0
LINE
  5
2E1B
  8
0
 10
482.8519560804642197
 20
-9.3848930331633316
 30
0.0
 11
482.8260269151256239
 21
-9.3579817261343496
 31
0.0
  0
ARC
  5
2E1C
  8
0
 10
482.8744877026339282
 20
-9.3195697116806695
 30
0.0
 40
0.0618379396513073
 50
178.1226549256847989
 51
218.4017917746134003
  0
ARC
  5
2E1D
  8
0
 10
482.8701741545406207
 20
-9.3194283239974336
 30
0.0
 40
0.057522075006786
 50
136.4234293170059118
 51
178.1226549256847989
  0
ARC
  5
2E1E
  8
0
 10
482.905402203848098
 20
-9.352948083702417
 30
0.0
 40
0.1061491225080473
 50
38.0415616902901235
 51
136.4234293170059118
  0
ARC
  5
2E1F
  8
0
 10
482.9496824398992771
 20
-9.3183008155251876
 30
0.0
 40
0.0499248172932415
 50
352.1252314480883001
 51
38.0415616902901235
  0
ARC
  5
2E20
  8
0
 10
482.9243469919671838
 20
-9.3147966027564504
 30
0.0
 40
0.0755014556385329
 50
327.0369666259596215
 51
352.1252314480884138
  0
ARC
  5
2E21
  8
0
 10
482.9058857263188997
 20
-9.356246728678677
 30
0.0
 40
0.0258080042944824
 50
231.182059883794409
 51
316.6218246058548971
  0
ARC
  5
2E22
  8
0
 10
482.896892239703277
 20
-9.3674252008348233
 30
0.0
 40
0.0114608428591438
 50
145.2658281257135116
 51
231.1820598837946932
  0
ARC
  5
2E23
  8
0
 10
482.9060032536422113
 20
-9.3776542113573331
 30
0.0
 40
0.0249842217977774
 50
39.4484873683950568
 51
137.8722856512528097
  0
ARC
  5
2E24
  8
0
 10
482.916301219408524
 20
-9.3674121780342556
 30
0.0
 40
0.0106127840966445
 50
321.8224654107009997
 51
32.0549448939311432
  0
ARC
  5
2E25
  8
0
 10
482.273551354859876
 20
-9.5265287898562736
 30
0.0
 40
0.0623265497818235
 50
292.085223437705622
 51
313.9549543380061891
  0
ARC
  5
2E26
  8
0
 10
482.2667105303460175
 20
-9.5096542661759891
 30
0.0
 40
0.0805349655398101
 50
246.3069906980919939
 51
292.0811756850046095
  0
ARC
  5
2E27
  8
0
 10
482.2592327389472757
 20
-9.5266947992172781
 30
0.0
 40
0.0619259050978465
 50
221.0374994140690035
 51
246.3069906980919939
  0
ARC
  5
2E28
  8
0
 10
482.2411412738009062
 20
-9.5459565766727756
 30
0.0
 40
0.0357319587324041
 50
173.4974701845067955
 51
216.7831099588995016
  0
ARC
  5
2E29
  8
0
 10
482.2451676066083905
 20
-9.5494196878926161
 30
0.0
 40
0.0402354453890804
 50
123.3029751469476025
 51
169.2430807293355883
  0
ARC
  5
2E2A
  8
0
 10
482.266009780284719
 20
-9.5811452747633492
 30
0.0
 40
0.0781947534155439
 50
92.1713122584476707
 51
123.3029751469476025
  0
ARC
  5
2E2B
  8
0
 10
482.266167497783897
 20
-9.5853050729087848
 30
0.0
 40
0.0823575403930777
 50
57.7493847118860515
 51
92.1713122584476707
  0
ARC
  5
2E2C
  8
0
 10
482.2893517585717973
 20
-9.548561117821297
 30
0.0
 40
0.0389106971964616
 50
6.9757918606183464
 51
57.7493847118860515
  0
ARC
  5
2E2D
  8
0
 10
482.2925327398173749
 20
-9.5455223171608772
 30
0.0
 40
0.0354818042957983
 50
313.1779551971212072
 51
2.7250258267158909
  0
LINE
  5
2E2E
  8
0
 10
482.3191956317573954
 20
-9.5689327556333872
 30
0.0
 11
482.3482615428994222
 21
-9.5383361749345106
 31
0.0
  0
LINE
  5
2E2F
  8
0
 10
482.2125232650399766
 20
-9.5673524278924074
 30
0.0
 11
482.186594099701324
 21
-9.5404411208634272
 31
0.0
  0
ARC
  5
2E30
  8
0
 10
482.2350548872096851
 20
-9.5020291064097471
 30
0.0
 40
0.0618379396513073
 50
178.1226549256847989
 51
218.4017917746134003
  0
ARC
  5
2E31
  8
0
 10
482.2307413391163777
 20
-9.5018877187265112
 30
0.0
 40
0.057522075006786
 50
136.4234293170059118
 51
178.1226549256847989
  0
ARC
  5
2E32
  8
0
 10
482.2659693884239118
 20
-9.5354074784314946
 30
0.0
 40
0.1061491225080473
 50
38.0415616902901235
 51
136.4234293170059118
  0
ARC
  5
2E33
  8
0
 10
482.3102496244749773
 20
-9.5007602102542634
 30
0.0
 40
0.0499248172932415
 50
352.1252314480883001
 51
38.0415616902901235
  0
ARC
  5
2E34
  8
0
 10
482.2849141765429977
 20
-9.4972559974855262
 30
0.0
 40
0.0755014556385329
 50
327.0369666259596215
 51
352.1252314480884138
  0
ARC
  5
2E35
  8
0
 10
482.2664529108945999
 20
-9.5387061234077528
 30
0.0
 40
0.0258080042944824
 50
231.182059883794409
 51
316.6218246058548971
  0
ARC
  5
2E36
  8
0
 10
482.2574594242789203
 20
-9.5498845955638991
 30
0.0
 40
0.0114608428591438
 50
145.2658281257135116
 51
231.1820598837946932
  0
ARC
  5
2E37
  8
0
 10
482.2665704382179115
 20
-9.5601136060864071
 30
0.0
 40
0.0249842217977774
 50
39.4484873683950568
 51
137.8722856512528097
  0
ARC
  5
2E38
  8
0
 10
482.2768684039842242
 20
-9.5498715727633314
 30
0.0
 40
0.0106127840966445
 50
321.8224654107009997
 51
32.0549448939311432
  0
ARC
  5
2E39
  8
0
 10
481.0278355187958823
 20
-10.8778252077719007
 30
0.0
 40
0.0623265497818235
 50
292.085223437705622
 51
313.9549543380061891
  0
ARC
  5
2E3A
  8
0
 10
481.0209946942819101
 20
-10.8609506840916197
 30
0.0
 40
0.0805349655398101
 50
246.3069906980919939
 51
292.0811756850046095
  0
ARC
  5
2E3B
  8
0
 10
481.013516902883282
 20
-10.8779912171329105
 30
0.0
 40
0.0619259050978465
 50
221.0374994140690035
 51
246.3069906980919939
  0
ARC
  5
2E3C
  8
0
 10
480.9954254377369125
 20
-10.8972529945884098
 30
0.0
 40
0.0357319587324041
 50
173.4974701845067955
 51
216.7831099588995016
  0
ARC
  5
2E3D
  8
0
 10
480.9994517705443968
 20
-10.9007161058082502
 30
0.0
 40
0.0402354453890804
 50
123.3029751469476025
 51
169.2430807293355883
  0
ARC
  5
2E3E
  8
0
 10
481.0202939442207253
 20
-10.9324416926789798
 30
0.0
 40
0.0781947534155439
 50
92.1713122584476707
 51
123.3029751469476025
  0
ARC
  5
2E3F
  8
0
 10
481.020451661720017
 20
-10.9366014908244207
 30
0.0
 40
0.0823575403930777
 50
57.7493847118860515
 51
92.1713122584476707
  0
ARC
  5
2E40
  8
0
 10
481.0436359225078036
 20
-10.8998575357369294
 30
0.0
 40
0.0389106971964616
 50
6.9757918606183464
 51
57.7493847118860515
  0
ARC
  5
2E41
  8
0
 10
481.0468169037533244
 20
-10.8968187350765096
 30
0.0
 40
0.0354818042957983
 50
313.1779551971212072
 51
2.7250258267158909
  0
LINE
  5
2E42
  8
0
 10
481.0734797956934017
 20
-10.9202291735490196
 30
0.0
 11
481.1025457068353717
 21
-10.8896325928501394
 31
0.0
  0
LINE
  5
2E43
  8
0
 10
480.9668074289759261
 20
-10.9186488458080397
 30
0.0
 11
480.9408782636372734
 21
-10.8917375387790596
 31
0.0
  0
ARC
  5
2E44
  8
0
 10
480.9893390511455777
 20
-10.8533255243253794
 30
0.0
 40
0.0618379396513073
 50
178.1226549256847989
 51
218.4017917746134003
  0
ARC
  5
2E45
  8
0
 10
480.985025503052384
 20
-10.85318413664214
 30
0.0
 40
0.057522075006786
 50
136.4234293170059118
 51
178.1226549256847989
  0
ARC
  5
2E46
  8
0
 10
481.0202535523599181
 20
-10.8867038963471305
 30
0.0
 40
0.1061491225080473
 50
38.0415616902901235
 51
136.4234293170059118
  0
ARC
  5
2E47
  8
0
 10
481.0645337884109836
 20
-10.8520566281698905
 30
0.0
 40
0.0499248172932415
 50
352.1252314480883001
 51
38.0415616902901235
  0
ARC
  5
2E48
  8
0
 10
481.0391983404790039
 20
-10.8485524154011603
 30
0.0
 40
0.0755014556385329
 50
327.0369666259596215
 51
352.1252314480884138
  0
ARC
  5
2E49
  8
0
 10
481.0207370748306062
 20
-10.8900025413233799
 30
0.0
 40
0.0258080042944824
 50
231.182059883794409
 51
316.6218246058548971
  0
ARC
  5
2E4A
  8
0
 10
481.0117435882149266
 20
-10.9011810134795297
 30
0.0
 40
0.0114608428591438
 50
145.2658281257135116
 51
231.1820598837946932
  0
ARC
  5
2E4B
  8
0
 10
481.0208546021539746
 20
-10.9114100240020395
 30
0.0
 40
0.0249842217977774
 50
39.4484873683950568
 51
137.8722856512528097
  0
ARC
  5
2E4C
  8
0
 10
481.0311525679201736
 20
-10.9011679906789603
 30
0.0
 40
0.0106127840966445
 50
321.8224654107009997
 51
32.0549448939311432
  0
ARC
  5
2E4D
  8
0
 10
481.615052104716483
 20
-10.7926549811111592
 30
0.0
 40
0.0623265497818235
 50
292.085223437705622
 51
313.9549543380061891
  0
ARC
  5
2E4E
  8
0
 10
481.6082112802026245
 20
-10.7757804574308693
 30
0.0
 40
0.0805349655398101
 50
246.3069906980919939
 51
292.0811756850046095
  0
ARC
  5
2E4F
  8
0
 10
481.6007334888038827
 20
-10.7928209904721601
 30
0.0
 40
0.0619259050978465
 50
221.0374994140690035
 51
246.3069906980919939
  0
ARC
  5
2E50
  8
0
 10
481.5826420236573995
 20
-10.8120827679276594
 30
0.0
 40
0.0357319587324041
 50
173.4974701845067955
 51
216.7831099588995016
  0
ARC
  5
2E51
  8
0
 10
481.5866683564648838
 20
-10.8155458791474999
 30
0.0
 40
0.0402354453890804
 50
123.3029751469476025
 51
169.2430807293355883
  0
ARC
  5
2E52
  8
0
 10
481.6075105301413828
 20
-10.8472714660182294
 30
0.0
 40
0.0781947534155439
 50
92.1713122584476707
 51
123.3029751469476025
  0
ARC
  5
2E53
  8
0
 10
481.607668247640504
 20
-10.8514312641636703
 30
0.0
 40
0.0823575403930777
 50
57.7493847118860515
 51
92.1713122584476707
  0
ARC
  5
2E54
  8
0
 10
481.6308525084284042
 20
-10.8146873090761808
 30
0.0
 40
0.0389106971964616
 50
6.9757918606183464
 51
57.7493847118860515
  0
ARC
  5
2E55
  8
0
 10
481.634033489673925
 20
-10.8116485084157592
 30
0.0
 40
0.0354818042957983
 50
313.1779551971212072
 51
2.7250258267158909
  0
LINE
  5
2E56
  8
0
 10
481.6606963816140023
 20
-10.8350589468882692
 30
0.0
 11
481.6897622927559723
 21
-10.8044623661893908
 31
0.0
  0
LINE
  5
2E57
  8
0
 10
481.5540240148965268
 20
-10.8334786191472894
 30
0.0
 11
481.5280948495578741
 21
-10.8065673121183092
 31
0.0
  0
ARC
  5
2E58
  8
0
 10
481.5765556370662921
 20
-10.7681552976646309
 30
0.0
 40
0.0618379396513073
 50
178.1226549256847989
 51
218.4017917746134003
  0
ARC
  5
2E59
  8
0
 10
481.5722420889729847
 20
-10.7680139099813896
 30
0.0
 40
0.057522075006786
 50
136.4234293170059118
 51
178.1226549256847989
  0
ARC
  5
2E5A
  8
0
 10
481.6074701382805188
 20
-10.8015336696863802
 30
0.0
 40
0.1061491225080473
 50
38.0415616902901235
 51
136.4234293170059118
  0
ARC
  5
2E5B
  8
0
 10
481.6517503743315842
 20
-10.7668864015091508
 30
0.0
 40
0.0499248172932415
 50
352.1252314480883001
 51
38.0415616902901235
  0
ARC
  5
2E5C
  8
0
 10
481.6264149263994909
 20
-10.76338218874041
 30
0.0
 40
0.0755014556385329
 50
327.0369666259596215
 51
352.1252314480884138
  0
ARC
  5
2E5D
  8
0
 10
481.6079536607512068
 20
-10.8048323146626402
 30
0.0
 40
0.0258080042944824
 50
231.182059883794409
 51
316.6218246058548971
  0
ARC
  5
2E5E
  8
0
 10
481.5989601741355841
 20
-10.8160107868187794
 30
0.0
 40
0.0114608428591438
 50
145.2658281257135116
 51
231.1820598837946932
  0
ARC
  5
2E5F
  8
0
 10
481.6080711880745184
 20
-10.8262397973412892
 30
0.0
 40
0.0249842217977774
 50
39.4484873683950568
 51
137.8722856512528097
  0
ARC
  5
2E60
  8
0
 10
481.618369153840888
 20
-10.8159977640182099
 30
0.0
 40
0.0106127840966445
 50
321.8224654107009997
 51
32.0549448939311432
  0
ARC
  5
2E61
  8
0
 10
482.0405001419850919
 20
-10.4849506252124094
 30
0.0
 40
0.0623265497818235
 50
292.085223437705622
 51
313.9549543380061891
  0
ARC
  5
2E62
  8
0
 10
482.0336593174711766
 20
-10.4680761015321302
 30
0.0
 40
0.0805349655398101
 50
246.3069906980919939
 51
292.0811756850046095
  0
ARC
  5
2E63
  8
0
 10
482.0261815260724916
 20
-10.4851166345734192
 30
0.0
 40
0.0619259050978465
 50
221.0374994140690035
 51
246.3069906980919939
  0
ARC
  5
2E64
  8
0
 10
482.0080900609261221
 20
-10.5043784120289097
 30
0.0
 40
0.0357319587324041
 50
173.4974701845067955
 51
216.7831099588995016
  0
ARC
  5
2E65
  8
0
 10
482.0121163937336064
 20
-10.5078415232487501
 30
0.0
 40
0.0402354453890804
 50
123.3029751469476025
 51
169.2430807293355883
  0
ARC
  5
2E66
  8
0
 10
482.0329585674099917
 20
-10.5395671101194903
 30
0.0
 40
0.0781947534155439
 50
92.1713122584476707
 51
123.3029751469476025
  0
ARC
  5
2E67
  8
0
 10
482.0331162849092266
 20
-10.5437269082649205
 30
0.0
 40
0.0823575403930777
 50
57.7493847118860515
 51
92.1713122584476707
  0
ARC
  5
2E68
  8
0
 10
482.0563005456970131
 20
-10.5069829531774399
 30
0.0
 40
0.0389106971964616
 50
6.9757918606183464
 51
57.7493847118860515
  0
ARC
  5
2E69
  8
0
 10
482.0594815269425908
 20
-10.5039441525170201
 30
0.0
 40
0.0354818042957983
 50
313.1779551971212072
 51
2.7250258267158909
  0
LINE
  5
2E6A
  8
0
 10
482.0861444188826113
 20
-10.5273545909895301
 30
0.0
 11
482.1152103300245813
 21
-10.4967580102906499
 31
0.0
  0
LINE
  5
2E6B
  8
0
 10
481.9794720521651925
 20
-10.5257742632485503
 30
0.0
 11
481.953542886826483
 21
-10.4988629562195701
 31
0.0
  0
ARC
  5
2E6C
  8
0
 10
482.002003674334901
 20
-10.46045094176589
 30
0.0
 40
0.0618379396513073
 50
178.1226549256847989
 51
218.4017917746134003
  0
ARC
  5
2E6D
  8
0
 10
481.9976901262415936
 20
-10.4603095540826505
 30
0.0
 40
0.057522075006786
 50
136.4234293170059118
 51
178.1226549256847989
  0
ARC
  5
2E6E
  8
0
 10
482.0329181755491277
 20
-10.4938293137876304
 30
0.0
 40
0.1061491225080473
 50
38.0415616902901235
 51
136.4234293170059118
  0
ARC
  5
2E6F
  8
0
 10
482.0771984116001931
 20
-10.4591820456103992
 30
0.0
 40
0.0499248172932415
 50
352.1252314480883001
 51
38.0415616902901235
  0
ARC
  5
2E70
  8
0
 10
482.0518629636682135
 20
-10.4556778328416602
 30
0.0
 40
0.0755014556385329
 50
327.0369666259596215
 51
352.1252314480884138
  0
ARC
  5
2E71
  8
0
 10
482.0334016980198157
 20
-10.4971279587638904
 30
0.0
 40
0.0258080042944824
 50
231.182059883794409
 51
316.6218246058548971
  0
ARC
  5
2E72
  8
0
 10
482.024408211404193
 20
-10.5083064309200402
 30
0.0
 40
0.0114608428591438
 50
145.2658281257135116
 51
231.1820598837946932
  0
ARC
  5
2E73
  8
0
 10
482.0335192253431273
 20
-10.51853544144255
 30
0.0
 40
0.0249842217977774
 50
39.4484873683950568
 51
137.8722856512528097
  0
ARC
  5
2E74
  8
0
 10
482.0438171911094969
 20
-10.5082934081194708
 30
0.0
 40
0.0106127840966445
 50
321.8224654107009997
 51
32.0549448939311432
  0
ARC
  5
2E75
  8
0
 10
482.0414747824138999
 20
-10.0602355194943005
 30
0.0
 40
0.0623265497818235
 50
292.085223437705622
 51
313.9549543380061891
  0
ARC
  5
2E76
  8
0
 10
482.0346339578999277
 20
-10.0433609958140106
 30
0.0
 40
0.0805349655398101
 50
246.3069906980919939
 51
292.0811756850046095
  0
ARC
  5
2E77
  8
0
 10
482.0271561665012996
 20
-10.0604015288552997
 30
0.0
 40
0.0619259050978465
 50
221.0374994140690035
 51
246.3069906980919939
  0
ARC
  5
2E78
  8
0
 10
482.0090647013548164
 20
-10.0796633063108008
 30
0.0
 40
0.0357319587324041
 50
173.4974701845067955
 51
216.7831099588995016
  0
ARC
  5
2E79
  8
0
 10
482.0130910341624144
 20
-10.0831264175306394
 30
0.0
 40
0.0402354453890804
 50
123.3029751469476025
 51
169.2430807293355883
  0
ARC
  5
2E7A
  8
0
 10
482.033933207838686
 20
-10.1148520044013708
 30
0.0
 40
0.0781947534155439
 50
92.1713122584476707
 51
123.3029751469476025
  0
ARC
  5
2E7B
  8
0
 10
482.0340909253379209
 20
-10.1190118025468099
 30
0.0
 40
0.0823575403930777
 50
57.7493847118860515
 51
92.1713122584476707
  0
ARC
  5
2E7C
  8
0
 10
482.0572751861257075
 20
-10.0822678474593204
 30
0.0
 40
0.0389106971964616
 50
6.9757918606183464
 51
57.7493847118860515
  0
ARC
  5
2E7D
  8
0
 10
482.0604561673712851
 20
-10.0792290467989005
 30
0.0
 40
0.0354818042957983
 50
313.1779551971212072
 51
2.7250258267158909
  0
LINE
  5
2E7E
  8
0
 10
482.0871190593114193
 20
-10.1026394852714105
 30
0.0
 11
482.1161849704533893
 21
-10.0720429045725393
 31
0.0
  0
LINE
  5
2E7F
  8
0
 10
481.9804466925938868
 20
-10.1010591575304307
 30
0.0
 11
481.9545175272551774
 21
-10.0741478505014506
 31
0.0
  0
ARC
  5
2E80
  8
0
 10
482.0029783147635953
 20
-10.0357358360477704
 30
0.0
 40
0.0618379396513073
 50
178.1226549256847989
 51
218.4017917746134003
  0
ARC
  5
2E81
  8
0
 10
481.9986647666704016
 20
-10.0355944483645292
 30
0.0
 40
0.057522075006786
 50
136.4234293170059118
 51
178.1226549256847989
  0
ARC
  5
2E82
  8
0
 10
482.033892815977822
 20
-10.0691142080695197
 30
0.0
 40
0.1061491225080473
 50
38.0415616902901235
 51
136.4234293170059118
  0
ARC
  5
2E83
  8
0
 10
482.0781730520288875
 20
-10.0344669398922903
 30
0.0
 40
0.0499248172932415
 50
352.1252314480883001
 51
38.0415616902901235
  0
ARC
  5
2E84
  8
0
 10
482.0528376040969079
 20
-10.0309627271235495
 30
0.0
 40
0.0755014556385329
 50
327.0369666259596215
 51
352.1252314480884138
  0
ARC
  5
2E85
  8
0
 10
482.0343763384486238
 20
-10.0724128530457797
 30
0.0
 40
0.0258080042944824
 50
231.182059883794409
 51
316.6218246058548971
  0
ARC
  5
2E86
  8
0
 10
482.0253828518328874
 20
-10.0835913252019207
 30
0.0
 40
0.0114608428591438
 50
145.2658281257135116
 51
231.1820598837946932
  0
ARC
  5
2E87
  8
0
 10
482.0344938657718785
 20
-10.0938203357244305
 30
0.0
 40
0.0249842217977774
 50
39.4484873683950568
 51
137.8722856512528097
  0
ARC
  5
2E88
  8
0
 10
482.0447918315381912
 20
-10.0835783024013601
 30
0.0
 40
0.0106127840966445
 50
321.8224654107009997
 51
32.0549448939311432
  0
ARC
  5
2E89
  8
0
 10
481.6149757356308214
 20
-9.7701113403156956
 30
0.0
 40
0.0623265497818235
 50
292.085223437705622
 51
313.9549543380061891
  0
ARC
  5
2E8A
  8
0
 10
481.6081349111167924
 20
-9.7532368166354111
 30
0.0
 40
0.0805349655398101
 50
246.3069906980919939
 51
292.0811756850046095
  0
ARC
  5
2E8B
  8
0
 10
481.6006571197182211
 20
-9.7702773496767001
 30
0.0
 40
0.0619259050978465
 50
221.0374994140690035
 51
246.3069906980919939
  0
ARC
  5
2E8C
  8
0
 10
481.5825656545717948
 20
-9.7895391271321976
 30
0.0
 40
0.0357319587324041
 50
173.4974701845067955
 51
216.7831099588995016
  0
ARC
  5
2E8D
  8
0
 10
481.5865919873792791
 20
-9.7930022383520381
 30
0.0
 40
0.0402354453890804
 50
123.3029751469476025
 51
169.2430807293355883
  0
ARC
  5
2E8E
  8
0
 10
481.6074341610557212
 20
-9.8247278252227712
 30
0.0
 40
0.0781947534155439
 50
92.1713122584476707
 51
123.3029751469476025
  0
ARC
  5
2E8F
  8
0
 10
481.6075918785548993
 20
-9.8288876233682068
 30
0.0
 40
0.0823575403930777
 50
57.7493847118860515
 51
92.1713122584476707
  0
ARC
  5
2E90
  8
0
 10
481.6307761393427995
 20
-9.792143668280719
 30
0.0
 40
0.0389106971964616
 50
6.9757918606183464
 51
57.7493847118860515
  0
ARC
  5
2E91
  8
0
 10
481.6339571205883203
 20
-9.7891048676202992
 30
0.0
 40
0.0354818042957983
 50
313.1779551971212072
 51
2.7250258267158909
  0
LINE
  5
2E92
  8
0
 10
481.6606200125283976
 20
-9.8125153060928092
 30
0.0
 11
481.6896859236703108
 21
-9.7819187253939326
 31
0.0
  0
LINE
  5
2E93
  8
0
 10
481.553947645810922
 20
-9.8109349783518294
 30
0.0
 11
481.5280184804723262
 21
-9.7840236713228492
 31
0.0
  0
ARC
  5
2E94
  8
0
 10
481.5764792679805737
 20
-9.7456116568691691
 30
0.0
 40
0.0618379396513073
 50
178.1226549256847989
 51
218.4017917746134003
  0
ARC
  5
2E95
  8
0
 10
481.5721657198873231
 20
-9.7454702691859332
 30
0.0
 40
0.057522075006786
 50
136.4234293170059118
 51
178.1226549256847989
  0
ARC
  5
2E96
  8
0
 10
481.6073937691948004
 20
-9.7789900288909166
 30
0.0
 40
0.1061491225080473
 50
38.0415616902901235
 51
136.4234293170059118
  0
ARC
  5
2E97
  8
0
 10
481.6516740052459795
 20
-9.7443427607136854
 30
0.0
 40
0.0499248172932415
 50
352.1252314480883001
 51
38.0415616902901235
  0
ARC
  5
2E98
  8
0
 10
481.6263385573138862
 20
-9.7408385479449482
 30
0.0
 40
0.0755014556385329
 50
327.0369666259596215
 51
352.1252314480884138
  0
ARC
  5
2E99
  8
0
 10
481.6078772916654884
 20
-9.7822886738671748
 30
0.0
 40
0.0258080042944824
 50
231.182059883794409
 51
316.6218246058548971
  0
ARC
  5
2E9A
  8
0
 10
481.5988838050499226
 20
-9.7934671460233211
 30
0.0
 40
0.0114608428591438
 50
145.2658281257135116
 51
231.1820598837946932
  0
ARC
  5
2E9B
  8
0
 10
481.6079948189889137
 20
-9.8036961565458292
 30
0.0
 40
0.0249842217977774
 50
39.4484873683950568
 51
137.8722856512528097
  0
ARC
  5
2E9C
  8
0
 10
481.6182927847552264
 20
-9.7934541232227534
 30
0.0
 40
0.0106127840966445
 50
321.8224654107009997
 51
32.0549448939311432
  0
ARC
  5
2E9D
  8
0
 10
481.0269610126578073
 20
-9.6878313479062772
 30
0.0
 40
0.0623265497818235
 50
292.085223437705622
 51
313.9549543380061891
  0
ARC
  5
2E9E
  8
0
 10
481.0201201881437783
 20
-9.6709568242259927
 30
0.0
 40
0.0805349655398101
 50
246.3069906980919939
 51
292.0811756850046095
  0
ARC
  5
2E9F
  8
0
 10
481.012642396745207
 20
-9.6879973572672835
 30
0.0
 40
0.0619259050978465
 50
221.0374994140690035
 51
246.3069906980919939
  0
ARC
  5
2EA0
  8
0
 10
480.9945509315987238
 20
-9.7072591347227792
 30
0.0
 40
0.0357319587324041
 50
173.4974701845067955
 51
216.7831099588995016
  0
ARC
  5
2EA1
  8
0
 10
480.9985772644062081
 20
-9.7107222459426197
 30
0.0
 40
0.0402354453890804
 50
123.3029751469476025
 51
169.2430807293355883
  0
ARC
  5
2EA2
  8
0
 10
481.0194194380825934
 20
-9.7424478328133528
 30
0.0
 40
0.0781947534155439
 50
92.1713122584476707
 51
123.3029751469476025
  0
ARC
  5
2EA3
  8
0
 10
481.0195771555818283
 20
-9.7466076309587883
 30
0.0
 40
0.0823575403930777
 50
57.7493847118860515
 51
92.1713122584476707
  0
ARC
  5
2EA4
  8
0
 10
481.0427614163696717
 20
-9.7098636758713006
 30
0.0
 40
0.0389106971964616
 50
6.9757918606183464
 51
57.7493847118860515
  0
ARC
  5
2EA5
  8
0
 10
481.0459423976151925
 20
-9.7068248752108808
 30
0.0
 40
0.0354818042957983
 50
313.1779551971212072
 51
2.7250258267158909
  0
LINE
  5
2EA6
  8
0
 10
481.0726052895553266
 20
-9.7302353136833908
 30
0.0
 11
481.1016712006971829
 21
-9.6996387329845142
 31
0.0
  0
LINE
  5
2EA7
  8
0
 10
480.9659329228377942
 20
-9.7286549859424092
 30
0.0
 11
480.9400037574991984
 21
-9.7017436789134308
 31
0.0
  0
ARC
  5
2EA8
  8
0
 10
480.9884645450075027
 20
-9.6633316644597507
 30
0.0
 40
0.0618379396513073
 50
178.1226549256847989
 51
218.4017917746134003
  0
ARC
  5
2EA9
  8
0
 10
480.9841509969141953
 20
-9.6631902767765148
 30
0.0
 40
0.057522075006786
 50
136.4234293170059118
 51
178.1226549256847989
  0
ARC
  5
2EAA
  8
0
 10
481.0193790462217862
 20
-9.6967100364814982
 30
0.0
 40
0.1061491225080473
 50
38.0415616902901235
 51
136.4234293170059118
  0
ARC
  5
2EAB
  8
0
 10
481.0636592822729085
 20
-9.662062768304267
 30
0.0
 40
0.0499248172932415
 50
352.1252314480883001
 51
38.0415616902901235
  0
ARC
  5
2EAC
  8
0
 10
481.0383238343408152
 20
-9.6585585555355298
 30
0.0
 40
0.0755014556385329
 50
327.0369666259596215
 51
352.1252314480884138
  0
ARC
  5
2EAD
  8
0
 10
481.0198625686924743
 20
-9.7000086814577564
 30
0.0
 40
0.0258080042944824
 50
231.182059883794409
 51
316.6218246058548971
  0
ARC
  5
2EAE
  8
0
 10
481.0108690820767947
 20
-9.7111871536139027
 30
0.0
 40
0.0114608428591438
 50
145.2658281257135116
 51
231.1820598837946932
  0
ARC
  5
2EAF
  8
0
 10
481.0199800960157859
 20
-9.7214161641364125
 30
0.0
 40
0.0249842217977774
 50
39.4484873683950568
 51
137.8722856512528097
  0
ARC
  5
2EB0
  8
0
 10
481.0302780617822123
 20
-9.711174130813335
 30
0.0
 40
0.0106127840966445
 50
321.8224654107009997
 51
32.0549448939311432
  0
ARC
  5
2EB1
  8
0
 10
481.1019905685233766
 20
-9.2500858946075457
 30
0.0
 40
0.0623265497818235
 50
292.085223437705622
 51
313.9549543380061891
  0
ARC
  5
2EB2
  8
0
 10
481.0951497440094045
 20
-9.2332113709272612
 30
0.0
 40
0.0805349655398101
 50
246.3069906980919939
 51
292.0811756850046095
  0
ARC
  5
2EB3
  8
0
 10
481.0876719526107763
 20
-9.250251903968552
 30
0.0
 40
0.0619259050978465
 50
221.0374994140690035
 51
246.3069906980919939
  0
ARC
  5
2EB4
  8
0
 10
481.0695804874644068
 20
-9.2695136814240477
 30
0.0
 40
0.0357319587324041
 50
173.4974701845067955
 51
216.7831099588995016
  0
ARC
  5
2EB5
  8
0
 10
481.0736068202718911
 20
-9.2729767926438882
 30
0.0
 40
0.0402354453890804
 50
123.3029751469476025
 51
169.2430807293355883
  0
ARC
  5
2EB6
  8
0
 10
481.0944489939481059
 20
-9.3047023795146213
 30
0.0
 40
0.0781947534155439
 50
92.1713122584476707
 51
123.3029751469476025
  0
ARC
  5
2EB7
  8
0
 10
481.0946067114473976
 20
-9.3088621776600569
 30
0.0
 40
0.0823575403930777
 50
57.7493847118860515
 51
92.1713122584476707
  0
ARC
  5
2EB8
  8
0
 10
481.1177909722352979
 20
-9.2721182225725691
 30
0.0
 40
0.0389106971964616
 50
6.9757918606183464
 51
57.7493847118860515
  0
ARC
  5
2EB9
  8
0
 10
481.1209719534808187
 20
-9.2690794219121493
 30
0.0
 40
0.0354818042957983
 50
313.1779551971212072
 51
2.7250258267158909
  0
LINE
  5
2EBA
  8
0
 10
481.147634845420896
 20
-9.2924898603846593
 30
0.0
 11
481.1767007565628091
 21
-9.2618932796857827
 31
0.0
  0
LINE
  5
2EBB
  8
0
 10
481.0409624787034204
 20
-9.2909095326436795
 30
0.0
 11
481.0150333133647109
 21
-9.2639982256146993
 31
0.0
  0
ARC
  5
2EBC
  8
0
 10
481.0634941008730721
 20
-9.2255862111610192
 30
0.0
 40
0.0618379396513073
 50
178.1226549256847989
 51
218.4017917746134003
  0
ARC
  5
2EBD
  8
0
 10
481.0591805527798215
 20
-9.2254448234777833
 30
0.0
 40
0.057522075006786
 50
136.4234293170059118
 51
178.1226549256847989
  0
ARC
  5
2EBE
  8
0
 10
481.0944086020874124
 20
-9.2589645831827667
 30
0.0
 40
0.1061491225080473
 50
38.0415616902901235
 51
136.4234293170059118
  0
ARC
  5
2EBF
  8
0
 10
481.1386888381384779
 20
-9.2243173150055355
 30
0.0
 40
0.0499248172932415
 50
352.1252314480883001
 51
38.0415616902901235
  0
ARC
  5
2EC0
  8
0
 10
481.1133533902063846
 20
-9.2208131022367983
 30
0.0
 40
0.0755014556385329
 50
327.0369666259596215
 51
352.1252314480884138
  0
ARC
  5
2EC1
  8
0
 10
481.0948921245579868
 20
-9.2622632281590231
 30
0.0
 40
0.0258080042944824
 50
231.182059883794409
 51
316.6218246058548971
  0
ARC
  5
2EC2
  8
0
 10
481.0858986379424209
 20
-9.2734417003151712
 30
0.0
 40
0.0114608428591438
 50
145.2658281257135116
 51
231.1820598837946932
  0
ARC
  5
2EC3
  8
0
 10
481.0950096518814121
 20
-9.283670710837681
 30
0.0
 40
0.0249842217977774
 50
39.4484873683950568
 51
137.8722856512528097
  0
ARC
  5
2EC4
  8
0
 10
481.1053076176476111
 20
-9.2734286775146035
 30
0.0
 40
0.0106127840966445
 50
321.8224654107009997
 51
32.0549448939311432
  0
ARC
  5
2EC5
  8
0
 10
481.7174031015102855
 20
-9.3283000053544161
 30
0.0
 40
0.0623265497818235
 50
292.085223437705622
 51
313.9549543380061891
  0
ARC
  5
2EC6
  8
0
 10
481.710562276996427
 20
-9.3114254816741315
 30
0.0
 40
0.0805349655398101
 50
246.3069906980919939
 51
292.0811756850046095
  0
ARC
  5
2EC7
  8
0
 10
481.7030844855976852
 20
-9.3284660147154224
 30
0.0
 40
0.0619259050978465
 50
221.0374994140690035
 51
246.3069906980919939
  0
ARC
  5
2EC8
  8
0
 10
481.684993020451202
 20
-9.3477277921709181
 30
0.0
 40
0.0357319587324041
 50
173.4974701845067955
 51
216.7831099588995016
  0
ARC
  5
2EC9
  8
0
 10
481.6890193532588
 20
-9.3511909033907585
 30
0.0
 40
0.0402354453890804
 50
123.3029751469476025
 51
169.2430807293355883
  0
ARC
  5
2ECA
  8
0
 10
481.7098615269350717
 20
-9.3829164902614917
 30
0.0
 40
0.0781947534155439
 50
92.1713122584476707
 51
123.3029751469476025
  0
ARC
  5
2ECB
  8
0
 10
481.7100192444343065
 20
-9.3870762884069272
 30
0.0
 40
0.0823575403930777
 50
57.7493847118860515
 51
92.1713122584476707
  0
ARC
  5
2ECC
  8
0
 10
481.7332035052222068
 20
-9.3503323333194395
 30
0.0
 40
0.0389106971964616
 50
6.9757918606183464
 51
57.7493847118860515
  0
ARC
  5
2ECD
  8
0
 10
481.7363844864677844
 20
-9.3472935326590196
 30
0.0
 40
0.0354818042957983
 50
313.1779551971212072
 51
2.7250258267158909
  0
LINE
  5
2ECE
  8
0
 10
481.7630473784078049
 20
-9.3707039711315296
 30
0.0
 11
481.7921132895497749
 21
-9.340107390432653
 31
0.0
  0
LINE
  5
2ECF
  8
0
 10
481.6563750116903861
 20
-9.3691236433905498
 30
0.0
 11
481.6304458463516767
 21
-9.3422123363615697
 31
0.0
  0
ARC
  5
2ED0
  8
0
 10
481.6789066338600946
 20
-9.3038003219078895
 30
0.0
 40
0.0618379396513073
 50
178.1226549256847989
 51
218.4017917746134003
  0
ARC
  5
2ED1
  8
0
 10
481.6745930857667872
 20
-9.3036589342246536
 30
0.0
 40
0.057522075006786
 50
136.4234293170059118
 51
178.1226549256847989
  0
ARC
  5
2ED2
  8
0
 10
481.7098211350743213
 20
-9.3371786939296371
 30
0.0
 40
0.1061491225080473
 50
38.0415616902901235
 51
136.4234293170059118
  0
ARC
  5
2ED3
  8
0
 10
481.7541013711253868
 20
-9.3025314257524059
 30
0.0
 40
0.0499248172932415
 50
352.1252314480883001
 51
38.0415616902901235
  0
ARC
  5
2ED4
  8
0
 10
481.7287659231932935
 20
-9.2990272129836686
 30
0.0
 40
0.0755014556385329
 50
327.0369666259596215
 51
352.1252314480884138
  0
ARC
  5
2ED5
  8
0
 10
481.7103046575450094
 20
-9.3404773389058953
 30
0.0
 40
0.0258080042944824
 50
231.182059883794409
 51
316.6218246058548971
  0
ARC
  5
2ED6
  8
0
 10
481.701311170929273
 20
-9.3516558110620416
 30
0.0
 40
0.0114608428591438
 50
145.2658281257135116
 51
231.1820598837946932
  0
ARC
  5
2ED7
  8
0
 10
481.710422184868321
 20
-9.3618848215845514
 30
0.0
 40
0.0249842217977774
 50
39.4484873683950568
 51
137.8722856512528097
  0
ARC
  5
2ED8
  8
0
 10
481.7207201506346905
 20
-9.3516427882614739
 30
0.0
 40
0.0106127840966445
 50
321.8224654107009997
 51
32.0549448939311432
  0
ARC
  5
2ED9
  8
0
 10
482.4366496868914851
 20
-9.0647603173914906
 30
0.0
 40
0.0623265497818235
 50
292.085223437705622
 51
313.9549543380061891
  0
ARC
  5
2EDA
  8
0
 10
482.4298088623775129
 20
-9.047885793711206
 30
0.0
 40
0.0805349655398101
 50
246.3069906980919939
 51
292.0811756850046095
  0
ARC
  5
2EDB
  8
0
 10
482.4223310709788848
 20
-9.0649263267524969
 30
0.0
 40
0.0619259050978465
 50
221.0374994140690035
 51
246.3069906980919939
  0
ARC
  5
2EDC
  8
0
 10
482.4042396058324016
 20
-9.0841881042079926
 30
0.0
 40
0.0357319587324041
 50
173.4974701845067955
 51
216.7831099588995016
  0
ARC
  5
2EDD
  8
0
 10
482.4082659386398859
 20
-9.0876512154278331
 30
0.0
 40
0.0402354453890804
 50
123.3029751469476025
 51
169.2430807293355883
  0
ARC
  5
2EDE
  8
0
 10
482.4291081123162144
 20
-9.1193768022985662
 30
0.0
 40
0.0781947534155439
 50
92.1713122584476707
 51
123.3029751469476025
  0
ARC
  5
2EDF
  8
0
 10
482.4292658298155061
 20
-9.1235366004440017
 30
0.0
 40
0.0823575403930777
 50
57.7493847118860515
 51
92.1713122584476707
  0
ARC
  5
2EE0
  8
0
 10
482.4524500906034064
 20
-9.0867926453565122
 30
0.0
 40
0.0389106971964616
 50
6.9757918606183464
 51
57.7493847118860515
  0
ARC
  5
2EE1
  8
0
 10
482.4556310718488135
 20
-9.0837538446960941
 30
0.0
 40
0.0354818042957983
 50
313.1779551971212072
 51
2.7250258267158909
  0
LINE
  5
2EE2
  8
0
 10
482.4822939637890045
 20
-9.1071642831686042
 30
0.0
 11
482.5113598749309176
 21
-9.0765677024697275
 31
0.0
  0
LINE
  5
2EE3
  8
0
 10
482.3756215970714152
 20
-9.1055839554276243
 30
0.0
 11
482.3496924317328194
 21
-9.0786726483986442
 31
0.0
  0
ARC
  5
2EE4
  8
0
 10
482.3981532192411237
 20
-9.040260633944964
 30
0.0
 40
0.0618379396513073
 50
178.1226549256847989
 51
218.4017917746134003
  0
ARC
  5
2EE5
  8
0
 10
482.3938396711478731
 20
-9.0401192462617281
 30
0.0
 40
0.057522075006786
 50
136.4234293170059118
 51
178.1226549256847989
  0
ARC
  5
2EE6
  8
0
 10
482.4290677204554072
 20
-9.0736390059667116
 30
0.0
 40
0.1061491225080473
 50
38.0415616902901235
 51
136.4234293170059118
  0
ARC
  5
2EE7
  8
0
 10
482.4733479565064727
 20
-9.0389917377894804
 30
0.0
 40
0.0499248172932415
 50
352.1252314480883001
 51
38.0415616902901235
  0
ARC
  5
2EE8
  8
0
 10
482.4480125085743794
 20
-9.0354875250207431
 30
0.0
 40
0.0755014556385329
 50
327.0369666259596215
 51
352.1252314480884138
  0
ARC
  5
2EE9
  8
0
 10
482.4295512429260953
 20
-9.0769376509429698
 30
0.0
 40
0.0258080042944824
 50
231.182059883794409
 51
316.6218246058548971
  0
ARC
  5
2EEA
  8
0
 10
482.4205577563104157
 20
-9.0881161230991161
 30
0.0
 40
0.0114608428591438
 50
145.2658281257135116
 51
231.1820598837946932
  0
ARC
  5
2EEB
  8
0
 10
482.4296687702494069
 20
-9.0983451336216241
 30
0.0
 40
0.0249842217977774
 50
39.4484873683950568
 51
137.8722856512528097
  0
ARC
  5
2EEC
  8
0
 10
482.4399667360157196
 20
-9.0881031002985484
 30
0.0
 40
0.0106127840966445
 50
321.8224654107009997
 51
32.0549448939311432
  0
ARC
  5
2EED
  8
0
 10
481.8250705615743072
 20
-8.8899509215951813
 30
0.0
 40
0.0623265497818235
 50
292.085223437705622
 51
313.9549543380061891
  0
ARC
  5
2EEE
  8
0
 10
481.8182297370602782
 20
-8.8730763979148968
 30
0.0
 40
0.0805349655398101
 50
246.3069906980919939
 51
292.0811756850046095
  0
ARC
  5
2EEF
  8
0
 10
481.8107519456617069
 20
-8.8901169309561876
 30
0.0
 40
0.0619259050978465
 50
221.0374994140690035
 51
246.3069906980919939
  0
ARC
  5
2EF0
  8
0
 10
481.7926604805152806
 20
-8.9093787084116833
 30
0.0
 40
0.0357319587324041
 50
173.4974701845067955
 51
216.7831099588995016
  0
ARC
  5
2EF1
  8
0
 10
481.7966868133228218
 20
-8.9128418196315238
 30
0.0
 40
0.0402354453890804
 50
123.3029751469476025
 51
169.2430807293355883
  0
ARC
  5
2EF2
  8
0
 10
481.8175289869992071
 20
-8.9445674065022551
 30
0.0
 40
0.0781947534155439
 50
92.1713122584476707
 51
123.3029751469476025
  0
ARC
  5
2EF3
  8
0
 10
481.8176867044983851
 20
-8.9487272046476924
 30
0.0
 40
0.0823575403930777
 50
57.7493847118860515
 51
92.1713122584476707
  0
ARC
  5
2EF4
  8
0
 10
481.8408709652862854
 20
-8.9119832495602047
 30
0.0
 40
0.0389106971964616
 50
6.9757918606183464
 51
57.7493847118860515
  0
ARC
  5
2EF5
  8
0
 10
481.8440519465318062
 20
-8.9089444488997849
 30
0.0
 40
0.0354818042957983
 50
313.1779551971212072
 51
2.7250258267158909
  0
LINE
  5
2EF6
  8
0
 10
481.8707148384718266
 20
-8.9323548873722949
 30
0.0
 11
481.8997807496137966
 21
-8.9017583066734183
 31
0.0
  0
LINE
  5
2EF7
  8
0
 10
481.7640424717544079
 20
-8.9307745596313151
 30
0.0
 11
481.7381133064158121
 21
-8.9038632526023331
 31
0.0
  0
ARC
  5
2EF8
  8
0
 10
481.7865740939240027
 20
-8.8654512381486548
 30
0.0
 40
0.0618379396513073
 50
178.1226549256847989
 51
218.4017917746134003
  0
ARC
  5
2EF9
  8
0
 10
481.782260545830809
 20
-8.8653098504654189
 30
0.0
 40
0.057522075006786
 50
136.4234293170059118
 51
178.1226549256847989
  0
ARC
  5
2EFA
  8
0
 10
481.8174885951382862
 20
-8.8988296101704023
 30
0.0
 40
0.1061491225080473
 50
38.0415616902901235
 51
136.4234293170059118
  0
ARC
  5
2EFB
  8
0
 10
481.8617688311895222
 20
-8.8641823419931711
 30
0.0
 40
0.0499248172932415
 50
352.1252314480883001
 51
38.0415616902901235
  0
ARC
  5
2EFC
  8
0
 10
481.8364333832573152
 20
-8.8606781292244339
 30
0.0
 40
0.0755014556385329
 50
327.0369666259596215
 51
352.1252314480884138
  0
ARC
  5
2EFD
  8
0
 10
481.8179721176090879
 20
-8.9021282551466605
 30
0.0
 40
0.0258080042944824
 50
231.182059883794409
 51
316.6218246058548971
  0
ARC
  5
2EFE
  8
0
 10
481.8089786309934084
 20
-8.9133067273028068
 30
0.0
 40
0.0114608428591438
 50
145.2658281257135116
 51
231.1820598837946932
  0
ARC
  5
2EFF
  8
0
 10
481.8180896449323996
 20
-8.9235357378253166
 30
0.0
 40
0.0249842217977774
 50
39.4484873683950568
 51
137.8722856512528097
  0
ARC
  5
2F00
  8
0
 10
481.8283876106987123
 20
-8.9132937045022391
 30
0.0
 40
0.0106127840966445
 50
321.8224654107009997
 51
32.0549448939311432
  0
ARC
  5
2F01
  8
0
 10
481.1346250013997974
 20
-8.8094400504740182
 30
0.0
 40
0.0623265497818235
 50
292.085223437705622
 51
313.9549543380061891
  0
ARC
  5
2F02
  8
0
 10
481.1277841768858252
 20
-8.7925655267937337
 30
0.0
 40
0.0805349655398101
 50
246.3069906980919939
 51
292.0811756850046095
  0
ARC
  5
2F03
  8
0
 10
481.1203063854871971
 20
-8.8096060598350245
 30
0.0
 40
0.0619259050978465
 50
221.0374994140690035
 51
246.3069906980919939
  0
ARC
  5
2F04
  8
0
 10
481.1022149203408276
 20
-8.8288678372905203
 30
0.0
 40
0.0357319587324041
 50
173.4974701845067955
 51
216.7831099588995016
  0
ARC
  5
2F05
  8
0
 10
481.1062412531481982
 20
-8.8323309485103607
 30
0.0
 40
0.0402354453890804
 50
123.3029751469476025
 51
169.2430807293355883
  0
ARC
  5
2F06
  8
0
 10
481.1270834268245267
 20
-8.8640565353810938
 30
0.0
 40
0.0781947534155439
 50
92.1713122584476707
 51
123.3029751469476025
  0
ARC
  5
2F07
  8
0
 10
481.1272411443238184
 20
-8.8682163335265294
 30
0.0
 40
0.0823575403930777
 50
57.7493847118860515
 51
92.1713122584476707
  0
ARC
  5
2F08
  8
0
 10
481.1504254051117186
 20
-8.8314723784390416
 30
0.0
 40
0.0389106971964616
 50
6.9757918606183464
 51
57.7493847118860515
  0
ARC
  5
2F09
  8
0
 10
481.1536063863571258
 20
-8.8284335777786218
 30
0.0
 40
0.0354818042957983
 50
313.1779551971212072
 51
2.7250258267158909
  0
LINE
  5
2F0A
  8
0
 10
481.1802692782973168
 20
-8.8518440162511318
 30
0.0
 11
481.2093351894391731
 21
-8.8212474355522552
 31
0.0
  0
LINE
  5
2F0B
  8
0
 10
481.0735969115797275
 20
-8.8502636885101502
 30
0.0
 11
481.0476677462410748
 21
-8.8233523814811718
 31
0.0
  0
ARC
  5
2F0C
  8
0
 10
481.0961285337493791
 20
-8.7849403670274917
 30
0.0
 40
0.0618379396513073
 50
178.1226549256847989
 51
218.4017917746134003
  0
ARC
  5
2F0D
  8
0
 10
481.0918149856561854
 20
-8.7847989793442558
 30
0.0
 40
0.057522075006786
 50
136.4234293170059118
 51
178.1226549256847989
  0
ARC
  5
2F0E
  8
0
 10
481.1270430349637195
 20
-8.8183187390492392
 30
0.0
 40
0.1061491225080473
 50
38.0415616902901235
 51
136.4234293170059118
  0
ARC
  5
2F0F
  8
0
 10
481.171323271014785
 20
-8.7836714708720081
 30
0.0
 40
0.0499248172932415
 50
352.1252314480883001
 51
38.0415616902901235
  0
ARC
  5
2F10
  8
0
 10
481.1459878230826916
 20
-8.7801672581032708
 30
0.0
 40
0.0755014556385329
 50
327.0369666259596215
 51
352.1252314480884138
  0
ARC
  5
2F11
  8
0
 10
481.1275265574344076
 20
-8.8216173840254974
 30
0.0
 40
0.0258080042944824
 50
231.182059883794409
 51
316.6218246058548971
  0
ARC
  5
2F12
  8
0
 10
481.118533070818728
 20
-8.8327958561816438
 30
0.0
 40
0.0114608428591438
 50
145.2658281257135116
 51
231.1820598837946932
  0
ARC
  5
2F13
  8
0
 10
481.1276440847577192
 20
-8.8430248667041536
 30
0.0
 40
0.0249842217977774
 50
39.4484873683950568
 51
137.8722856512528097
  0
ARC
  5
2F14
  8
0
 10
481.137942050523975
 20
-8.8327828333810761
 30
0.0
 40
0.0106127840966445
 50
321.8224654107009997
 51
32.0549448939311432
  0
ARC
  5
2F15
  8
0
 10
480.394806026278502
 20
-8.786955341949481
 30
0.0
 40
0.0623265497818235
 50
292.085223437705622
 51
313.9549543380061891
  0
ARC
  5
2F16
  8
0
 10
480.387965201764473
 20
-8.7700808182691965
 30
0.0
 40
0.0805349655398101
 50
246.3069906980919939
 51
292.0811756850046095
  0
ARC
  5
2F17
  8
0
 10
480.3804874103659017
 20
-8.7871213513104873
 30
0.0
 40
0.0619259050978465
 50
221.0374994140690035
 51
246.3069906980919939
  0
ARC
  5
2F18
  8
0
 10
480.3623959452194754
 20
-8.8063831287659831
 30
0.0
 40
0.0357319587324041
 50
173.4974701845067955
 51
216.7831099588995016
  0
ARC
  5
2F19
  8
0
 10
480.3664222780269029
 20
-8.8098462399858235
 30
0.0
 40
0.0402354453890804
 50
123.3029751469476025
 51
169.2430807293355883
  0
ARC
  5
2F1A
  8
0
 10
480.3872644517032882
 20
-8.8415718268565566
 30
0.0
 40
0.0781947534155439
 50
92.1713122584476707
 51
123.3029751469476025
  0
ARC
  5
2F1B
  8
0
 10
480.3874221692025799
 20
-8.8457316250019922
 30
0.0
 40
0.0823575403930777
 50
57.7493847118860515
 51
92.1713122584476707
  0
ARC
  5
2F1C
  8
0
 10
480.4106064299904233
 20
-8.8089876699145044
 30
0.0
 40
0.0389106971964616
 50
6.9757918606183464
 51
57.7493847118860515
  0
ARC
  5
2F1D
  8
0
 10
480.4137874112358872
 20
-8.8059488692540846
 30
0.0
 40
0.0354818042957983
 50
313.1779551971212072
 51
2.725025826715687
  0
LINE
  5
2F1E
  8
0
 10
480.4404503031760214
 20
-8.8293593077265946
 30
0.0
 11
480.4695162143179914
 21
-8.798762727027718
 31
0.0
  0
LINE
  5
2F1F
  8
0
 10
480.333777936458489
 20
-8.8277789799856148
 30
0.0
 11
480.3078487711197795
 21
-8.8008676729566346
 31
0.0
  0
ARC
  5
2F20
  8
0
 10
480.3563095586281975
 20
-8.7624556585029545
 30
0.0
 40
0.0618379396513073
 50
178.1226549256847989
 51
218.4017917746134003
  0
ARC
  5
2F21
  8
0
 10
480.3519960105350037
 20
-8.7623142708197186
 30
0.0
 40
0.057522075006786
 50
136.4234293170059118
 51
178.1226549256847989
  0
ARC
  5
2F22
  8
0
 10
480.3872240598424241
 20
-8.795834030524702
 30
0.0
 40
0.1061491225080473
 50
38.0415616902901235
 51
136.4234293170059118
  0
ARC
  5
2F23
  8
0
 10
480.4315042958934896
 20
-8.7611867623474708
 30
0.0
 40
0.0499248172932415
 50
352.1252314480883001
 51
38.0415616902901235
  0
ARC
  5
2F24
  8
0
 10
480.40616884796151
 20
-8.7576825495787354
 30
0.0
 40
0.0755014556385329
 50
327.0369666259596215
 51
352.1252314480884138
  0
ARC
  5
2F25
  8
0
 10
480.3877075823131122
 20
-8.7991326755009602
 30
0.0
 40
0.0258080042944824
 50
231.182059883794409
 51
316.6218246058548971
  0
ARC
  5
2F26
  8
0
 10
480.3787140956974895
 20
-8.8103111476571065
 30
0.0
 40
0.0114608428591438
 50
145.2658281257135116
 51
231.1820598837946932
  0
ARC
  5
2F27
  8
0
 10
480.3878251096364806
 20
-8.8205401581796163
 30
0.0
 40
0.0249842217977774
 50
39.4484873683950568
 51
137.8722856512528097
  0
ARC
  5
2F28
  8
0
 10
480.3981230754027933
 20
-8.8102981248565388
 30
0.0
 40
0.0106127840966445
 50
321.8224654107009997
 51
32.0549448939311432
  0
LINE
  5
2F29
  8
0
 10
480.0077125309218218
 20
-9.8686017065162837
 30
0.0
 11
480.0077125309218218
 21
-9.5142002276854907
 31
0.0
  0
ARC
  5
2F2A
  8
0
 10
479.9959120626011781
 20
-8.8310268795713114
 30
0.0
 40
1.047803826322145
 50
271.203663616621327
 51
281.1081529912605106
  0
ARC
  5
2F2B
  8
0
 10
480.0346701154202265
 20
-9.0284296360305607
 30
0.0
 40
0.8466321709727255
 50
281.1081529912605106
 51
303.4204553969570952
  0
ARC
  5
2F2C
  8
0
 10
480.2541056087704874
 20
-9.3609626415267702
 30
0.0
 40
0.4482226636987951
 50
303.4204553969570952
 51
330.9860025957589755
  0
ARC
  5
2F2D
  8
0
 10
480.3698545103840161
 20
-9.4251602764600673
 30
0.0
 40
0.3158627583053501
 50
330.986002595758805
 51
11.4844245697580192
  0
ARC
  5
2F2E
  8
0
 10
480.3328607974978013
 20
-9.4433435491979463
 30
0.0
 40
0.3558896968606509
 50
13.1676429188604001
 51
40.3455692799552708
  0
ARC
  5
2F2F
  8
0
 10
481.0136591965464845
 20
-11.6209858032913402
 30
0.0
 40
2.447711623187518
 50
99.960135093917529
 51
107.0757889767162965
  0
LINE
  5
2F30
  8
0
 10
480.2895076642095091
 20
-9.2875998357325251
 30
0.0
 11
480.2879961761761933
 21
-9.1947996068469813
 31
0.0
  0
ARC
  5
2F31
  8
0
 10
480.1702171459610895
 20
-9.3904423759304478
 30
0.0
 40
0.1553051916834923
 50
10.7879389371908907
 51
38.5445205661070815
  0
ARC
  5
2F32
  8
0
 10
480.186761135198708
 20
-9.3872900503796082
 30
0.0
 40
0.1384635547003341
 50
329.4099055829652798
 51
10.7879389371908907
  0
ARC
  5
2F33
  8
0
 10
480.1026761922828996
 20
-9.3375819731393062
 30
0.0
 40
0.2361424703786157
 50
299.6532498261606747
 51
329.4099055829652798
  0
ARC
  5
2F34
  8
0
 10
480.0072948094968979
 20
-9.1700431170482855
 30
0.0
 40
0.4289295977560709
 50
271.2799232980955821
 51
299.6532498261606747
  0
ARC
  5
2F35
  8
0
 10
480.0171176523808754
 20
-9.6096896328952024
 30
0.0
 40
0.0108266382868723
 50
91.2799232980923421
 51
150.3081427630756934
  0
ARC
  5
2F36
  8
0
 10
479.9897913929220863
 20
-8.9596064500050296
 30
0.0
 40
0.5548832538733601
 50
270.8172916873576241
 51
274.3359642252491994
  0
ARC
  5
2F37
  8
0
 10
479.9886855400116019
 20
-9.0150350309399343
 30
0.0
 40
0.4997249598825827
 50
274.9428821571651156
 51
287.9004243885295864
  0
ARC
  5
2F38
  8
0
 10
480.0499179381839099
 20
-9.2046093835281102
 30
0.0
 40
0.3005068840331451
 50
287.9004243885295864
 51
311.6125599231223191
  0
ARC
  5
2F39
  8
0
 10
480.1268642767748815
 20
-9.2912378739632917
 30
0.0
 40
0.1846395703608406
 50
311.6125599231223191
 51
350.744414307429679
  0
ARC
  5
2F3A
  8
0
 10
481.0327872483791225
 20
-11.6427475262148192
 30
0.0
 40
2.5587424171202668
 50
100.2761553308043005
 51
107.0540337980159933
  0
ARC
  5
2F3B
  8
0
 10
480.2794433368894147
 20
-9.1869562980087078
 30
0.0
 40
0.01
 50
228.3583834005854101
 51
287.0540337980160075
  0
ARC
  5
2F3C
  8
0
 10
480.5745196250366007
 20
-9.1150845506565386
 30
0.0
 40
0.010126854098525
 50
280.2761553308076259
 51
5.7170433093261357
  0
LINE
  5
2F3D
  8
0
 10
480.5845961079816107
 20
-9.1140757566283117
 30
0.0
 11
480.5850228544861125
 21
-9.0892948670762088
 31
0.0
  0
ARC
  5
2F3E
  8
0
 10
479.9946702520820168
 20
-9.9862132021099654
 30
0.0
 40
1.100820359562144
 50
84.1094363587773728
 51
89.8419830519964648
  0
ARC
  5
2F3F
  8
0
 10
479.9994283164792819
 20
-9.9400960830121221
 30
0.0
 40
1.05445843713982
 50
75.5409144527806689
 51
84.1094363587773728
  0
ARC
  5
2F40
  8
0
 10
480.0526200750070984
 20
-9.7338112385138942
 30
0.0
 40
0.8414260446617547
 50
60.1530535962103485
 51
75.5409144527806973
  0
ARC
  5
2F41
  8
0
 10
480.1831554534750239
 20
-9.5063160530656674
 30
0.0
 40
0.5791408097858941
 50
44.262221456704367
 51
60.1530535962132191
  0
ARC
  5
2F42
  8
0
 10
480.3071856747287143
 20
-9.3854395874179382
 30
0.0
 40
0.4059512727700933
 50
24.5525855951154099
 51
44.262221456704367
  0
ARC
  5
2F43
  8
0
 10
480.4100952230434132
 20
-9.3384268911216122
 30
0.0
 40
0.2928116742760712
 50
340.1193153759019765
 51
24.5525855951154099
  0
ARC
  5
2F44
  8
0
 10
480.5952085655466135
 20
-9.2214546477570156
 30
0.0
 40
0.012311991174508
 50
43.7423716690785582
 51
113.517018509330498
  0
LINE
  5
2F45
  8
0
 10
480.5976620783994804
 20
-9.2093895990061014
 30
0.0
 11
480.5976620783994804
 21
-9.1018555043675722
 31
0.0
  0
ARC
  5
2F46
  8
0
 10
480.2995063380524812
 20
-9.2874369818684368
 30
0.0
 40
0.01
 50
180.933125158351686
 51
218.5445205660597026
  0
ARC
  5
2F47
  8
0
 10
480.296934085063981
 20
-9.2884800628312298
 30
0.0
 40
0.0075759507161718
 50
105.4025073197818045
 51
168.9587289926747076
  0
ARC
  5
2F48
  8
0
 10
480.0283816490368736
 20
-9.4693205214331861
 30
0.0
 40
0.3678379623295856
 50
48.3583834005859075
 51
79.1280542620765743
  0
ARC
  5
2F49
  8
0
 10
479.9902906833747807
 20
-9.667647029407302
 30
0.0
 40
0.569789257027801
 50
79.1280542620765743
 51
89.2543017512739283
  0
ARC
  5
2F4A
  8
0
 10
479.9904059922432111
 20
-9.6035859007503852
 30
0.0
 40
0.5008255270907451
 50
75.133223819299829
 51
89.1648050366826652
  0
ARC
  5
2F4B
  8
0
 10
480.024257758285728
 20
-9.4686589899388949
 30
0.0
 40
0.3617348533387724
 50
57.9284849580545114
 51
74.8322877900882304
  0
ARC
  5
2F4C
  8
0
 10
480.0938404729450895
 20
-9.3576120361207948
 30
0.0
 40
0.2306883725327524
 50
32.3916281260755383
 51
57.9284849580545114
  0
ARC
  5
2F4D
  8
0
 10
480.017712530921699
 20
-9.8686017065162837
 30
0.0
 40
0.01
 50
180.0000000000023874
 51
271.2036636166114931
  0
ARC
  5
2F4E
  8
0
 10
480.3232213567974895
 20
-11.2942007960108093
 30
0.0
 40
0.1326854339181073
 50
278.2400256255324962
 51
333.5378201602061949
  0
ARC
  5
2F4F
  8
0
 10
480.3147569558731789
 20
-11.2357511880965006
 30
0.0
 40
0.1917447494266845
 50
239.082732995955098
 51
278.2400256255324962
  0
ARC
  5
2F50
  8
0
 10
480.2753512447752087
 20
-11.3138208705721297
 30
0.0
 40
0.1047113651854516
 50
201.5371874033754978
 51
235.6303401446905923
  0
ARC
  5
2F51
  8
0
 10
480.26136426217289
 20
-11.3250217430059106
 30
0.0
 40
0.0877483115923154
 50
147.2755111224336986
 51
198.0847945521119868
  0
ARC
  5
2F52
  8
0
 10
480.2991820589763279
 20
-11.3601471098616198
 30
0.0
 40
0.1388513407029051
 50
96.9035762101707263
 51
143.5153173646905032
  0
ARC
  5
2F53
  8
0
 10
480.3104405442674079
 20
-11.3923123716303891
 30
0.0
 40
0.1722918268282115
 50
62.3451664303460902
 51
99.3354631296466124
  0
ARC
  5
2F54
  8
0
 10
480.3422473251573024
 20
-11.3357153898126697
 30
0.0
 40
0.1074144481753097
 50
17.3022125131107813
 51
63.3608406935659829
  0
ARC
  5
2F55
  8
0
 10
480.353168272577193
 20
-11.3234566408280397
 30
0.0
 40
0.0937240259558395
 50
341.4157631889852951
 51
12.1258060991153993
  0
ARC
  5
2F56
  8
0
 10
480.3409591487634884
 20
-11.2967194352777298
 30
0.0
 40
0.1089447411252005
 50
301.4088920877929922
 51
346.4775985106620055
  0
ARC
  5
2F57
  8
0
 10
480.3100563154164888
 20
-11.2461101306494502
 30
0.0
 40
0.168243027979289
 50
245.4719613113803121
 51
301.4088920877929922
  0
ARC
  5
2F58
  8
0
 10
480.2919879292041969
 20
-11.2857062245425404
 30
0.0
 40
0.1247192731791073
 50
198.3579721312131028
 51
245.4719613113803121
  0
ARC
  5
2F59
  8
0
 10
480.3576243444290981
 20
-11.29332477297495
 30
0.0
 40
0.0420787597589241
 50
229.1276131746543001
 51
318.8590751843414068
  0
ARC
  5
2F5A
  8
0
 10
480.3443702969365177
 20
-11.3086405727881996
 30
0.0
 40
0.0218242911444759
 50
145.0737680554348117
 51
229.1276131746543001
  0
ARC
  5
2F5B
  8
0
 10
480.3576596403572125
 20
-11.3223735476213996
 30
0.0
 40
0.0407464178633237
 50
34.6899085644437974
 51
139.9328683238634881
  0
ARC
  5
2F5C
  8
0
 10
480.3722103419328846
 20
-11.3085684061292593
 30
0.0
 40
0.0211491907754392
 50
323.9686460227338216
 51
26.3437118850144003
  0
ARC
  5
2F5D
  8
0
 10
480.2615755531138007
 20
-11.29332477297495
 30
0.0
 40
0.0420787597589241
 50
229.1276131746543001
 51
318.8590751843414068
  0
ARC
  5
2F5E
  8
0
 10
480.2483215056212771
 20
-11.3086405727881996
 30
0.0
 40
0.0218242911444759
 50
145.0737680554348117
 51
229.1276131746543001
  0
ARC
  5
2F5F
  8
0
 10
480.2616108490418014
 20
-11.3223735476213996
 30
0.0
 40
0.0407464178633237
 50
34.6899085644437974
 51
139.9328683238634881
  0
ARC
  5
2F60
  8
0
 10
480.2761615506175872
 20
-11.3085684061292593
 30
0.0
 40
0.0211491907754392
 50
323.9686460227338216
 51
26.3437118850144003
  0
ARC
  5
2F61
  8
0
 10
480.3093272359146795
 20
-11.3560207956626407
 30
0.0
 40
0.0420787597589241
 50
229.1276131746543001
 51
318.8590751843414068
  0
ARC
  5
2F62
  8
0
 10
480.2960731884220991
 20
-11.3713365954758991
 30
0.0
 40
0.0218242911444759
 50
145.0737680554348117
 51
229.1276131746543001
  0
ARC
  5
2F63
  8
0
 10
480.3093625318426803
 20
-11.3850695703090903
 30
0.0
 40
0.0407464178633237
 50
34.6899085644437974
 51
139.9328683238634881
  0
ARC
  5
2F64
  8
0
 10
480.3239132334184092
 20
-11.3712644288169606
 30
0.0
 40
0.0211491907754392
 50
323.9686460227338216
 51
26.3437118850144003
  0
ARC
  5
2F65
  8
0
 10
480.3090296120101925
 20
-11.4039820501939904
 30
0.0
 40
0.2060355064494431
 50
33.2282253559365515
 51
141.4346881163548062
  0
ARC
  5
2F66
  8
0
 10
480.2280440023009191
 20
-11.3394123244615201
 30
0.0
 40
0.1024598410586691
 50
141.4346881163548062
 51
217.2052777643631032
  0
ARC
  5
2F67
  8
0
 10
480.3082030645657028
 20
-11.27036462736827
 30
0.0
 40
0.2081579946548296
 50
219.0015134781868937
 51
328.2582508247597275
  0
ARC
  5
2F68
  8
0
 10
480.3856180430448148
 20
-11.3397118208766496
 30
0.0
 40
0.1074006395840683
 50
338.0402917621958068
 51
26.9241557266070117
  0
ARC
  5
2F69
  8
0
 10
480.3233888763805908
 20
-10.8201034466500907
 30
0.0
 40
0.1326854339181073
 50
278.2400256255324962
 51
333.5378201602061949
  0
ARC
  5
2F6A
  8
0
 10
480.3149244754563938
 20
-10.7616538387357892
 30
0.0
 40
0.1917447494266845
 50
239.082732995955098
 51
278.2400256255324962
  0
ARC
  5
2F6B
  8
0
 10
480.2755187643584236
 20
-10.83972352121142
 30
0.0
 40
0.1047113651854516
 50
201.5371874033754978
 51
235.6303401446905923
  0
ARC
  5
2F6C
  8
0
 10
480.2615317817561049
 20
-10.8509243936451991
 30
0.0
 40
0.0877483115923154
 50
147.2755111224336986
 51
198.0847945521119868
  0
ARC
  5
2F6D
  8
0
 10
480.2993495785595996
 20
-10.8860497605009101
 30
0.0
 40
0.1388513407029051
 50
96.9035762101707263
 51
143.5153173646905032
  0
ARC
  5
2F6E
  8
0
 10
480.3106080638506228
 20
-10.9182150222696794
 30
0.0
 40
0.1722918268282115
 50
62.3451664303460902
 51
99.3354631296466124
  0
ARC
  5
2F6F
  8
0
 10
480.3424148447405173
 20
-10.86161804045196
 30
0.0
 40
0.1074144481753097
 50
17.3022125131107813
 51
63.3608406935659829
  0
ARC
  5
2F70
  8
0
 10
480.3533357921602942
 20
-10.8493592914673194
 30
0.0
 40
0.0937240259558395
 50
341.4157631889852951
 51
12.1258060991153993
  0
ARC
  5
2F71
  8
0
 10
480.3411266683465897
 20
-10.8226220859170201
 30
0.0
 40
0.1089447411252005
 50
301.4088920877929922
 51
346.4775985106620055
  0
ARC
  5
2F72
  8
0
 10
480.3102238349997037
 20
-10.7720127812887405
 30
0.0
 40
0.168243027979289
 50
245.4719613113803121
 51
301.4088920877929922
  0
ARC
  5
2F73
  8
0
 10
480.2921554487872982
 20
-10.8116088751818307
 30
0.0
 40
0.1247192731791073
 50
198.3579721312131028
 51
245.4719613113803121
  0
ARC
  5
2F74
  8
0
 10
480.365128178283328
 20
-10.8404852887483294
 30
0.0
 40
0.0420787597589241
 50
229.1276131746543001
 51
318.8590751843414068
  0
ARC
  5
2F75
  8
0
 10
480.3518741307908044
 20
-10.8558010885615808
 30
0.0
 40
0.0218242911444759
 50
145.0737680554348117
 51
229.1276131746543001
  0
ARC
  5
2F76
  8
0
 10
480.3651634742114993
 20
-10.8695340633947808
 30
0.0
 40
0.0407464178633237
 50
34.6899085644437974
 51
139.9328683238634881
  0
ARC
  5
2F77
  8
0
 10
480.3797141757872282
 20
-10.8557289219026405
 30
0.0
 40
0.0211491907754392
 50
323.9686460227338216
 51
26.3437118850144003
  0
ARC
  5
2F78
  8
0
 10
480.2818778549209924
 20
-10.8034919918038703
 30
0.0
 40
0.0420787597589241
 50
229.1276131746543001
 51
318.8590751843414068
  0
ARC
  5
2F79
  8
0
 10
480.2686238074285257
 20
-10.8188077916171306
 30
0.0
 40
0.0218242911444759
 50
145.0737680554348117
 51
229.1276131746543001
  0
ARC
  5
2F7A
  8
0
 10
480.2819131508491068
 20
-10.8325407664503199
 30
0.0
 40
0.0407464178633237
 50
34.6899085644437974
 51
139.9328683238634881
  0
ARC
  5
2F7B
  8
0
 10
480.2964638524247789
 20
-10.8187356249581796
 30
0.0
 40
0.0211491907754392
 50
323.9686460227338216
 51
26.3437118850144003
  0
ARC
  5
2F7C
  8
0
 10
480.2818616387996826
 20
-10.8764592379511207
 30
0.0
 40
0.0420787597589241
 50
229.1276131746543001
 51
318.8590751843414068
  0
ARC
  5
2F7D
  8
0
 10
480.2686075913072159
 20
-10.8917750377643703
 30
0.0
 40
0.0218242911444759
 50
145.0737680554348117
 51
229.1276131746543001
  0
ARC
  5
2F7E
  8
0
 10
480.2818969347277971
 20
-10.9055080125975596
 30
0.0
 40
0.0407464178633237
 50
34.6899085644437974
 51
139.9328683238634881
  0
ARC
  5
2F7F
  8
0
 10
480.2964476363035828
 20
-10.89170287110543
 30
0.0
 40
0.0211491907754392
 50
323.9686460227338216
 51
26.3437118850144003
  0
ARC
  5
2F80
  8
0
 10
480.3091971315934074
 20
-10.92988470083327
 30
0.0
 40
0.2060355064494431
 50
33.2282253559365515
 51
141.4346881163548062
  0
ARC
  5
2F81
  8
0
 10
480.2282115218841909
 20
-10.8653149751008105
 30
0.0
 40
0.1024598410586691
 50
141.4346881163548062
 51
217.2052777643631032
  0
ARC
  5
2F82
  8
0
 10
480.3083705841489177
 20
-10.7962672780075604
 30
0.0
 40
0.2081579946548296
 50
219.0015134781868937
 51
328.2582508247597275
  0
ARC
  5
2F83
  8
0
 10
480.3857855626279729
 20
-10.86561447151594
 30
0.0
 40
0.1074006395840683
 50
338.0402917621958068
 51
26.9241557266070117
  0
ARC
  5
2F84
  8
0
 10
481.2772322062510284
 20
-10.1780716214506608
 30
0.0
 40
0.0763054404442097
 50
223.6831824498381991
 51
316.7721333156364949
  0
ARC
  5
2F85
  8
0
 10
481.2473999774433082
 20
-10.2065631703674793
 30
0.0
 40
0.0350534073389909
 50
138.7518228346089018
 51
223.6831824498383128
  0
ARC
  5
2F86
  8
0
 10
481.2771451213816931
 20
-10.2483349525313994
 30
0.0
 40
0.0857735122345261
 50
48.7445949757740209
 51
130.8478852248250064
  0
ARC
  5
2F87
  8
0
 10
481.3073820566572749
 20
-10.2066068463349708
 30
0.0
 40
0.0347950679333757
 50
316.9786146478027149
 51
40.8406573659889531
  0
ARC
  5
2F88
  8
0
 10
481.2772398234066031
 20
-10.1929526889465301
 30
0.0
 40
0.0342487102092692
 50
220.1958852363443953
 51
319.7870630633012183
  0
ARC
  5
2F89
  8
0
 10
481.2625657105692767
 20
-10.2053514694217196
 30
0.0
 40
0.0150377928746559
 50
139.1465740972103902
 51
220.1958852363449921
  0
ARC
  5
2F8A
  8
0
 10
481.276407405855025
 20
-10.2218239846095305
 30
0.0
 40
0.036442010231806
 50
35.3321156599513984
 51
133.7846973912357953
  0
ARC
  5
2F8B
  8
0
 10
481.2895170965391003
 20
-10.2049846609552493
 30
0.0
 40
0.017151429057098
 50
324.0054909084601036
 51
14.2974192470729999
  0
ARC
  5
2F8C
  8
0
 10
480.7658803707133757
 20
-10.1780716214506608
 30
0.0
 40
0.0763054404442097
 50
223.6831824498381991
 51
316.7721333156364949
  0
ARC
  5
2F8D
  8
0
 10
480.7360481419057123
 20
-10.2065631703674793
 30
0.0
 40
0.0350534073389909
 50
138.7518228346089018
 51
223.6831824498383128
  0
ARC
  5
2F8E
  8
0
 10
480.7657932858440972
 20
-10.2483349525313994
 30
0.0
 40
0.0857735122345261
 50
48.7445949757740209
 51
130.8478852248250064
  0
ARC
  5
2F8F
  8
0
 10
480.7960302211196222
 20
-10.2066068463349708
 30
0.0
 40
0.0347950679333757
 50
316.9786146478027149
 51
40.8406573659889531
  0
ARC
  5
2F90
  8
0
 10
480.7658879878691209
 20
-10.1929526889465301
 30
0.0
 40
0.0342487102092692
 50
220.1958852363443953
 51
319.7870630633012183
  0
ARC
  5
2F91
  8
0
 10
480.7512138750316808
 20
-10.2053514694217196
 30
0.0
 40
0.0150377928746559
 50
139.1465740972103902
 51
220.1958852363449921
  0
ARC
  5
2F92
  8
0
 10
480.7650555703173723
 20
-10.2218239846095305
 30
0.0
 40
0.036442010231806
 50
35.3321156599513984
 51
133.7846973912357953
  0
ARC
  5
2F93
  8
0
 10
480.7781652610015044
 20
-10.2049846609552493
 30
0.0
 40
0.017151429057098
 50
324.0054909084601036
 51
14.2974192470729999
  0
ARC
  5
2F94
  8
0
 10
480.254057703619992
 20
-10.1780716214506608
 30
0.0
 40
0.0763054404442097
 50
223.6831824498381991
 51
316.7721333156364949
  0
ARC
  5
2F95
  8
0
 10
480.2242254748122718
 20
-10.2065631703674793
 30
0.0
 40
0.0350534073389909
 50
138.7518228346089018
 51
223.6831824498383128
  0
ARC
  5
2F96
  8
0
 10
480.2539706187507136
 20
-10.2483349525313994
 30
0.0
 40
0.0857735122345261
 50
48.7445949757740209
 51
130.8478852248250064
  0
ARC
  5
2F97
  8
0
 10
480.2842075540262954
 20
-10.2066068463349708
 30
0.0
 40
0.0347950679333757
 50
316.9786146478027149
 51
40.8406573659889531
  0
ARC
  5
2F98
  8
0
 10
480.2540653207756804
 20
-10.1929526889465301
 30
0.0
 40
0.0342487102092692
 50
220.1958852363443953
 51
319.7870630633012183
  0
ARC
  5
2F99
  8
0
 10
480.2393912079382972
 20
-10.2053514694217196
 30
0.0
 40
0.0150377928746559
 50
139.1465740972103902
 51
220.1958852363449921
  0
ARC
  5
2F9A
  8
0
 10
480.2532329032239886
 20
-10.2218239846095305
 30
0.0
 40
0.036442010231806
 50
35.3321156599513984
 51
133.7846973912357953
  0
ARC
  5
2F9B
  8
0
 10
480.2663425939081208
 20
-10.2049846609552493
 30
0.0
 40
0.017151429057098
 50
324.0054909084601036
 51
14.2974192470729999
  0
LINE
  5
2F9C
  8
0
 10
480.4628328282578877
 20
-6.8186520944057172
 30
0.0
 11
480.4628328282578877
 21
-6.7546325613518858
 31
0.0
  0
LINE
  5
2F9D
  8
0
 10
480.6965251238684118
 20
-7.4634877607792411
 30
0.0
 11
480.6965251238684118
 21
-7.590003921809223
 31
0.0
  0
ARC
  5
2F9E
  8
0
 10
479.9919211684597258
 20
-7.9695219481328863
 30
0.0
 40
1.0071182584782321
 50
75.505529007916337
 51
89.6708819822302843
  0
ARC
  5
2F9F
  8
0
 10
480.0400404735087818
 20
-7.762347253067273
 30
0.0
 40
0.7945113923707945
 50
55.2760248169007582
 51
75.1258224635721774
  0
ARC
  5
2FA0
  8
0
 10
480.197695262823288
 20
-7.5348682609170723
 30
0.0
 40
0.5177412269564505
 50
30.6809067288174688
 51
55.2760248169007014
  0
ARC
  5
2FA1
  8
0
 10
480.3138375810719936
 20
-7.4659603364730538
 30
0.0
 40
0.382695530470628
 50
0.3701875934985815
 51
30.6809067288174688
  0
ARC
  5
2FA2
  8
0
 10
479.9389633077411759
 20
-6.7985100410048487
 30
0.0
 40
0.5242565944665504
 50
342.715749785549292
 51
357.7981416528298269
  0
ARC
  5
2FA3
  8
0
 10
480.2013323742277748
 20
-6.7622929454317946
 30
0.0
 40
0.261612631465377
 50
1.6779404684202051
 51
33.0859611754865597
  0
ARC
  5
2FA4
  8
0
 10
480.1092660880444782
 20
-6.8222780625516419
 30
0.0
 40
0.3714962759602389
 50
33.0859611754865597
 51
65.4553364421198438
  0
ARC
  5
2FA5
  8
0
 10
480.013015178188823
 20
-6.9929650421975804
 30
0.0
 40
0.5669869698699048
 50
63.7725942354263893
 51
80.6285974598323918
  0
ARC
  5
2FA6
  8
0
 10
479.9830666566895729
 20
-7.2444157046303683
 30
0.0
 40
0.82003746938719
 50
81.4248430798424323
 51
88.9770837455257464
  0
LINE
  5
2FA7
  8
0
 10
480.435698352268389
 20
-6.746082756079562
 30
0.0
 11
480.435698352268389
 21
-7.0733601736656393
 31
0.0
  0
ARC
  5
2FA8
  8
0
 10
480.3381140751383782
 20
-6.8239282026718078
 30
0.0
 40
0.1248303036051113
 50
2.4223990954158401
 51
38.5802500255235614
  0
ARC
  5
2FA9
  8
0
 10
479.9951768243619199
 20
-8.5322882158975286
 30
0.0
 40
0.9895615411855752
 50
73.4394130379943135
 51
89.8535475044873948
  0
ARC
  5
2FAA
  8
0
 10
479.9908653938205134
 20
-11.9283542851090694
 30
0.0
 40
0.0623265497818235
 50
226.0450456619936972
 51
247.9147765622944064
  0
ARC
  5
2FAB
  8
0
 10
479.9977062183343719
 20
-11.9114797614287795
 30
0.0
 40
0.0805349655398101
 50
247.9188243149924062
 51
293.6930093019078072
  0
ARC
  5
2FAC
  8
0
 10
480.0051840097331137
 20
-11.9285202944700703
 30
0.0
 40
0.0619259050978465
 50
293.6930093019079209
 51
318.9625005859310249
  0
ARC
  5
2FAD
  8
0
 10
480.0232754748794832
 20
-11.9477820719255696
 30
0.0
 40
0.0357319587324041
 50
323.2168900411004984
 51
6.5025298154933351
  0
ARC
  5
2FAE
  8
0
 10
480.0192491420721126
 20
-11.9512451831454101
 30
0.0
 40
0.0402354453890804
 50
10.7569192706644099
 51
56.6970248530523406
  0
ARC
  5
2FAF
  8
0
 10
479.9984069683956136
 20
-11.9829707700161503
 30
0.0
 40
0.0781947534155439
 50
56.6970248530523975
 51
87.8286877415523435
  0
ARC
  5
2FB0
  8
0
 10
479.9982492508963787
 20
-11.9871305681615805
 30
0.0
 40
0.0823575403930777
 50
87.8286877415523435
 51
122.2506152881139059
  0
ARC
  5
2FB1
  8
0
 10
479.9750649901085922
 20
-11.9503866130740892
 30
0.0
 40
0.0389106971964616
 50
122.2506152881139059
 51
173.0242081393816136
  0
ARC
  5
2FB2
  8
0
 10
479.9718840088631282
 20
-11.9473478124136694
 30
0.0
 40
0.0354818042957983
 50
177.2749741732841073
 51
226.8220448028787075
  0
LINE
  5
2FB3
  8
0
 10
479.945221116922994
 20
-11.9707582508861794
 30
0.0
 11
479.9161552057809104
 21
-11.9401616701873099
 31
0.0
  0
LINE
  5
2FB4
  8
0
 10
480.0518934836405265
 20
-11.9691779231451996
 30
0.0
 11
480.0778226489791223
 21
-11.9422666161162194
 31
0.0
  0
ARC
  5
2FB5
  8
0
 10
480.0293618614707043
 20
-11.9038546016625393
 30
0.0
 40
0.0618379396513073
 50
321.5982082253867134
 51
1.877345074315206
  0
ARC
  5
2FB6
  8
0
 10
480.033675409563898
 20
-11.9037132139793105
 30
0.0
 40
0.057522075006786
 50
1.877345074315206
 51
43.5765706829940669
  0
ARC
  5
2FB7
  8
0
 10
479.9984473602564776
 20
-11.9372329736842904
 30
0.0
 40
0.1061491225080473
 50
43.5765706829940669
 51
141.9584383097098907
  0
ARC
  5
2FB8
  8
0
 10
479.9541671242054122
 20
-11.9025857055070592
 30
0.0
 40
0.0499248172932415
 50
141.9584383097098907
 51
187.8747685519116999
  0
ARC
  5
2FB9
  8
0
 10
479.9795025721373918
 20
-11.8990814927383202
 30
0.0
 40
0.0755014556385329
 50
187.8747685519115009
 51
212.9630333740404922
  0
ARC
  5
2FBA
  8
0
 10
479.9979638377857896
 20
-11.9405316186605504
 30
0.0
 40
0.0258080042944824
 50
223.3781753941451029
 51
308.8179401162057047
  0
ARC
  5
2FBB
  8
0
 10
480.0069573244014123
 20
-11.9517100908166896
 30
0.0
 40
0.0114608428591438
 50
308.8179401162053068
 51
34.7341718742865311
  0
ARC
  5
2FBC
  8
0
 10
479.997846310462478
 20
-11.9619391013391994
 30
0.0
 40
0.0249842217977774
 50
42.127714348747169
 51
140.5515126316049077
  0
ARC
  5
2FBD
  8
0
 10
479.9875483446961084
 20
-11.9516970680161307
 30
0.0
 40
0.0106127840966445
 50
147.9450551060689065
 51
218.1775345892990003
  0
ENDSEC
  0
EOF
