  0
SECTION
  2
HEADER
  9
$ACADVER
  1
AC1009
  9
$INSBASE
 10
4237.4502494624694009
 20
139.9312382518710081
 30
0.0
  9
$EXTMIN
 10
4231.4858811542690091
 20
133.9668699436710142
 30
0.0
  9
$EXTMAX
 10
4243.4146177706697927
 20
145.8956065600708882
 30
0.0
  9
$LIMMIN
 10
0.0
 20
0.0
  9
$LIMMAX
 10
11.6929133858000007
 20
8.2677165353999982
  9
$ORTHOMODE
 70
     1
  9
$REGENMODE
 70
     1
  9
$FILLMODE
 70
     1
  9
$QTEXTMODE
 70
     0
  9
$MIRRTEXT
 70
     0
  9
$DRAGMODE
 70
     2
  9
$LTSCALE
 40
0.6431102362
  9
$OSMODE
 70
  4095
  9
$ATTMODE
 70
     1
  9
$TEXTSIZE
 40
0.2
  9
$TRACEWID
 40
0.05
  9
$TEXTSTYLE
  7
STANDARD
  9
$CLAYER
  8
0
  9
$CELTYPE
  6
BYLAYER
  9
$CECOLOR
 62
   256
  9
$DIMSCALE
 40
1.0
  9
$DIMASZ
 40
0.1875
  9
$DIMEXO
 40
0.0625
  9
$DIMDLI
 40
0.4443307087
  9
$DIMRND
 40
0.0
  9
$DIMDLE
 40
0.0
  9
$DIMEXE
 40
0.125
  9
$DIMTP
 40
0.01
  9
$DIMTM
 40
0.01
  9
$DIMTXT
 40
2.0
  9
$DIMCEN
 40
0.1052362205
  9
$DIMTSZ
 40
0.0
  9
$DIMTOL
 70
     1
  9
$DIMLIM
 70
     0
  9
$DIMTIH
 70
     1
  9
$DIMTOH
 70
     1
  9
$DIMSE1
 70
     0
  9
$DIMSE2
 70
     0
  9
$DIMTAD
 70
     0
  9
$DIMZIN
 70
     0
  9
$DIMBLK
  1

  9
$DIMASO
 70
     1
  9
$DIMSHO
 70
     1
  9
$DIMPOST
  1
\X
  9
$DIMAPOST
  1

  9
$DIMALT
 70
     1
  9
$DIMALTD
 70
     2
  9
$DIMALTF
 40
25.3999999999999986
  9
$DIMLFAC
 40
1.0
  9
$DIMTOFL
 70
     0
  9
$DIMTVP
 40
0.0
  9
$DIMTIX
 70
     0
  9
$DIMSOXD
 70
     0
  9
$DIMSAH
 70
     0
  9
$DIMBLK1
  1

  9
$DIMBLK2
  1

  9
$DIMSTYLE
  2
STANDARD
  9
$DIMCLRD
 70
     0
  9
$DIMCLRE
 70
     0
  9
$DIMCLRT
 70
     0
  9
$DIMTFAC
 40
1.0
  9
$DIMGAP
 40
0.09
  9
$LUNITS
 70
     2
  9
$LUPREC
 70
     4
  9
$SKETCHINC
 40
0.1
  9
$FILLETRAD
 40
0.0
  9
$AUNITS
 70
     0
  9
$AUPREC
 70
     0
  9
$MENU
  1
.
  9
$ELEVATION
 40
0.0
  9
$PELEVATION
 40
0.0
  9
$THICKNESS
 40
0.0
  9
$LIMCHECK
 70
     0
  9
$BLIPMODE
 70
     0
  9
$CHAMFERA
 40
0.0
  9
$CHAMFERB
 40
0.0
  9
$SKPOLY
 70
     0
  9
$TDCREATE
 40
2458060.468368056230247
  9
$TDUPDATE
 40
2459058.5298611121252179
  9
$TDINDWG
 40
0.3401922454
  9
$TDUSRTIMER
 40
0.3401922454
  9
$USRTIMER
 70
     1
  9
$ANGBASE
 50
0.0
  9
$ANGDIR
 70
     0
  9
$PDMODE
 70
     0
  9
$PDSIZE
 40
0.3125
  9
$PLINEWID
 40
0.0
  9
$COORDS
 70
     1
  9
$SPLFRAME
 70
     0
  9
$SPLINETYPE
 70
     6
  9
$SPLINESEGS
 70
     8
  9
$ATTDIA
 70
     1
  9
$ATTREQ
 70
     1
  9
$HANDLING
 70
     1
  9
$HANDSEED
  5
7059
  9
$SURFTAB1
 70
     6
  9
$SURFTAB2
 70
     6
  9
$SURFTYPE
 70
     6
  9
$SURFU
 70
     6
  9
$SURFV
 70
     6
  9
$UCSNAME
  2

  9
$UCSORG
 10
0.0
 20
0.0
 30
0.0
  9
$UCSXDIR
 10
1.0
 20
0.0
 30
0.0
  9
$UCSYDIR
 10
0.0
 20
1.0
 30
0.0
  9
$PUCSNAME
  2

  9
$PUCSORG
 10
0.0
 20
0.0
 30
0.0
  9
$PUCSXDIR
 10
1.0
 20
0.0
 30
0.0
  9
$PUCSYDIR
 10
0.0
 20
1.0
 30
0.0
  9
$USERI1
 70
     0
  9
$USERI2
 70
     0
  9
$USERI3
 70
     0
  9
$USERI4
 70
     0
  9
$USERI5
 70
     0
  9
$USERR1
 40
0.0
  9
$USERR2
 40
0.0
  9
$USERR3
 40
0.0
  9
$USERR4
 40
0.0
  9
$USERR5
 40
0.0
  9
$WORLDVIEW
 70
     1
  9
$SHADEDGE
 70
     3
  9
$SHADEDIF
 70
    70
  9
$TILEMODE
 70
     1
  9
$MAXACTVP
 70
    64
  9
$PLIMCHECK
 70
     0
  9
$PEXTMIN
 10
1.0000000000000000E+20
 20
1.0000000000000000E+20
 30
1.0000000000000000E+20
  9
$PEXTMAX
 10
-1.0000000000000000E+20
 20
-1.0000000000000000E+20
 30
-1.0000000000000000E+20
  9
$PLIMMIN
 10
0.0
 20
0.0
  9
$PLIMMAX
 10
12.0
 20
9.0
  9
$UNITMODE
 70
     0
  9
$VISRETAIN
 70
     1
  9
$PLINEGEN
 70
     0
  9
$PSLTSCALE
 70
     1
  0
ENDSEC
  0
SECTION
  2
TABLES
  0
TABLE
  2
VPORT
 70
     1
  0
VPORT
  2
*ACTIVE
 70
     0
 10
0.0
 20
0.0
 11
1.0
 21
1.0
 12
0.0
 22
0.0
 13
0.0
 23
0.0
 14
1.0
 24
1.0
 15
0.0
 25
0.0
 16
0.0
 26
0.0
 36
61.9423454976828367
 17
4237.4609374999990905
 27
139.9312362670897869
 37
0.0
 40
16.8469696754181086
 41
2.8917682926829258
 42
50.0
 43
0.0
 44
0.0
 50
0.0
 51
0.0
 71
     0
 72
   100
 73
     1
 74
     1
 75
     0
 76
     0
 77
     0
 78
     0
  0
ENDTAB
  0
TABLE
  2
LTYPE
 70
     2
  0
LTYPE
  2
CONTINUOUS
 70
     0
  3
Solid line
 72
    65
 73
     0
 40
0.0
  0
LTYPE
  2
PHANTOM2
 70
     0
  3
___ _ _ ___ _ _ ___ _ _ ___ _ _
 72
    65
 73
     6
 40
1.25
 49
0.625
 49
-0.125
 49
0.125
 49
-0.125
 49
0.125
 49
-0.125
  0
ENDTAB
  0
TABLE
  2
LAYER
 70
     2
  0
LAYER
  2
0
 70
     0
 62
   255
  6
CONTINUOUS
  0
LAYER
  2
DEFPOINTS
 70
     0
 62
     7
  6
CONTINUOUS
  0
ENDTAB
  0
TABLE
  2
STYLE
 70
     1
  0
STYLE
  2
STANDARD
 70
     0
 40
0.0
 41
0.8
 50
0.0
 71
     0
 42
0.2
  3
txt
  4

  0
ENDTAB
  0
TABLE
  2
VIEW
 70
     0
  0
ENDTAB
  0
TABLE
  2
UCS
 70
     0
  0
ENDTAB
  0
TABLE
  2
APPID
 70
    10
  0
APPID
  2
ACAD
 70
     0
  0
APPID
  2
ACAD_MLEADERVER
 70
     0
  0
APPID
  2
ACAD_EXEMPT_FROM_CAD_STANDARDS
 70
     0
  0
APPID
  2
ACAD_NAV_VCDISPLAY
 70
     0
  0
APPID
  2
ACAECLAYERSTANDARD
 70
     0
  0
APPID
  2
ACCMTRANSPARENCY
 70
     0
  0
APPID
  2
ACAD_DSTYLE_DIMJAG
 70
     0
  0
APPID
  2
ACAD_DSTYLE_DIMTALN
 70
     0
  0
APPID
  2
ACDBATTR
 70
     0
  0
APPID
  2
ACAD_DSTYLE_DIMRADIAL_EXTENSION
 70
     0
  0
ENDTAB
  0
TABLE
  2
DIMSTYLE
 70
     1
  0
DIMSTYLE
  2
STANDARD
 70
     0
  3

  4

  5

  6

  7

 40
1.0
 41
0.1875
 42
0.0625
 43
0.38
 44
0.125
 45
0.0
 46
0.0
 47
0.01
 48
0.01
140
0.15625
141
0.09
142
0.0
143
25.3999999999999986
144
1.0
145
0.0
146
1.0
147
0.09
 71
     1
 72
     0
 73
     1
 74
     1
 75
     0
 76
     0
 77
     0
 78
     4
170
     0
171
     2
172
     0
173
     0
174
     0
175
     0
176
     0
177
     0
178
     0
  0
ENDTAB
  0
ENDSEC
  0
SECTION
  2
BLOCKS
  0
BLOCK
  8
0
  2
$MODEL_SPACE
 70
     0
 10
0.0
 20
0.0
 30
0.0
  3
$MODEL_SPACE
  1

  0
ENDBLK
  5
21
  8
0
  0
BLOCK
 67
     1
  8
0
  2
$PAPER_SPACE
 70
     0
 10
0.0
 20
0.0
 30
0.0
  3
$PAPER_SPACE
  1

  0
ENDBLK
  5
1D
 67
     1
  8
0
  0
BLOCK
  8
0
  2
_FILLED
 70
     0
 10
0.0
 20
0.0
 30
0.0
  3
_FILLED
  1

  0
SOLID
  5
6E1E
  8
0
  6
BYBLOCK
 62
     0
 10
0.0
 20
0.0
 30
0.0
 11
-1.0
 21
0.1666666667
 31
0.0
 12
-1.0
 22
-0.1666666667
 32
0.0
 13
-1.0
 23
-0.1666666667
 33
0.0
  0
ENDBLK
  5
6E1F
  8
0
  6
BYBLOCK
 62
     0
  0
ENDSEC
  0
SECTION
  2
ENTITIES
  0
ATTDEF
  5
3930
  8
DEFPOINTS
 10
4237.4509113447002164
 20
139.9349220394522035
 30
0.0
 40
0.001
  1
K-26291T
  3

  2
MODELNUMBER
 70
     0
1001
ACDBATTR
1070
     0
1070
     1
  0
ATTDEF
  5
3931
  8
DEFPOINTS
 10
4237.4509113447002164
 20
139.9332553727855952
 30
0.0
 40
0.001
  1

  3

  2
TRADENAME
 70
     0
1001
ACDBATTR
1070
     0
1070
     1
  0
ATTDEF
  5
3932
  8
DEFPOINTS
 10
4237.4509113447002164
 20
139.9315887061189017
 30
0.0
 40
0.001
  1
SHOWERHEAD
  3

  2
PRODUCT
 70
     0
1001
ACDBATTR
1070
     0
1070
     1
  0
CIRCLE
  5
6E70
  8
0
 10
4237.4502494624694009
 20
139.9312382518710081
 30
0.0
 40
5.9643683082000001
  0
LINE
  5
6E71
  8
0
 10
4236.5409192139177321
 20
139.5953503816708974
 30
0.0
 11
4236.5409192139177321
 21
140.2671261220708914
 31
0.0
  0
LINE
  5
6E72
  8
0
 10
4236.5697472867177567
 20
140.3367232462709069
 30
0.0
 11
4237.0447644681189558
 21
140.8117404276709124
 31
0.0
  0
LINE
  5
6E73
  8
0
 10
4237.7861373326177272
 20
139.0219080033708963
 30
0.0
 11
4237.1143615923192556
 21
139.0219080033708963
 31
0.0
  0
LINE
  5
6E74
  8
0
 10
4237.0447644681189558
 20
139.0507360760709048
 30
0.0
 11
4236.5697472867177567
 21
139.5257532575708979
 31
0.0
  0
LINE
  5
6E79
  8
0
 10
4237.1143615923192556
 20
140.8405685004709085
 30
0.0
 11
4237.7861373326177272
 21
140.8405685004709085
 31
0.0
  0
ARC
  5
6E7C
  8
0
 10
4236.6393444108189215
 20
139.5953503816708974
 30
0.0
 40
0.0984251969
 50
180.0
 51
225.0000000220221068
  0
ARC
  5
6E7D
  8
0
 10
4237.1143615923192556
 20
139.1203332001709043
 30
0.0
 40
0.0984251969
 50
224.9999999999918998
 51
270.0000000220946959
  0
CIRCLE
  5
6E7E
  8
0
 10
4237.3863778396189446
 20
139.7346616097709102
 30
0.0
 40
0.0196850394
  0
CIRCLE
  5
6E7F
  8
0
 10
4237.3287584162189887
 20
139.7640201723708913
 30
0.0
 40
0.0196850394
  0
CIRCLE
  5
6E80
  8
0
 10
4237.2830313829190345
 20
139.8097472056709023
 30
0.0
 40
0.0196850394
  0
CIRCLE
  5
6E81
  8
0
 10
4237.2536728203176608
 20
139.8673666290708866
 30
0.0
 40
0.0196850394
  0
CIRCLE
  5
6E82
  8
0
 10
4237.3695408010189567
 20
139.7914467496709108
 30
0.0
 40
0.0196850394
  0
CIRCLE
  5
6E83
  8
0
 10
4237.3104579603177626
 20
139.8505295904708987
 30
0.0
 40
0.0196850394
  0
ARC
  5
6E86
  8
0
 10
4236.6393444108189215
 20
140.2671261220708914
 30
0.0
 40
0.0984251969
 50
135.0000000000079865
 51
180.0000000220996128
  0
ARC
  5
6E87
  8
0
 10
4237.1143615923192556
 20
140.7421433035709128
 30
0.0
 40
0.0984251969
 50
90.0
 51
135.0000000219748983
  0
CIRCLE
  5
6E88
  8
0
 10
4237.2435565491186935
 20
139.9312382518708944
 30
0.0
 40
0.0196850394
  0
CIRCLE
  5
6E89
  8
0
 10
4237.2536728203176608
 20
139.9951098747708897
 30
0.0
 40
0.0196850394
  0
CIRCLE
  5
6E8A
  8
0
 10
4237.2830313829190345
 20
140.0527292981709024
 30
0.0
 40
0.0196850394
  0
CIRCLE
  5
6E8B
  8
0
 10
4237.3287584162189887
 20
140.0984563314709135
 30
0.0
 40
0.0196850394
  0
CIRCLE
  5
6E8C
  8
0
 10
4237.3863778396189446
 20
140.1278148940708945
 30
0.0
 40
0.0196850394
  0
CIRCLE
  5
6E8D
  8
0
 10
4237.2888321396194442
 20
139.9312382518708944
 30
0.0
 40
0.0196850394
  0
CIRCLE
  5
6E8E
  8
0
 10
4237.3104579603177626
 20
140.01194691327089
 30
0.0
 40
0.0196850394
  0
CIRCLE
  5
6E8F
  8
0
 10
4237.3695408010189567
 20
140.0710297540709064
 30
0.0
 40
0.0196850394
  0
CIRCLE
  5
6E90
  8
0
 10
4237.646826104619322
 20
139.8673666290708866
 30
0.0
 40
0.0196850394
  0
CIRCLE
  5
6E91
  8
0
 10
4237.6174675420179483
 20
139.8097472056709023
 30
0.0
 40
0.0196850394
  0
CIRCLE
  5
6E92
  8
0
 10
4237.5717405087189036
 20
139.7640201723708913
 30
0.0
 40
0.0196850394
  0
CIRCLE
  5
6E93
  8
0
 10
4237.5141210853189477
 20
139.7346616097709102
 30
0.0
 40
0.0196850394
  0
CIRCLE
  5
6E94
  8
0
 10
4237.4502494625194231
 20
139.7245453384709037
 30
0.0
 40
0.0196850394
  0
CIRCLE
  5
6E95
  8
0
 10
4237.5900409646192202
 20
139.8505295904708987
 30
0.0
 40
0.0196850394
  0
CIRCLE
  5
6E96
  8
0
 10
4237.5309581239189356
 20
139.7914467496709108
 30
0.0
 40
0.0196850394
  0
CIRCLE
  5
6E97
  8
0
 10
4237.4502494625194231
 20
139.769820929070903
 30
0.0
 40
0.0196850394
  0
ARC
  5
6E98
  8
0
 10
4237.4502494625194231
 20
139.9312382518708944
 30
0.0
 40
0.5039370079
 50
90.0000000056799934
 51
269.9999999943199782
  0
ARC
  5
6E99
  8
0
 10
4237.4502494625194231
 20
139.9312382518708944
 30
0.0
 40
0.4960629921
 50
90.0000000057842158
 51
269.9999999942157842
  0
ARC
  5
6E9A
  8
0
 10
4237.4502494625194231
 20
139.9312382518708944
 30
0.0
 40
0.4351000237
 50
90.0000000065658838
 51
269.9999999934340735
  0
ARC
  5
6E9B
  8
0
 10
4237.4502494625194231
 20
139.9312382518708944
 30
0.0
 40
0.3800000826
 50
90.0000000075559825
 51
269.9999999924439749
  0
CIRCLE
  5
6E9C
  8
0
 10
4237.4502494625194231
 20
139.9312382518708944
 30
0.0
 40
0.3661415
  0
ARC
  5
6E9D
  8
0
 10
4237.4502494625194231
 20
139.9312382518708944
 30
0.0
 40
0.2933070866
 50
90.0000000097446105
 51
269.9999999902553895
  0
ARC
  5
6E9E
  8
0
 10
4237.4502494625194231
 20
139.9312382518708944
 30
0.0
 40
0.2795275591
 50
90.0000000102656941
 51
269.9999999897343059
  0
CIRCLE
  5
6E9F
  8
0
 10
4237.4502494625194231
 20
140.1379311652709134
 30
0.0
 40
0.0196850394
  0
CIRCLE
  5
6EA0
  8
0
 10
4237.5141210853189477
 20
140.1278148940708945
 30
0.0
 40
0.0196850394
  0
CIRCLE
  5
6EA1
  8
0
 10
4237.4502494625194231
 20
140.0926555747709017
 30
0.0
 40
0.0196850394
  0
CIRCLE
  5
6EA2
  8
0
 10
4237.5309581239189356
 20
140.0710297540709064
 30
0.0
 40
0.0196850394
  0
CIRCLE
  5
6EA3
  8
0
 10
4237.646826104619322
 20
139.9951098747708897
 30
0.0
 40
0.0196850394
  0
CIRCLE
  5
6EA4
  8
0
 10
4237.6569423758191988
 20
139.9312382518708944
 30
0.0
 40
0.0196850394
  0
CIRCLE
  5
6EA5
  8
0
 10
4237.5900409646192202
 20
140.01194691327089
 30
0.0
 40
0.0196850394
  0
CIRCLE
  5
6EA6
  8
0
 10
4237.6116667853193576
 20
139.9312382518708944
 30
0.0
 40
0.0196850394
  0
CIRCLE
  5
6EA7
  8
0
 10
4237.5717405087189036
 20
140.0984563314709135
 30
0.0
 40
0.0196850394
  0
CIRCLE
  5
6EA8
  8
0
 10
4237.6174675420179483
 20
140.0527292981709024
 30
0.0
 40
0.0196850394
  0
LINE
  5
6EAD
  8
0
 10
4238.3595797110192507
 20
139.5953503816708974
 30
0.0
 11
4238.3595797110192507
 21
140.2671261220708914
 31
0.0
  0
LINE
  5
6EAE
  8
0
 10
4238.3307516382192262
 20
140.3367232462709069
 30
0.0
 11
4237.8557344568189365
 21
140.8117404276709124
 31
0.0
  0
LINE
  5
6EAF
  8
0
 10
4237.8557344568189365
 20
139.0507360760709048
 30
0.0
 11
4238.3307516382192262
 21
139.5257532575708979
 31
0.0
  0
ARC
  5
6EB0
  8
0
 10
4238.2611545141189708
 20
139.5953503816708974
 30
0.0
 40
0.0984251969
 50
314.9999999779778932
 51
0.0
  0
ARC
  5
6EB1
  8
0
 10
4237.7861373326177272
 20
139.1203332001709043
 30
0.0
 40
0.0984251969
 50
269.9999999779051905
 51
315.0000000000080149
  0
ARC
  5
6EB2
  8
0
 10
4238.2611545141189708
 20
140.2671261220708914
 30
0.0
 40
0.0984251969
 50
359.9999999779003019
 51
44.9999999999919424
  0
ARC
  5
6EB3
  8
0
 10
4237.7861373326177272
 20
140.7421433035709128
 30
0.0
 40
0.0984251969
 50
44.9999999780250803
 51
90.0
  0
ARC
  5
6EB4
  8
0
 10
4237.4502494624193787
 20
139.9312382518708944
 30
0.0
 40
0.5039370079
 50
270.0000000056800218
 51
89.9999999943199924
  0
ARC
  5
6EB5
  8
0
 10
4237.4502494624193787
 20
139.9312382518708944
 30
0.0
 40
0.4960629921
 50
270.0000000057842158
 51
89.99999999421577
  0
ARC
  5
6EB6
  8
0
 10
4237.4502494624193787
 20
139.9312382518708944
 30
0.0
 40
0.4351000237
 50
270.0000000065659265
 51
89.9999999934341162
  0
ARC
  5
6EB7
  8
0
 10
4237.4502494624193787
 20
139.9312382518708944
 30
0.0
 40
0.3800000826
 50
270.0000000075560251
 51
89.9999999924440033
  0
ARC
  5
6EB8
  8
0
 10
4237.4502494624193787
 20
139.9312382518708944
 30
0.0
 40
0.2933070866
 50
270.0000000097446105
 51
89.9999999902553753
  0
ARC
  5
6EB9
  8
0
 10
4237.4502494624193787
 20
139.9312382518708944
 30
0.0
 40
0.2795275591
 50
270.0000000102656941
 51
89.9999999897342917
  0
CIRCLE
  5
6EBA
  8
0
 10
4237.4502494624694009
 20
139.9312382518710081
 30
0.0
 40
0.0830000000000002
  0
ENDSEC
  0
EOF
