  0
SECTION
  2
HEADER
  9
$ACADVER
  1
AC1009
  9
$INSBASE
 10
4216.5056308657885893
 20
158.0341769503135083
 30
0.0
  9
$EXTMIN
 10
4210.541262557589107
 20
154.2802769503076092
 30
0.0
  9
$EXTMAX
 10
4222.4699991739898906
 20
158.0402004564255947
 30
0.0
  9
$LIMMIN
 10
0.0
 20
0.0
  9
$LIMMAX
 10
11.6929133858000007
 20
8.2677165353999982
  9
$ORTHOMODE
 70
     1
  9
$REGENMODE
 70
     1
  9
$FILLMODE
 70
     1
  9
$QTEXTMODE
 70
     0
  9
$MIRRTEXT
 70
     0
  9
$DRAGMODE
 70
     2
  9
$LTSCALE
 40
0.6431102362
  9
$OSMODE
 70
  4095
  9
$ATTMODE
 70
     1
  9
$TEXTSIZE
 40
0.2
  9
$TRACEWID
 40
0.05
  9
$TEXTSTYLE
  7
STANDARD
  9
$CLAYER
  8
0
  9
$CELTYPE
  6
BYLAYER
  9
$CECOLOR
 62
   256
  9
$DIMSCALE
 40
1.0
  9
$DIMASZ
 40
0.1875
  9
$DIMEXO
 40
0.0625
  9
$DIMDLI
 40
0.4443307087
  9
$DIMRND
 40
0.0
  9
$DIMDLE
 40
0.0
  9
$DIMEXE
 40
0.125
  9
$DIMTP
 40
0.01
  9
$DIMTM
 40
0.01
  9
$DIMTXT
 40
2.0
  9
$DIMCEN
 40
0.1052362205
  9
$DIMTSZ
 40
0.0
  9
$DIMTOL
 70
     1
  9
$DIMLIM
 70
     0
  9
$DIMTIH
 70
     1
  9
$DIMTOH
 70
     1
  9
$DIMSE1
 70
     0
  9
$DIMSE2
 70
     0
  9
$DIMTAD
 70
     0
  9
$DIMZIN
 70
     0
  9
$DIMBLK
  1

  9
$DIMASO
 70
     1
  9
$DIMSHO
 70
     1
  9
$DIMPOST
  1
\X
  9
$DIMAPOST
  1

  9
$DIMALT
 70
     1
  9
$DIMALTD
 70
     2
  9
$DIMALTF
 40
25.3999999999999986
  9
$DIMLFAC
 40
1.0
  9
$DIMTOFL
 70
     0
  9
$DIMTVP
 40
0.0
  9
$DIMTIX
 70
     0
  9
$DIMSOXD
 70
     0
  9
$DIMSAH
 70
     0
  9
$DIMBLK1
  1

  9
$DIMBLK2
  1

  9
$DIMSTYLE
  2
STANDARD
  9
$DIMCLRD
 70
     0
  9
$DIMCLRE
 70
     0
  9
$DIMCLRT
 70
     0
  9
$DIMTFAC
 40
1.0
  9
$DIMGAP
 40
0.09
  9
$LUNITS
 70
     2
  9
$LUPREC
 70
     4
  9
$SKETCHINC
 40
0.1
  9
$FILLETRAD
 40
0.0
  9
$AUNITS
 70
     0
  9
$AUPREC
 70
     0
  9
$MENU
  1
.
  9
$ELEVATION
 40
0.0
  9
$PELEVATION
 40
0.0
  9
$THICKNESS
 40
0.0
  9
$LIMCHECK
 70
     0
  9
$BLIPMODE
 70
     0
  9
$CHAMFERA
 40
0.0
  9
$CHAMFERB
 40
0.0
  9
$SKPOLY
 70
     0
  9
$TDCREATE
 40
2458060.468368056230247
  9
$TDUPDATE
 40
2459058.5317592588253319
  9
$TDINDWG
 40
0.3295325231
  9
$TDUSRTIMER
 40
0.3295325231
  9
$USRTIMER
 70
     1
  9
$ANGBASE
 50
0.0
  9
$ANGDIR
 70
     0
  9
$PDMODE
 70
     0
  9
$PDSIZE
 40
0.3125
  9
$PLINEWID
 40
0.0
  9
$COORDS
 70
     1
  9
$SPLFRAME
 70
     0
  9
$SPLINETYPE
 70
     6
  9
$SPLINESEGS
 70
     8
  9
$ATTDIA
 70
     1
  9
$ATTREQ
 70
     1
  9
$HANDLING
 70
     1
  9
$HANDSEED
  5
6FF2
  9
$SURFTAB1
 70
     6
  9
$SURFTAB2
 70
     6
  9
$SURFTYPE
 70
     6
  9
$SURFU
 70
     6
  9
$SURFV
 70
     6
  9
$UCSNAME
  2

  9
$UCSORG
 10
0.0
 20
0.0
 30
0.0
  9
$UCSXDIR
 10
1.0
 20
0.0
 30
0.0
  9
$UCSYDIR
 10
0.0
 20
1.0
 30
0.0
  9
$PUCSNAME
  2

  9
$PUCSORG
 10
0.0
 20
0.0
 30
0.0
  9
$PUCSXDIR
 10
1.0
 20
0.0
 30
0.0
  9
$PUCSYDIR
 10
0.0
 20
1.0
 30
0.0
  9
$USERI1
 70
     0
  9
$USERI2
 70
     0
  9
$USERI3
 70
     0
  9
$USERI4
 70
     0
  9
$USERI5
 70
     0
  9
$USERR1
 40
0.0
  9
$USERR2
 40
0.0
  9
$USERR3
 40
0.0
  9
$USERR4
 40
0.0
  9
$USERR5
 40
0.0
  9
$WORLDVIEW
 70
     1
  9
$SHADEDGE
 70
     3
  9
$SHADEDIF
 70
    70
  9
$TILEMODE
 70
     1
  9
$MAXACTVP
 70
    64
  9
$PLIMCHECK
 70
     0
  9
$PEXTMIN
 10
1.0000000000000000E+20
 20
1.0000000000000000E+20
 30
1.0000000000000000E+20
  9
$PEXTMAX
 10
-1.0000000000000000E+20
 20
-1.0000000000000000E+20
 30
-1.0000000000000000E+20
  9
$PLIMMIN
 10
0.0
 20
0.0
  9
$PLIMMAX
 10
12.0
 20
9.0
  9
$UNITMODE
 70
     0
  9
$VISRETAIN
 70
     1
  9
$PLINEGEN
 70
     0
  9
$PSLTSCALE
 70
     1
  0
ENDSEC
  0
SECTION
  2
TABLES
  0
TABLE
  2
VPORT
 70
     1
  0
VPORT
  2
*ACTIVE
 70
     0
 10
0.0
 20
0.0
 11
1.0
 21
1.0
 12
0.0
 22
0.0
 13
0.0
 23
0.0
 14
1.0
 24
1.0
 15
0.0
 25
0.0
 16
0.0
 26
0.0
 36
45.9862011581579395
 17
4216.505859375
 27
156.1602369469626979
 37
0.0
 40
12.5155349477726698
 41
2.8917682926829258
 42
50.0
 43
0.0
 44
0.0
 50
0.0
 51
0.0
 71
     0
 72
   100
 73
     1
 74
     1
 75
     0
 76
     0
 77
     0
 78
     0
  0
ENDTAB
  0
TABLE
  2
LTYPE
 70
     2
  0
LTYPE
  2
CONTINUOUS
 70
     0
  3
Solid line
 72
    65
 73
     0
 40
0.0
  0
LTYPE
  2
PHANTOM2
 70
     0
  3
___ _ _ ___ _ _ ___ _ _ ___ _ _
 72
    65
 73
     6
 40
1.25
 49
0.625
 49
-0.125
 49
0.125
 49
-0.125
 49
0.125
 49
-0.125
  0
ENDTAB
  0
TABLE
  2
LAYER
 70
     2
  0
LAYER
  2
0
 70
     0
 62
   255
  6
CONTINUOUS
  0
LAYER
  2
DEFPOINTS
 70
     0
 62
     7
  6
CONTINUOUS
  0
ENDTAB
  0
TABLE
  2
STYLE
 70
     1
  0
STYLE
  2
STANDARD
 70
     0
 40
0.0
 41
0.8
 50
0.0
 71
     0
 42
0.2
  3
txt
  4

  0
ENDTAB
  0
TABLE
  2
VIEW
 70
     0
  0
ENDTAB
  0
TABLE
  2
UCS
 70
     0
  0
ENDTAB
  0
TABLE
  2
APPID
 70
     9
  0
APPID
  2
ACAD
 70
     0
  0
APPID
  2
ACAD_MLEADERVER
 70
     0
  0
APPID
  2
ACAD_EXEMPT_FROM_CAD_STANDARDS
 70
     0
  0
APPID
  2
ACAD_NAV_VCDISPLAY
 70
     0
  0
APPID
  2
ACAECLAYERSTANDARD
 70
     0
  0
APPID
  2
ACCMTRANSPARENCY
 70
     0
  0
APPID
  2
ACAD_DSTYLE_DIMJAG
 70
     0
  0
APPID
  2
ACAD_DSTYLE_DIMTALN
 70
     0
  0
APPID
  2
ACDBATTR
 70
     0
  0
ENDTAB
  0
TABLE
  2
DIMSTYLE
 70
     1
  0
DIMSTYLE
  2
STANDARD
 70
     0
  3

  4

  5

  6

  7

 40
1.0
 41
0.1875
 42
0.0625
 43
0.38
 44
0.125
 45
0.0
 46
0.0
 47
0.01
 48
0.01
140
0.15625
141
0.09
142
0.0
143
25.3999999999999986
144
1.0
145
0.0
146
1.0
147
0.09
 71
     1
 72
     0
 73
     1
 74
     1
 75
     0
 76
     0
 77
     0
 78
     4
170
     0
171
     2
172
     0
173
     0
174
     0
175
     0
176
     0
177
     0
178
     0
  0
ENDTAB
  0
ENDSEC
  0
SECTION
  2
BLOCKS
  0
BLOCK
  8
0
  2
$MODEL_SPACE
 70
     0
 10
0.0
 20
0.0
 30
0.0
  3
$MODEL_SPACE
  1

  0
ENDBLK
  5
21
  8
0
  0
BLOCK
 67
     1
  8
0
  2
$PAPER_SPACE
 70
     0
 10
0.0
 20
0.0
 30
0.0
  3
$PAPER_SPACE
  1

  0
ENDBLK
  5
1D
 67
     1
  8
0
  0
BLOCK
  8
0
  2
_FILLED
 70
     0
 10
0.0
 20
0.0
 30
0.0
  3
_FILLED
  1

  0
SOLID
  5
6CDD
  8
0
  6
BYBLOCK
 62
     0
 10
0.0
 20
0.0
 30
0.0
 11
-1.0
 21
0.1666666667
 31
0.0
 12
-1.0
 22
-0.1666666667
 32
0.0
 13
-1.0
 23
-0.1666666667
 33
0.0
  0
ENDBLK
  5
6CDE
  8
0
  6
BYBLOCK
 62
     0
  0
ENDSEC
  0
SECTION
  2
ENTITIES
  0
ATTDEF
  5
3930
  8
DEFPOINTS
 10
4216.5099815487546948
 20
158.0392004564255046
 30
0.0
 40
0.001
  1
K-26291W-G
  3

  2
MODELNUMBER
 70
     0
1001
ACDBATTR
1070
     0
1070
     1
  0
ATTDEF
  5
3931
  8
DEFPOINTS
 10
4216.5099815487546948
 20
158.0375337897588111
 30
0.0
 40
0.001
  1

  3

  2
TRADENAME
 70
     0
1001
ACDBATTR
1070
     0
1070
     1
  0
ATTDEF
  5
3932
  8
DEFPOINTS
 10
4216.5099815487546948
 20
158.0358671230922027
 30
0.0
 40
0.001
  1
SHOWERHEAD
  3

  2
PRODUCT
 70
     0
1001
ACDBATTR
1070
     0
1070
     1
  0
LINE
  5
6DED
  8
0
 10
4215.5963006172041787
 20
156.9396470290135142
 30
0.0
 11
4215.5963006172041787
 21
157.0183871865135075
 31
0.0
  0
LINE
  5
6DEE
  8
0
 10
4215.6356706960041265
 20
157.0577572652134961
 30
0.0
 11
4217.3755910355039305
 21
157.0577572652134961
 31
0.0
  0
ARC
  5
6DEF
  8
0
 10
4215.6380460487507662
 20
156.9420223818673037
 30
0.0
 40
0.0418129567991251
 50
183.2566700415742105
 51
266.7433301039474145
  0
ARC
  5
6DF0
  8
0
 10
4215.637034579358442
 20
157.0170233030559928
 30
0.0
 40
0.0407567890155092
 50
91.9177014202859368
 51
178.0822984342050006
  0
LINE
  5
6DF1
  8
0
 10
4215.6356706960041265
 20
156.9002769503134971
 30
0.0
 11
4217.3755910355039305
 21
156.9002769503134971
 31
0.0
  0
ARC
  5
6DF2
  8
0
 10
4215.1894221921202188
 20
111.8002523996420052
 30
0.0
 40
45.1022322307707881
 50
89.43309739224091
 51
91.6936103719275479
  0
LINE
  5
6DF3
  8
0
 10
4216.1001458714035834
 20
156.9396470290135142
 30
0.0
 11
4216.1001458714035834
 21
157.0183871865135075
 31
0.0
  0
ARC
  5
6DF4
  8
0
 10
4216.1420186242430646
 20
156.9421497030537012
 30
0.0
 40
0.0419474766749286
 50
183.4204170827412952
 51
266.5795829172594154
  0
ARC
  5
6DF5
  8
0
 10
4216.1422459810682994
 20
157.0156571556495066
 30
0.0
 40
0.0421885327289083
 50
93.710217160711565
 51
176.2897828392841859
  0
LINE
  5
6DF6
  8
0
 10
4217.4149611143029688
 20
156.9396470290135142
 30
0.0
 11
4217.4149611143029688
 21
157.0183871865135075
 31
0.0
  0
LINE
  5
6DF7
  8
0
 10
4217.0006308658248599
 20
158.0140865489354098
 30
0.0
 11
4217.0006307542271315
 21
157.9083189769712874
 31
0.0
  0
ARC
  5
6DF8
  8
0
 10
4216.5553308770731746
 20
156.8025922884619092
 30
0.0
 40
0.4611629922009183
 50
33.5942236719162679
 51
51.7001218222915
  0
ARC
  5
6DF9
  8
0
 10
4216.7706450668156322
 20
157.4956178781210951
 30
0.0
 40
0.2299781973856997
 50
292.5387342861739057
 51
324.9047749685677218
  0
ARC
  5
6DFA
  8
0
 10
4216.8856308658523631
 20
157.2185525700247979
 30
0.0
 40
0.0700000000595099
 50
112.5403104981522944
 51
230.5465201192980942
  0
ARC
  5
6DFB
  8
0
 10
4217.3732156827563813
 20
156.9420223818673037
 30
0.0
 40
0.0418129567991251
 50
273.2566698960526992
 51
356.7433299584258179
  0
ARC
  5
6DFC
  8
0
 10
4217.3742271521487055
 20
157.0170233030559928
 30
0.0
 40
0.0407567890155092
 50
1.9177015657949621
 51
88.0822985797140632
  0
ARC
  5
6DFD
  8
0
 10
4216.9807751856069444
 20
158.0143408612684937
 30
0.0
 40
0.0198573087730517
 50
359.266193526899599
 51
87.3509751947476616
  0
ARC
  5
6DFE
  8
0
 10
4217.7885449034938574
 20
104.5469028344094937
 30
0.0
 40
52.3550027429747118
 50
88.2372582442501994
 51
90.4519292879648162
  0
LINE
  5
6DFF
  8
0
 10
4216.911115860105383
 20
156.9396470290135142
 30
0.0
 11
4216.911115860105383
 21
157.0183871865135075
 31
0.0
  0
ARC
  5
6E00
  8
0
 10
4216.8692431072640829
 20
156.9421497030537012
 30
0.0
 40
0.0419474766749286
 50
273.4204170827405846
 51
356.5795829172570279
  0
ARC
  5
6E01
  8
0
 10
4216.8690157504397575
 20
157.0156571556495066
 30
0.0
 40
0.0421885327289083
 50
3.7102171607157421
 51
86.2897828392884634
  0
ARC
  5
6E02
  8
0
 10
4216.9502280617098222
 20
157.3692815779963041
 30
0.0
 40
0.0104090757978145
 50
325.5605936779501235
 51
356.3180906781365138
  0
LINE
  5
6E03
  8
0
 10
4216.9606262711859017
 20
157.860034814284802
 30
0.0
 11
4216.9606156525942424
 21
157.3686131360724971
 31
0.0
  0
ARC
  5
6E04
  8
0
 10
4216.9708714479793343
 20
157.8599701757219123
 30
0.0
 40
0.0102453806991458
 50
130.6468207178089926
 51
179.6385159786582051
  0
ARC
  5
6E05
  8
0
 10
-13060.3821350197704305
 20
17435.2475300970290846
 30
0.0
 40
24433.8811608231117134
 50
314.999944529909726
 51
315.0000556378993792
  0
ARC
  5
6E06
  8
0
 10
4216.990269299090869
 20
157.9084688518595954
 30
0.0
 40
0.0103626490164691
 50
315.8280942180306283
 51
359.1719123521673964
  0
LINE
  5
6E07
  8
0
 10
4216.0106308657532281
 20
158.0140865489354098
 30
0.0
 11
4216.0106309773509565
 21
157.9083189769712874
 31
0.0
  0
ARC
  5
6E08
  8
0
 10
4216.4559308544330634
 20
156.8025922884619092
 30
0.0
 40
0.4611629922009183
 50
128.2998781777083934
 51
146.4057763280837037
  0
ARC
  5
6E09
  8
0
 10
4216.2406166646896963
 20
157.4956178781210951
 30
0.0
 40
0.2299781973856997
 50
215.095225031432193
 51
247.4612657138260943
  0
ARC
  5
6E0A
  8
0
 10
4216.1256308656547844
 20
157.2185525700247979
 30
0.0
 40
0.0700000000595099
 50
309.4534798807018205
 51
67.459689501847663
  0
ARC
  5
6E0B
  8
0
 10
4216.0304865459711436
 20
158.0143408612684937
 30
0.0
 40
0.0198573087730517
 50
92.6490248052523384
 51
180.733806473100401
  0
ARC
  5
6E0C
  8
0
 10
4216.0610336697973253
 20
157.3692815779963041
 30
0.0
 40
0.0104090757978145
 50
183.6819093218634862
 51
214.4394063220499902
  0
LINE
  5
6E0D
  8
0
 10
4216.0506354603221553
 20
157.860034814284802
 30
0.0
 11
4216.0506460789138146
 21
157.3686131360724971
 31
0.0
  0
ARC
  5
6E0E
  8
0
 10
4216.0403902839170769
 20
157.8599701759619052
 30
0.0
 40
0.0102453803102958
 50
0.3614826930724664
 51
49.3531797548714977
  0
ARC
  5
6E0F
  8
0
 10
21493.3933967513512471
 20
17435.2475300970290846
 30
0.0
 40
24433.8811608231117134
 50
224.9999443620993986
 51
225.0000554700901887
  0
ARC
  5
6E10
  8
0
 10
4216.020992432487219
 20
157.9084688518595954
 30
0.0
 40
0.0103626490164691
 50
180.8280876478324046
 51
224.1719057819692864
  0
LINE
  5
6E11
  8
0
 10
4210.5562226179899881
 20
154.2802769503134925
 30
0.0
 11
4222.4550391135890095
 21
154.2802769503134925
 31
0.0
  0
ARC
  5
6E12
  8
0
 10
3340.1139356715111717
 20
146.8982585761023074
 30
0.0
 40
882.3870681917413776
 50
0.4803115454751816
 51
0.5377723749689775
  0
ARC
  5
6E13
  8
0
 10
4218.094862647672926
 20
155.1387672512028928
 30
0.0
 40
4.3674704098905242
 50
0.5426686905217427
 51
10.2261082910795196
  0
ARC
  5
6E14
  8
0
 10
4221.4376554656710141
 20
155.7418032837520059
 30
0.0
 40
0.9707195681869292
 50
10.2261082910795196
 51
73.2014974981496493
  0
ARC
  5
6E15
  8
0
 10
4218.9296962134603746
 20
128.6940792240899043
 30
0.0
 40
28.1869582349350516
 50
85.5980401808521378
 51
89.0459460045688331
  0
ARC
  5
6E16
  8
0
 10
4220.9535845628543029
 20
154.5057610208536119
 30
0.0
 40
2.2963725740539691
 50
70.5510629310618071
 51
86.5160280371047179
  0
ARC
  5
6E17
  8
0
 10
4214.9163990839060716
 20
155.1387672512028928
 30
0.0
 40
4.3674704098905242
 50
169.7738917089205017
 51
179.4573313094782065
  0
ARC
  5
6E18
  8
0
 10
4211.573606265908893
 20
155.7418032837520059
 30
0.0
 40
0.9707195681869292
 50
106.7985025018502938
 51
169.7738917089205017
  0
ARC
  5
6E19
  8
0
 10
4214.2132244718259244
 20
126.5658485115811942
 30
0.0
 40
30.3190331445021712
 50
90.674261203537398
 51
94.3413403810749429
  0
ARC
  5
6E1A
  8
0
 10
4212.0576771687274231
 20
154.5057610208536119
 30
0.0
 40
2.2963725740539691
 50
93.4839719628952963
 51
109.4489370689382071
  0
LINE
  5
6E1C
  8
0
 10
4216.0295687861389524
 20
158.0341769503135083
 30
0.0
 11
4216.9816929454400452
 21
158.0341769503135083
 31
0.0
  0
ARC
  5
6E1D
  8
0
 10
5092.8973260600696449
 20
146.8982585761021085
 30
0.0
 40
882.3870681917413776
 50
179.4622276250310051
 51
179.519688454524811
  0
LINE
  5
6E1E
  8
0
 62
     1
 10
4210.541262557589107
 20
154.2952385290809048
 30
0.0
 11
4210.5412625579228916
 21
154.295238529089886
 31
0.0
  0
ARC
  5
6E1F
  8
0
 10
4210.5562221960872193
 20
154.2952365885979873
 30
0.0
 40
0.0149596382903815
 50
179.9925678686958008
 51
270.0016158989856763
  0
ARC
  5
6E20
  8
0
 10
4222.4550395354935972
 20
154.2952365885979873
 30
0.0
 40
0.0149596382903815
 50
269.9983841010143237
 51
0.007432131304238
  0
ENDSEC
  0
EOF
