  0
SECTION
  2
HEADER
  9
$ACADVER
  1
AC1009
  9
$INSBASE
 10
4213.1140582279840601
 20
150.1251698831862882
 30
0.0
  9
$EXTMIN
 10
4206.1651902663743385
 20
146.371433662686286
 30
0.0
  9
$EXTMAX
 10
4220.0629261895937816
 20
150.1367774964809882
 30
0.0
  9
$LIMMIN
 10
0.0
 20
0.0
  9
$LIMMAX
 10
11.6929133858000007
 20
8.2677165353999982
  9
$ORTHOMODE
 70
     1
  9
$REGENMODE
 70
     1
  9
$FILLMODE
 70
     1
  9
$QTEXTMODE
 70
     0
  9
$MIRRTEXT
 70
     0
  9
$DRAGMODE
 70
     2
  9
$LTSCALE
 40
0.6431102362
  9
$OSMODE
 70
  4095
  9
$ATTMODE
 70
     1
  9
$TEXTSIZE
 40
0.2
  9
$TRACEWID
 40
0.05
  9
$TEXTSTYLE
  7
STANDARD
  9
$CLAYER
  8
0
  9
$CELTYPE
  6
BYLAYER
  9
$CECOLOR
 62
   256
  9
$DIMSCALE
 40
1.0
  9
$DIMASZ
 40
0.1875
  9
$DIMEXO
 40
0.0625
  9
$DIMDLI
 40
0.4443307087
  9
$DIMRND
 40
0.0
  9
$DIMDLE
 40
0.0
  9
$DIMEXE
 40
0.125
  9
$DIMTP
 40
0.01
  9
$DIMTM
 40
0.01
  9
$DIMTXT
 40
2.0
  9
$DIMCEN
 40
0.1052362205
  9
$DIMTSZ
 40
0.0
  9
$DIMTOL
 70
     1
  9
$DIMLIM
 70
     0
  9
$DIMTIH
 70
     1
  9
$DIMTOH
 70
     1
  9
$DIMSE1
 70
     0
  9
$DIMSE2
 70
     0
  9
$DIMTAD
 70
     0
  9
$DIMZIN
 70
     0
  9
$DIMBLK
  1

  9
$DIMASO
 70
     1
  9
$DIMSHO
 70
     1
  9
$DIMPOST
  1
\X
  9
$DIMAPOST
  1

  9
$DIMALT
 70
     1
  9
$DIMALTD
 70
     2
  9
$DIMALTF
 40
25.3999999999999986
  9
$DIMLFAC
 40
1.0
  9
$DIMTOFL
 70
     0
  9
$DIMTVP
 40
0.0
  9
$DIMTIX
 70
     0
  9
$DIMSOXD
 70
     0
  9
$DIMSAH
 70
     0
  9
$DIMBLK1
  1

  9
$DIMBLK2
  1

  9
$DIMSTYLE
  2
STANDARD
  9
$DIMCLRD
 70
     0
  9
$DIMCLRE
 70
     0
  9
$DIMCLRT
 70
     0
  9
$DIMTFAC
 40
1.0
  9
$DIMGAP
 40
0.09
  9
$LUNITS
 70
     2
  9
$LUPREC
 70
     4
  9
$SKETCHINC
 40
0.1
  9
$FILLETRAD
 40
0.0
  9
$AUNITS
 70
     0
  9
$AUPREC
 70
     0
  9
$MENU
  1
.
  9
$ELEVATION
 40
0.0
  9
$PELEVATION
 40
0.0
  9
$THICKNESS
 40
0.0
  9
$LIMCHECK
 70
     0
  9
$BLIPMODE
 70
     0
  9
$CHAMFERA
 40
0.0
  9
$CHAMFERB
 40
0.0
  9
$SKPOLY
 70
     0
  9
$TDCREATE
 40
2458060.468368056230247
  9
$TDUPDATE
 40
2459241.5705555560998619
  9
$TDINDWG
 40
0.3100880787
  9
$TDUSRTIMER
 40
0.3100880787
  9
$USRTIMER
 70
     1
  9
$ANGBASE
 50
0.0
  9
$ANGDIR
 70
     0
  9
$PDMODE
 70
     0
  9
$PDSIZE
 40
0.3125
  9
$PLINEWID
 40
0.0
  9
$COORDS
 70
     1
  9
$SPLFRAME
 70
     0
  9
$SPLINETYPE
 70
     6
  9
$SPLINESEGS
 70
     8
  9
$ATTDIA
 70
     1
  9
$ATTREQ
 70
     1
  9
$HANDLING
 70
     1
  9
$HANDSEED
  5
6E07
  9
$SURFTAB1
 70
     6
  9
$SURFTAB2
 70
     6
  9
$SURFTYPE
 70
     6
  9
$SURFU
 70
     6
  9
$SURFV
 70
     6
  9
$UCSNAME
  2

  9
$UCSORG
 10
0.0
 20
0.0
 30
0.0
  9
$UCSXDIR
 10
1.0
 20
0.0
 30
0.0
  9
$UCSYDIR
 10
0.0
 20
1.0
 30
0.0
  9
$PUCSNAME
  2

  9
$PUCSORG
 10
0.0
 20
0.0
 30
0.0
  9
$PUCSXDIR
 10
1.0
 20
0.0
 30
0.0
  9
$PUCSYDIR
 10
0.0
 20
1.0
 30
0.0
  9
$USERI1
 70
     0
  9
$USERI2
 70
     0
  9
$USERI3
 70
     0
  9
$USERI4
 70
     0
  9
$USERI5
 70
     0
  9
$USERR1
 40
0.0
  9
$USERR2
 40
0.0
  9
$USERR3
 40
0.0
  9
$USERR4
 40
0.0
  9
$USERR5
 40
0.0
  9
$WORLDVIEW
 70
     1
  9
$SHADEDGE
 70
     3
  9
$SHADEDIF
 70
    70
  9
$TILEMODE
 70
     1
  9
$MAXACTVP
 70
    64
  9
$PLIMCHECK
 70
     0
  9
$PEXTMIN
 10
1.0000000000000000E+20
 20
1.0000000000000000E+20
 30
1.0000000000000000E+20
  9
$PEXTMAX
 10
-1.0000000000000000E+20
 20
-1.0000000000000000E+20
 30
-1.0000000000000000E+20
  9
$PLIMMIN
 10
0.0
 20
0.0
  9
$PLIMMAX
 10
12.0
 20
9.0
  9
$UNITMODE
 70
     0
  9
$VISRETAIN
 70
     1
  9
$PLINEGEN
 70
     0
  9
$PSLTSCALE
 70
     1
  0
ENDSEC
  0
SECTION
  2
TABLES
  0
TABLE
  2
VPORT
 70
     1
  0
VPORT
  2
*ACTIVE
 70
     0
 10
0.0
 20
0.0
 11
1.0
 21
1.0
 12
0.0
 22
0.0
 13
0.0
 23
0.0
 14
1.0
 24
1.0
 15
0.0
 25
0.0
 16
0.0
 26
0.0
 36
40.7991946587796619
 17
4213.114013671875
 27
148.2541034699200964
 37
0.0
 40
14.4040977275401207
 41
2.1186252771618621
 42
50.0
 43
0.0
 44
0.0
 50
0.0
 51
0.0
 71
     0
 72
   100
 73
     1
 74
     1
 75
     0
 76
     0
 77
     0
 78
     0
  0
ENDTAB
  0
TABLE
  2
LTYPE
 70
     2
  0
LTYPE
  2
CONTINUOUS
 70
     0
  3
Solid line
 72
    65
 73
     0
 40
0.0
  0
LTYPE
  2
PHANTOM2
 70
     0
  3
___ _ _ ___ _ _ ___ _ _ ___ _ _
 72
    65
 73
     6
 40
1.25
 49
0.625
 49
-0.125
 49
0.125
 49
-0.125
 49
0.125
 49
-0.125
  0
ENDTAB
  0
TABLE
  2
LAYER
 70
     2
  0
LAYER
  2
0
 70
     0
 62
   255
  6
CONTINUOUS
  0
LAYER
  2
DEFPOINTS
 70
     0
 62
     7
  6
CONTINUOUS
  0
ENDTAB
  0
TABLE
  2
STYLE
 70
     1
  0
STYLE
  2
STANDARD
 70
     0
 40
0.0
 41
0.8
 50
0.0
 71
     0
 42
0.2
  3
txt
  4

  0
ENDTAB
  0
TABLE
  2
VIEW
 70
     0
  0
ENDTAB
  0
TABLE
  2
UCS
 70
     0
  0
ENDTAB
  0
TABLE
  2
APPID
 70
     9
  0
APPID
  2
ACAD
 70
     0
  0
APPID
  2
ACAD_MLEADERVER
 70
     0
  0
APPID
  2
ACAD_EXEMPT_FROM_CAD_STANDARDS
 70
     0
  0
APPID
  2
ACAD_NAV_VCDISPLAY
 70
     0
  0
APPID
  2
ACAECLAYERSTANDARD
 70
     0
  0
APPID
  2
ACCMTRANSPARENCY
 70
     0
  0
APPID
  2
ACAD_DSTYLE_DIMJAG
 70
     0
  0
APPID
  2
ACAD_DSTYLE_DIMTALN
 70
     0
  0
APPID
  2
ACDBATTR
 70
     0
  0
ENDTAB
  0
TABLE
  2
DIMSTYLE
 70
     1
  0
DIMSTYLE
  2
STANDARD
 70
     0
  3

  4

  5

  6

  7

 40
1.0
 41
0.1875
 42
0.0625
 43
0.38
 44
0.125
 45
0.0
 46
0.0
 47
0.01
 48
0.01
140
0.15625
141
0.09
142
0.0
143
25.3999999999999986
144
1.0
145
0.0
146
1.0
147
0.09
 71
     1
 72
     0
 73
     1
 74
     1
 75
     0
 76
     0
 77
     0
 78
     4
170
     0
171
     2
172
     0
173
     0
174
     0
175
     0
176
     0
177
     0
178
     0
  0
ENDTAB
  0
ENDSEC
  0
SECTION
  2
BLOCKS
  0
BLOCK
  8
0
  2
$MODEL_SPACE
 70
     0
 10
0.0
 20
0.0
 30
0.0
  3
$MODEL_SPACE
  1

  0
ENDBLK
  5
21
  8
0
  0
BLOCK
 67
     1
  8
0
  2
$PAPER_SPACE
 70
     0
 10
0.0
 20
0.0
 30
0.0
  3
$PAPER_SPACE
  1

  0
ENDBLK
  5
1D
 67
     1
  8
0
  0
ENDSEC
  0
SECTION
  2
ENTITIES
  0
ATTDEF
  5
3930
  8
DEFPOINTS
 10
4213.1108996113362082
 20
150.1357774964808982
 30
0.0
 40
0.001
  1
K-26292W
  3

  2
MODELNUMBER
 70
     0
1001
ACDBATTR
1070
     0
1070
     1
  0
ATTDEF
  5
3931
  8
DEFPOINTS
 10
4213.1108996113362082
 20
150.1341108298142899
 30
0.0
 40
0.001
  1

  3

  2
TRADENAME
 70
     0
1001
ACDBATTR
1070
     0
1070
     1
  0
ATTDEF
  5
3932
  8
DEFPOINTS
 10
4213.1108996113362082
 20
150.1324441631475963
 30
0.0
 40
0.001
  1
SHOWERHEAD
  3

  2
PRODUCT
 70
     0
1001
ACDBATTR
1070
     0
1070
     1
  0
LINE
  5
6C82
  8
0
 10
4212.6593050295850844
 20
149.4573243366492079
 30
0.0
 11
4212.6593050295850844
 21
149.9558785445863123
 31
0.0
  0
LINE
  5
6C83
  8
0
 10
4213.5687538484844481
 20
149.9558785445863123
 30
0.0
 11
4213.6101212200337613
 21
149.9972459160362064
 31
0.0
  0
LINE
  5
6C84
  8
0
 10
4213.5687538484844481
 20
149.9558785445863123
 30
0.0
 11
4213.5687538484844481
 21
149.4572421637550121
 31
0.0
  0
LINE
  5
6C85
  8
0
 10
4212.6179952359343588
 20
149.9971883381363966
 30
0.0
 11
4212.6593050295850844
 21
149.9558785445863123
 31
0.0
  0
LINE
  5
6C86
  8
0
 10
4206.180189695332956
 20
146.371433662686286
 30
0.0
 11
4220.0479267606342546
 21
146.371433662686286
 31
0.0
  0
LINE
  5
6C87
  8
0
 10
4212.2047279794342103
 20
149.0306816941863133
 30
0.0
 11
4212.2047279794342103
 21
149.1094218516863066
 31
0.0
  0
LINE
  5
6C88
  8
0
 10
4212.6179952359343588
 20
150.1051698831863064
 30
0.0
 11
4212.6179952359343588
 21
149.9971883381363966
 31
0.0
  0
LINE
  5
6C89
  8
0
 10
4212.2440980582341581
 20
149.1487919303862952
 30
0.0
 11
4213.9840183977330526
 21
149.1487919303862952
 31
0.0
  0
LINE
  5
6C8A
  8
0
 10
4213.5901203076336969
 20
150.1251698831862882
 30
0.0
 11
4212.6379961483344232
 21
150.1251698831862882
 31
0.0
  0
ARC
  5
6C8B
  8
0
 10
4213.1131759528770999
 20
148.8505126838167882
 30
0.0
 40
0.5262778689334157
 50
129.3611924221247875
 51
145.4746086108333998
  0
ARC
  5
6C8C
  8
0
 10
4212.846341692342321
 20
149.5883181950489984
 30
0.0
 40
0.2283464564082678
 50
215.0060381444291124
 51
248.0877877553934923
  0
ARC
  5
6C8D
  8
0
 10
4212.7350031097703322
 20
149.3115252614354915
 30
0.0
 40
0.0700000000710148
 50
309.370992760593424
 51
68.0877876998934397
  0
ARC
  5
6C8E
  8
0
 10
4212.2464734109807978
 20
149.0330570470401028
 30
0.0
 40
0.0418129567991251
 50
183.2566700415742105
 51
266.7433301039474145
  0
ARC
  5
6C8F
  8
0
 10
4212.2454619415875641
 20
149.1080579682287919
 30
0.0
 40
0.0407567890155092
 50
91.9177014202858942
 51
178.0822984342050006
  0
ARC
  5
6C90
  8
0
 10
4212.6398541243215732
 20
150.1033109100166882
 30
0.0
 40
0.0219377934807047
 50
94.8583673307486492
 51
175.1390188954324003
  0
ARC
  5
6C91
  8
0
 10
4206.1811102966621547
 20
146.3873462658993958
 30
0.0
 40
0.0159392110163308
 50
182.8111261089073878
 51
266.6889238914733937
  0
LINE
  5
6C92
  8
0
 10
4212.2440980582341581
 20
148.9913116154862962
 30
0.0
 11
4213.9840183977330526
 21
148.9913116154862962
 31
0.0
  0
ARC
  5
6C93
  8
0
 10
4212.1595244078471296
 20
25.0991912503828587
 30
0.0
 40
123.8921492317556954
 50
89.9608876459823961
 51
91.1693358396500173
  0
ARC
  5
6C94
  8
0
 10
4210.3556841495874323
 20
100.280813955584307
 30
0.0
 40
48.6901158546256099
 50
90.8525461679855937
 51
93.2911460703702318
  0
ARC
  5
6C95
  8
0
 10
4207.620977038485762
 20
147.1400544679829068
 30
0.0
 40
1.751618648715451
 50
91.9819909913539249
 51
132.1531958364589059
  0
LINE
  5
6C96
  8
0
 10
4206.1651902663743385
 20
146.3865645476292059
 30
0.0
 11
4206.1651902663743385
 21
146.6878822664523057
 31
0.0
  0
ARC
  5
6C97
  8
0
 10
4224.8666695224947034
 20
146.6064084632768925
 30
0.0
 40
18.7016567273527485
 50
176.4649570664809914
 51
179.7503900377876107
  0
ARC
  5
6C98
  8
0
 10
4207.45351637983822
 20
147.6914821656700099
 30
0.0
 40
1.2547661887846779
 50
143.4558708487234071
 51
176.8910590101401112
  0
LINE
  5
6C99
  8
0
 10
4212.708573233633615
 20
149.0306816941863133
 30
0.0
 11
4212.708573233633615
 21
149.1094218516863066
 31
0.0
  0
ARC
  5
6C9A
  8
0
 10
4212.7504459864740056
 20
149.0331843682265003
 30
0.0
 40
0.0419474766749286
 50
183.4204170827412952
 51
266.5795829172594154
  0
ARC
  5
6C9B
  8
0
 10
4212.7506733432992405
 20
149.1066918208223058
 30
0.0
 40
0.0421885327289083
 50
93.710217160711565
 51
176.2897828392875113
  0
LINE
  5
6C9C
  8
0
 10
4214.0233884765330004
 20
149.0306816941863133
 30
0.0
 11
4214.0233884765330004
 21
149.1094218516863066
 31
0.0
  0
LINE
  5
6C9D
  8
0
 10
4213.6101212200337613
 20
150.1051698831863064
 30
0.0
 11
4213.6101212200337613
 21
149.9972459160362064
 31
0.0
  0
ARC
  5
6C9E
  8
0
 10
4213.1149405030910202
 20
148.8505126838167882
 30
0.0
 40
0.5262778689334157
 50
34.5253913891665292
 51
50.6388075778751912
  0
ARC
  5
6C9F
  8
0
 10
4213.3817747636248896
 20
149.5883181950489984
 30
0.0
 40
0.2283464564082678
 50
291.9122122446065077
 51
324.968785589699678
  0
ARC
  5
6CA0
  8
0
 10
4213.4931133461968784
 20
149.3115252614354915
 30
0.0
 40
0.0700000000710148
 50
111.9122123001065034
 51
230.6290072394066044
  0
ARC
  5
6CA1
  8
0
 10
4213.9816430449864129
 20
149.0330570470401028
 30
0.0
 40
0.0418129567991251
 50
273.2566698960526992
 51
356.7433299584258179
  0
ARC
  5
6CA2
  8
0
 10
4213.9826545143796466
 20
149.1080579682287919
 30
0.0
 40
0.0407567890155092
 50
1.9177015657949621
 51
88.08229857971412
  0
ARC
  5
6CA3
  8
0
 10
4213.5882623316456375
 20
150.1033109100166882
 30
0.0
 40
0.0219377934807047
 50
4.8609811045675562
 51
85.141632669251365
  0
ARC
  5
6CA4
  8
0
 10
4220.0470061593059654
 20
146.3873462658993958
 30
0.0
 40
0.0159392110163308
 50
273.31107610852672
 51
357.1888738910926122
  0
ARC
  5
6CA5
  8
0
 10
4214.068592048120081
 20
25.0991912503828587
 30
0.0
 40
123.8921492317556954
 50
88.8306641603500111
 51
90.0391123540176466
  0
ARC
  5
6CA6
  8
0
 10
4215.8724323063797783
 20
100.280813955584307
 30
0.0
 40
48.6901158546256099
 50
86.7088539296297682
 51
89.1474538320144205
  0
ARC
  5
6CA7
  8
0
 10
4218.6071394174823581
 20
147.1400544679829068
 30
0.0
 40
1.751618648715451
 50
47.8468041635410302
 51
88.0180090086460893
  0
LINE
  5
6CA8
  8
0
 10
4220.0629261895937816
 20
146.3865645476292059
 30
0.0
 11
4220.0629261895937816
 21
146.6878822664523057
 31
0.0
  0
ARC
  5
6CA9
  8
0
 10
4201.3614469334734167
 20
146.6064084632768925
 30
0.0
 40
18.7016567273527485
 50
0.2496099622123889
 51
3.5350429335190232
  0
ARC
  5
6CAA
  8
0
 10
4218.7746000761289906
 20
147.6914821656700099
 30
0.0
 40
1.2547661887846779
 50
3.1089409898598772
 51
36.5441291512766
  0
LINE
  5
6CAB
  8
0
 10
4213.5195432223354146
 20
149.0306816941863133
 30
0.0
 11
4213.5195432223354146
 21
149.1094218516863066
 31
0.0
  0
ARC
  5
6CAC
  8
0
 10
4213.4776704694941145
 20
149.0331843682265003
 30
0.0
 40
0.0419474766749286
 50
273.4204170827405846
 51
356.5795829172586764
  0
ARC
  5
6CAD
  8
0
 10
4213.4774431126697891
 20
149.1066918208223058
 30
0.0
 40
0.0421885327289083
 50
3.7102171607124919
 51
86.2897828392884634
  0
ENDSEC
  0
EOF
