  0
SECTION
  2
HEADER
  9
$ACADVER
  1
AC1009
  9
$INSBASE
 10
4045.2580047478240886
 20
145.4998708933817966
 30
0.0
  9
$EXTMIN
 10
4041.2580047478240886
 20
141.5353905783819073
 30
0.0
  9
$EXTMAX
 10
4049.2580047478240886
 20
145.5116632517083133
 30
0.0
  9
$LIMMIN
 10
0.0
 20
0.0
  9
$LIMMAX
 10
11.6929133858000007
 20
8.2677165353999982
  9
$ORTHOMODE
 70
     1
  9
$REGENMODE
 70
     1
  9
$FILLMODE
 70
     1
  9
$QTEXTMODE
 70
     0
  9
$MIRRTEXT
 70
     0
  9
$DRAGMODE
 70
     2
  9
$LTSCALE
 40
0.6431102362
  9
$OSMODE
 70
  4095
  9
$ATTMODE
 70
     1
  9
$TEXTSIZE
 40
0.2
  9
$TRACEWID
 40
0.05
  9
$TEXTSTYLE
  7
STANDARD
  9
$CLAYER
  8
0
  9
$CELTYPE
  6
BYLAYER
  9
$CECOLOR
 62
   256
  9
$DIMSCALE
 40
1.0
  9
$DIMASZ
 40
0.1875
  9
$DIMEXO
 40
0.0625
  9
$DIMDLI
 40
0.4443307087
  9
$DIMRND
 40
0.0
  9
$DIMDLE
 40
0.0
  9
$DIMEXE
 40
0.125
  9
$DIMTP
 40
0.01
  9
$DIMTM
 40
0.01
  9
$DIMTXT
 40
2.0
  9
$DIMCEN
 40
0.1052362205
  9
$DIMTSZ
 40
0.0
  9
$DIMTOL
 70
     1
  9
$DIMLIM
 70
     0
  9
$DIMTIH
 70
     1
  9
$DIMTOH
 70
     1
  9
$DIMSE1
 70
     0
  9
$DIMSE2
 70
     0
  9
$DIMTAD
 70
     0
  9
$DIMZIN
 70
     0
  9
$DIMBLK
  1

  9
$DIMASO
 70
     1
  9
$DIMSHO
 70
     1
  9
$DIMPOST
  1
\X
  9
$DIMAPOST
  1

  9
$DIMALT
 70
     1
  9
$DIMALTD
 70
     2
  9
$DIMALTF
 40
25.3999999999999986
  9
$DIMLFAC
 40
1.0
  9
$DIMTOFL
 70
     0
  9
$DIMTVP
 40
0.0
  9
$DIMTIX
 70
     0
  9
$DIMSOXD
 70
     0
  9
$DIMSAH
 70
     0
  9
$DIMBLK1
  1

  9
$DIMBLK2
  1

  9
$DIMSTYLE
  2
STANDARD
  9
$DIMCLRD
 70
     0
  9
$DIMCLRE
 70
     0
  9
$DIMCLRT
 70
     0
  9
$DIMTFAC
 40
1.0
  9
$DIMGAP
 40
0.09
  9
$LUNITS
 70
     2
  9
$LUPREC
 70
     4
  9
$SKETCHINC
 40
0.1
  9
$FILLETRAD
 40
0.0
  9
$AUNITS
 70
     0
  9
$AUPREC
 70
     0
  9
$MENU
  1
.
  9
$ELEVATION
 40
0.0
  9
$PELEVATION
 40
0.0
  9
$THICKNESS
 40
0.0
  9
$LIMCHECK
 70
     0
  9
$BLIPMODE
 70
     0
  9
$CHAMFERA
 40
0.0
  9
$CHAMFERB
 40
0.0
  9
$SKPOLY
 70
     0
  9
$TDCREATE
 40
2458060.468368056230247
  9
$TDUPDATE
 40
2459060.7332060188055038
  9
$TDINDWG
 40
0.3048797454
  9
$TDUSRTIMER
 40
0.3048797454
  9
$USRTIMER
 70
     1
  9
$ANGBASE
 50
0.0
  9
$ANGDIR
 70
     0
  9
$PDMODE
 70
     0
  9
$PDSIZE
 40
0.3125
  9
$PLINEWID
 40
0.0
  9
$COORDS
 70
     1
  9
$SPLFRAME
 70
     0
  9
$SPLINETYPE
 70
     6
  9
$SPLINESEGS
 70
     8
  9
$ATTDIA
 70
     1
  9
$ATTREQ
 70
     1
  9
$HANDLING
 70
     1
  9
$HANDSEED
  5
68B1
  9
$SURFTAB1
 70
     6
  9
$SURFTAB2
 70
     6
  9
$SURFTYPE
 70
     6
  9
$SURFU
 70
     6
  9
$SURFV
 70
     6
  9
$UCSNAME
  2

  9
$UCSORG
 10
0.0
 20
0.0
 30
0.0
  9
$UCSXDIR
 10
1.0
 20
0.0
 30
0.0
  9
$UCSYDIR
 10
0.0
 20
1.0
 30
0.0
  9
$PUCSNAME
  2

  9
$PUCSORG
 10
0.0
 20
0.0
 30
0.0
  9
$PUCSXDIR
 10
1.0
 20
0.0
 30
0.0
  9
$PUCSYDIR
 10
0.0
 20
1.0
 30
0.0
  9
$USERI1
 70
     0
  9
$USERI2
 70
     0
  9
$USERI3
 70
     0
  9
$USERI4
 70
     0
  9
$USERI5
 70
     0
  9
$USERR1
 40
0.0
  9
$USERR2
 40
0.0
  9
$USERR3
 40
0.0
  9
$USERR4
 40
0.0
  9
$USERR5
 40
0.0
  9
$WORLDVIEW
 70
     1
  9
$SHADEDGE
 70
     3
  9
$SHADEDIF
 70
    70
  9
$TILEMODE
 70
     1
  9
$MAXACTVP
 70
    64
  9
$PLIMCHECK
 70
     0
  9
$PEXTMIN
 10
1.0000000000000000E+20
 20
1.0000000000000000E+20
 30
1.0000000000000000E+20
  9
$PEXTMAX
 10
-1.0000000000000000E+20
 20
-1.0000000000000000E+20
 30
-1.0000000000000000E+20
  9
$PLIMMIN
 10
0.0
 20
0.0
  9
$PLIMMAX
 10
12.0
 20
9.0
  9
$UNITMODE
 70
     0
  9
$VISRETAIN
 70
     1
  9
$PLINEGEN
 70
     0
  9
$PSLTSCALE
 70
     1
  0
ENDSEC
  0
SECTION
  2
TABLES
  0
TABLE
  2
VPORT
 70
     1
  0
VPORT
  2
*ACTIVE
 70
     0
 10
0.0
 20
0.0
 11
1.0
 21
1.0
 12
0.0
 22
0.0
 13
0.0
 23
0.0
 14
1.0
 24
1.0
 15
0.0
 25
0.0
 16
0.0
 26
0.0
 36
25.5936845137295599
 17
4045.258056640625
 27
143.5235241917721112
 37
0.0
 40
8.9380933550329971
 41
2.1481900452488678
 42
50.0
 43
0.0
 44
0.0
 50
0.0
 51
0.0
 71
     0
 72
   100
 73
     1
 74
     1
 75
     0
 76
     0
 77
     0
 78
     0
  0
ENDTAB
  0
TABLE
  2
LTYPE
 70
     2
  0
LTYPE
  2
CONTINUOUS
 70
     0
  3
Solid line
 72
    65
 73
     0
 40
0.0
  0
LTYPE
  2
PHANTOM2
 70
     0
  3
___ _ _ ___ _ _ ___ _ _ ___ _ _
 72
    65
 73
     6
 40
1.25
 49
0.625
 49
-0.125
 49
0.125
 49
-0.125
 49
0.125
 49
-0.125
  0
ENDTAB
  0
TABLE
  2
LAYER
 70
     2
  0
LAYER
  2
0
 70
     0
 62
   255
  6
CONTINUOUS
  0
LAYER
  2
DEFPOINTS
 70
     0
 62
     7
  6
CONTINUOUS
  0
ENDTAB
  0
TABLE
  2
STYLE
 70
     1
  0
STYLE
  2
STANDARD
 70
     0
 40
0.0
 41
0.8
 50
0.0
 71
     0
 42
0.2
  3
txt
  4

  0
ENDTAB
  0
TABLE
  2
VIEW
 70
     0
  0
ENDTAB
  0
TABLE
  2
UCS
 70
     0
  0
ENDTAB
  0
TABLE
  2
APPID
 70
     9
  0
APPID
  2
ACAD
 70
     0
  0
APPID
  2
ACAD_MLEADERVER
 70
     0
  0
APPID
  2
ACAD_EXEMPT_FROM_CAD_STANDARDS
 70
     0
  0
APPID
  2
ACAD_NAV_VCDISPLAY
 70
     0
  0
APPID
  2
ACAECLAYERSTANDARD
 70
     0
  0
APPID
  2
ACCMTRANSPARENCY
 70
     0
  0
APPID
  2
ACAD_DSTYLE_DIMJAG
 70
     0
  0
APPID
  2
ACAD_DSTYLE_DIMTALN
 70
     0
  0
APPID
  2
ACDBATTR
 70
     0
  0
ENDTAB
  0
TABLE
  2
DIMSTYLE
 70
     1
  0
DIMSTYLE
  2
STANDARD
 70
     0
  3

  4

  5

  6

  7

 40
1.0
 41
0.1875
 42
0.0625
 43
0.38
 44
0.125
 45
0.0
 46
0.0
 47
0.01
 48
0.01
140
0.15625
141
0.09
142
0.0
143
25.3999999999999986
144
1.0
145
0.0
146
1.0
147
0.09
 71
     1
 72
     0
 73
     1
 74
     1
 75
     0
 76
     0
 77
     0
 78
     4
170
     0
171
     2
172
     0
173
     0
174
     0
175
     0
176
     0
177
     0
178
     0
  0
ENDTAB
  0
ENDSEC
  0
SECTION
  2
BLOCKS
  0
BLOCK
  8
0
  2
$MODEL_SPACE
 70
     0
 10
0.0
 20
0.0
 30
0.0
  3
$MODEL_SPACE
  1

  0
ENDBLK
  5
21
  8
0
  0
BLOCK
 67
     1
  8
0
  2
$PAPER_SPACE
 70
     0
 10
0.0
 20
0.0
 30
0.0
  3
$PAPER_SPACE
  1

  0
ENDBLK
  5
1D
 67
     1
  8
0
  0
ENDSEC
  0
SECTION
  2
ENTITIES
  0
ATTDEF
  5
3930
  8
DEFPOINTS
 10
4045.2533919449069799
 20
145.5106632517081948
 30
0.0
 40
0.001
  1
K-26293W-G
  3

  2
MODELNUMBER
 70
     0
1001
ACDBATTR
1070
     0
1070
     1
  0
ATTDEF
  5
3931
  8
DEFPOINTS
 10
4045.2533919449069799
 20
145.5089965850415012
 30
0.0
 40
0.001
  1

  3

  2
TRADENAME
 70
     0
1001
ACDBATTR
1070
     0
1070
     1
  0
ATTDEF
  5
3932
  8
DEFPOINTS
 10
4045.2533919449069799
 20
145.5073299183748077
 30
0.0
 40
0.001
  1
SHOWERHEAD
  3

  2
PRODUCT
 70
     0
1001
ACDBATTR
1070
     0
1070
     1
  0
LINE
  5
669C
  8
0
 10
4044.8030047478241613
 20
144.6190792849409945
 30
0.0
 11
4044.8030047478241613
 21
145.325728757681901
 31
0.0
  0
LINE
  5
669D
  8
0
 10
4044.7659336800238634
 20
145.3669419611817943
 30
0.0
 11
4044.8000758156240408
 21
145.3327998255819011
 31
0.0
  0
ARC
  5
669E
  8
0
 10
4044.7793747685268499
 20
145.3766587172324023
 30
0.0
 40
0.0165854818530694
 50
189.2454604256896005
 51
215.8637071666481972
  0
ARC
  5
669F
  8
0
 10
4044.7930047478230335
 20
145.3257287577818886
 30
0.0
 40
0.01
 50
359.9999996723000777
 51
44.9999999999953886
  0
LINE
  5
66A0
  8
0
 10
4049.2461941728229249
 20
141.5353905783819073
 30
0.0
 11
4041.269815322823888
 21
141.5353905783819073
 31
0.0
  0
LINE
  5
66A1
  8
0
 10
4044.3486744985239056
 20
144.1947606571818881
 30
0.0
 11
4044.3486744985239056
 21
144.2735008146819098
 31
0.0
  0
LINE
  5
66A2
  8
0
 10
4044.7630047470238424
 20
145.4798708933819
 30
0.0
 11
4044.7630047470238424
 21
145.3739940213245063
 31
0.0
  0
LINE
  5
66A3
  8
0
 10
4044.388044577223809
 20
144.3128708933818984
 30
0.0
 11
4046.1279649184239133
 21
144.3128708933818984
 31
0.0
  0
LINE
  5
66A4
  8
0
 10
4045.7330038098239129
 20
145.4998708933817966
 30
0.0
 11
4044.7830056858238095
 21
145.4998708933817966
 31
0.0
  0
ARC
  5
66A5
  8
0
 10
4044.9930047470229511
 20
144.7486941000819058
 30
0.0
 40
0.23
 50
214.3011531104251901
 51
247.4596895364923057
  0
ARC
  5
66A6
  8
0
 10
4044.8780047470131649
 20
144.4716110800735009
 30
0.0
 40
0.0700000000118527
 50
309.4534837533632867
 51
67.4596895310172613
  0
ARC
  5
66A7
  8
0
 10
4044.3961945172832202
 20
144.2002400315996908
 30
0.0
 40
0.0478348798144872
 50
186.5775365138991901
 51
249.6315338108572917
  0
ARC
  5
66A8
  8
0
 10
4044.388044577223809
 20
144.2735008146819098
 30
0.0
 40
0.0393700787
 50
90.0
 51
180.0
  0
ARC
  5
66A9
  8
0
 10
4044.7845784459809693
 20
145.4782971205771105
 30
0.0
 40
0.0216310251154583
 50
94.1695714977622345
 51
175.8277391014572117
  0
ARC
  5
66AA
  8
0
 10
4045.25632702758503
 20
144.011649224275601
 30
0.0
 40
0.5255607948794596
 50
129.4354484464705024
 51
145.0302874531834902
  0
ARC
  5
66AB
  8
0
 10
4041.2709353485270185
 20
141.5483119078610912
 30
0.0
 40
0.0129697807647743
 50
184.4546466794340915
 51
265.0459628711017217
  0
LINE
  5
66AC
  8
0
 10
4046.6184408315648398
 20
144.1553960902751044
 30
0.0
 11
4043.8714216184689576
 21
144.1553960902751044
 31
0.0
  0
ARC
  5
66AD
  8
0
 10
4085.2523280372229237
 20
140.7720253340260115
 30
0.0
 40
44.001153843373487
 50
177.0445437124276111
 51
178.9904236236768043
  0
ARC
  5
66AE
  8
0
 10
4042.4992477653399874
 20
142.8076006464212071
 30
0.0
 40
1.2121731905344659
 50
98.8384442913037304
 51
168.91274696020389
  0
ARC
  5
66AF
  8
0
 10
4043.8943296794450362
 20
135.7476780290035947
 30
0.0
 40
8.4077492693995293
 50
90.1561103682591778
 51
100.8407666760393937
  0
LINE
  5
66B0
  8
0
 10
4044.8525197527242199
 20
144.1947606571818881
 30
0.0
 11
4044.8525197527242199
 21
144.2735008146819098
 31
0.0
  0
ARC
  5
66B1
  8
0
 10
4044.8939990633248271
 20
144.1955027392185968
 30
0.0
 40
0.0414859481481317
 50
181.0249358726726996
 51
255.1841344520802011
  0
ARC
  5
66B2
  8
0
 10
4044.8918813381687869
 20
144.2735093079369051
 30
0.0
 40
0.0393615863612957
 50
89.9876369903899445
 51
180.0123630096198042
  0
LINE
  5
66B3
  8
0
 10
4045.7130047478231063
 20
144.6190792849409945
 30
0.0
 11
4045.7130047478231063
 21
145.325728757681901
 31
0.0
  0
LINE
  5
66B4
  8
0
 10
4045.7500758156229494
 20
145.3669419611817943
 30
0.0
 11
4045.7159336800241363
 21
145.3327998255819011
 31
0.0
  0
ARC
  5
66B5
  8
0
 10
4045.7366347271208724
 20
145.3766587172324023
 30
0.0
 40
0.0165854818530694
 50
324.136292833351888
 51
350.7545395743102858
  0
ARC
  5
66B6
  8
0
 10
4045.7230047478237793
 20
145.3257287577818886
 30
0.0
 40
0.01
 50
135.0000000000046043
 51
180.0000003276998939
  0
LINE
  5
66B7
  8
0
 10
4046.1673349971238167
 20
144.1947606571818881
 30
0.0
 11
4046.1673349971238167
 21
144.2735008146819098
 31
0.0
  0
LINE
  5
66B8
  8
0
 10
4045.75300474862388
 20
145.4798708933819
 30
0.0
 11
4045.75300474862388
 21
145.3739940213245063
 31
0.0
  0
ARC
  5
66B9
  8
0
 10
4045.5230047486229523
 20
144.7486941000819058
 30
0.0
 40
0.23
 50
292.5403104635075806
 51
325.6988468895747246
  0
ARC
  5
66BA
  8
0
 10
4045.6380047486341027
 20
144.4716110800735009
 30
0.0
 40
0.0700000000118527
 50
112.5403104689826961
 51
230.5465162466367133
  0
ARC
  5
66BB
  8
0
 10
4046.1198149783640474
 20
144.2002400315996908
 30
0.0
 40
0.0478348798144872
 50
290.3684661891427936
 51
353.4224634861008099
  0
ARC
  5
66BC
  8
0
 10
4046.1279649184239133
 20
144.2735008146819098
 30
0.0
 40
0.0393700787
 50
0.0
 51
90.0
  0
ARC
  5
66BD
  8
0
 10
4045.7314310496672078
 20
145.4782971205771105
 30
0.0
 40
0.0216310251154583
 50
4.1722608985427598
 51
85.8304285022377655
  0
ARC
  5
66BE
  8
0
 10
4045.2596824680631471
 20
144.011649224275601
 30
0.0
 40
0.5255607948794596
 50
34.9697125468164813
 51
50.5645515535295118
  0
ARC
  5
66BF
  8
0
 10
4049.2450741471220681
 20
141.5483119078610912
 30
0.0
 40
0.0129697807647743
 50
274.9540371288982783
 51
355.5453533205659937
  0
ARC
  5
66C0
  8
0
 10
4005.2636814584247986
 20
140.7720253340260115
 30
0.0
 40
44.001153843373487
 50
1.0095763763232379
 51
2.9554562875723769
  0
ARC
  5
66C1
  8
0
 10
4048.016761730305916
 20
142.8076006464212071
 30
0.0
 40
1.2121731905344471
 50
11.0872530397961206
 51
81.1615557086962838
  0
ARC
  5
66C2
  8
0
 10
4046.6221615435338208
 20
135.7510522416395133
 30
0.0
 40
8.4043446722392083
 50
79.1581323667542733
 51
90.0253655826123946
  0
LINE
  5
66C3
  8
0
 10
4045.6634897429230477
 20
144.1947606571818881
 30
0.0
 11
4045.6634897429230477
 21
144.2735008146819098
 31
0.0
  0
ARC
  5
66C4
  8
0
 10
4045.6220104323219857
 20
144.1955027392185968
 30
0.0
 40
0.0414859481481317
 50
284.8158655479198273
 51
358.9750641273273004
  0
ARC
  5
66C5
  8
0
 10
4045.6241281574789355
 20
144.2735093079369051
 30
0.0
 40
0.0393615863612957
 50
359.9876369903802242
 51
90.0123630096100698
  0
ENDSEC
  0
EOF
