  0
SECTION
  2
HEADER
  9
$ACADVER
  1
AC1009
  9
$INSBASE
 10
4645.0699416919624127
 20
211.2316939224411101
 30
0.0
  9
$EXTMIN
 10
4638.1205982673764083
 20
207.8183080956411004
 30
0.0
  9
$EXTMAX
 10
4652.0192851165465981
 20
211.2316939224411101
 30
0.0
  9
$LIMMIN
 10
0.0
 20
0.0
  9
$LIMMAX
 10
11.6929133858000007
 20
8.2677165353999982
  9
$ORTHOMODE
 70
     1
  9
$REGENMODE
 70
     1
  9
$FILLMODE
 70
     1
  9
$QTEXTMODE
 70
     0
  9
$MIRRTEXT
 70
     0
  9
$DRAGMODE
 70
     2
  9
$LTSCALE
 40
0.6431102362
  9
$OSMODE
 70
  4095
  9
$ATTMODE
 70
     1
  9
$TEXTSIZE
 40
0.2
  9
$TRACEWID
 40
0.05
  9
$TEXTSTYLE
  7
STANDARD
  9
$CLAYER
  8
0
  9
$CELTYPE
  6
BYLAYER
  9
$CECOLOR
 62
   256
  9
$DIMSCALE
 40
1.0
  9
$DIMASZ
 40
0.1875
  9
$DIMEXO
 40
0.0625
  9
$DIMDLI
 40
0.4443307087
  9
$DIMRND
 40
0.0
  9
$DIMDLE
 40
0.0
  9
$DIMEXE
 40
0.125
  9
$DIMTP
 40
0.01
  9
$DIMTM
 40
0.01
  9
$DIMTXT
 40
2.0
  9
$DIMCEN
 40
0.1052362205
  9
$DIMTSZ
 40
0.0
  9
$DIMTOL
 70
     1
  9
$DIMLIM
 70
     0
  9
$DIMTIH
 70
     1
  9
$DIMTOH
 70
     1
  9
$DIMSE1
 70
     0
  9
$DIMSE2
 70
     0
  9
$DIMTAD
 70
     0
  9
$DIMZIN
 70
     0
  9
$DIMBLK
  1

  9
$DIMASO
 70
     1
  9
$DIMSHO
 70
     1
  9
$DIMPOST
  1
\X
  9
$DIMAPOST
  1

  9
$DIMALT
 70
     1
  9
$DIMALTD
 70
     2
  9
$DIMALTF
 40
25.3999999999999986
  9
$DIMLFAC
 40
1.0
  9
$DIMTOFL
 70
     0
  9
$DIMTVP
 40
0.0
  9
$DIMTIX
 70
     0
  9
$DIMSOXD
 70
     0
  9
$DIMSAH
 70
     0
  9
$DIMBLK1
  1

  9
$DIMBLK2
  1

  9
$DIMSTYLE
  2
STANDARD
  9
$DIMCLRD
 70
     0
  9
$DIMCLRE
 70
     0
  9
$DIMCLRT
 70
     0
  9
$DIMTFAC
 40
1.0
  9
$DIMGAP
 40
0.09
  9
$LUNITS
 70
     2
  9
$LUPREC
 70
     4
  9
$SKETCHINC
 40
0.1
  9
$FILLETRAD
 40
0.0
  9
$AUNITS
 70
     0
  9
$AUPREC
 70
     0
  9
$MENU
  1
.
  9
$ELEVATION
 40
0.0
  9
$PELEVATION
 40
0.0
  9
$THICKNESS
 40
0.0
  9
$LIMCHECK
 70
     0
  9
$BLIPMODE
 70
     0
  9
$CHAMFERA
 40
0.0
  9
$CHAMFERB
 40
0.0
  9
$SKPOLY
 70
     0
  9
$TDCREATE
 40
2458060.468368056230247
  9
$TDUPDATE
 40
2459241.5208101850003004
  9
$TDINDWG
 40
0.367634375
  9
$TDUSRTIMER
 40
0.367634375
  9
$USRTIMER
 70
     1
  9
$ANGBASE
 50
0.0
  9
$ANGDIR
 70
     0
  9
$PDMODE
 70
     0
  9
$PDSIZE
 40
0.3125
  9
$PLINEWID
 40
0.0
  9
$COORDS
 70
     1
  9
$SPLFRAME
 70
     0
  9
$SPLINETYPE
 70
     6
  9
$SPLINESEGS
 70
     8
  9
$ATTDIA
 70
     1
  9
$ATTREQ
 70
     1
  9
$HANDLING
 70
     1
  9
$HANDSEED
  5
C6C9
  9
$SURFTAB1
 70
     6
  9
$SURFTAB2
 70
     6
  9
$SURFTYPE
 70
     6
  9
$SURFU
 70
     6
  9
$SURFV
 70
     6
  9
$UCSNAME
  2

  9
$UCSORG
 10
0.0
 20
0.0
 30
0.0
  9
$UCSXDIR
 10
1.0
 20
0.0
 30
0.0
  9
$UCSYDIR
 10
0.0
 20
1.0
 30
0.0
  9
$PUCSNAME
  2

  9
$PUCSORG
 10
0.0
 20
0.0
 30
0.0
  9
$PUCSXDIR
 10
1.0
 20
0.0
 30
0.0
  9
$PUCSYDIR
 10
0.0
 20
1.0
 30
0.0
  9
$USERI1
 70
     0
  9
$USERI2
 70
     0
  9
$USERI3
 70
     0
  9
$USERI4
 70
     0
  9
$USERI5
 70
     0
  9
$USERR1
 40
0.0
  9
$USERR2
 40
0.0
  9
$USERR3
 40
0.0
  9
$USERR4
 40
0.0
  9
$USERR5
 40
0.0
  9
$WORLDVIEW
 70
     1
  9
$SHADEDGE
 70
     3
  9
$SHADEDIF
 70
    70
  9
$TILEMODE
 70
     1
  9
$MAXACTVP
 70
    64
  9
$PLIMCHECK
 70
     0
  9
$PEXTMIN
 10
1.0000000000000000E+20
 20
1.0000000000000000E+20
 30
1.0000000000000000E+20
  9
$PEXTMAX
 10
-1.0000000000000000E+20
 20
-1.0000000000000000E+20
 30
-1.0000000000000000E+20
  9
$PLIMMIN
 10
0.0
 20
0.0
  9
$PLIMMAX
 10
12.0
 20
9.0
  9
$UNITMODE
 70
     0
  9
$VISRETAIN
 70
     1
  9
$PLINEGEN
 70
     0
  9
$PSLTSCALE
 70
     1
  0
ENDSEC
  0
SECTION
  2
TABLES
  0
TABLE
  2
VPORT
 70
     1
  0
VPORT
  2
*ACTIVE
 70
     0
 10
0.0
 20
0.0
 11
1.0
 21
1.0
 12
0.0
 22
0.0
 13
0.0
 23
0.0
 14
1.0
 24
1.0
 15
0.0
 25
0.0
 16
0.0
 26
0.0
 36
40.5511692068760183
 17
4645.06982421875
 27
209.5250015258789063
 37
0.0
 40
14.3116560120524401
 41
2.1186252771618621
 42
50.0
 43
0.0
 44
0.0
 50
0.0
 51
0.0
 71
     0
 72
   100
 73
     1
 74
     1
 75
     0
 76
     0
 77
     0
 78
     0
  0
ENDTAB
  0
TABLE
  2
LTYPE
 70
     2
  0
LTYPE
  2
CONTINUOUS
 70
     0
  3
Solid line
 72
    65
 73
     0
 40
0.0
  0
LTYPE
  2
PHANTOM2
 70
     0
  3
___ _ _ ___ _ _ ___ _ _ ___ _ _
 72
    65
 73
     6
 40
1.25
 49
0.625
 49
-0.125
 49
0.125
 49
-0.125
 49
0.125
 49
-0.125
  0
ENDTAB
  0
TABLE
  2
LAYER
 70
     2
  0
LAYER
  2
0
 70
     0
 62
   255
  6
CONTINUOUS
  0
LAYER
  2
DEFPOINTS
 70
     0
 62
     7
  6
CONTINUOUS
  0
ENDTAB
  0
TABLE
  2
STYLE
 70
     1
  0
STYLE
  2
STANDARD
 70
     0
 40
0.0
 41
0.8
 50
0.0
 71
     0
 42
0.2
  3
txt
  4

  0
ENDTAB
  0
TABLE
  2
VIEW
 70
     0
  0
ENDTAB
  0
TABLE
  2
UCS
 70
     0
  0
ENDTAB
  0
TABLE
  2
APPID
 70
     9
  0
APPID
  2
ACAD
 70
     0
  0
APPID
  2
ACAD_MLEADERVER
 70
     0
  0
APPID
  2
ACAD_EXEMPT_FROM_CAD_STANDARDS
 70
     0
  0
APPID
  2
ACAD_NAV_VCDISPLAY
 70
     0
  0
APPID
  2
ACAECLAYERSTANDARD
 70
     0
  0
APPID
  2
ACCMTRANSPARENCY
 70
     0
  0
APPID
  2
ACAD_DSTYLE_DIMJAG
 70
     0
  0
APPID
  2
ACAD_DSTYLE_DIMTALN
 70
     0
  0
APPID
  2
ACDBATTR
 70
     0
  0
ENDTAB
  0
TABLE
  2
DIMSTYLE
 70
     1
  0
DIMSTYLE
  2
STANDARD
 70
     0
  3

  4

  5

  6

  7

 40
1.0
 41
0.1875
 42
0.0625
 43
0.38
 44
0.125
 45
0.0
 46
0.0
 47
0.01
 48
0.01
140
0.15625
141
0.09
142
0.0
143
25.3999999999999986
144
1.0
145
0.0
146
1.0
147
0.09
 71
     1
 72
     0
 73
     1
 74
     1
 75
     0
 76
     0
 77
     0
 78
     4
170
     0
171
     2
172
     0
173
     0
174
     0
175
     0
176
     0
177
     0
178
     0
  0
ENDTAB
  0
ENDSEC
  0
SECTION
  2
BLOCKS
  0
BLOCK
  8
0
  2
$MODEL_SPACE
 70
     0
 10
0.0
 20
0.0
 30
0.0
  3
$MODEL_SPACE
  1

  0
ENDBLK
  5
21
  8
0
  0
BLOCK
 67
     1
  8
0
  2
$PAPER_SPACE
 70
     0
 10
0.0
 20
0.0
 30
0.0
  3
$PAPER_SPACE
  1

  0
ENDBLK
  5
1D
 67
     1
  8
0
  0
ENDSEC
  0
SECTION
  2
ENTITIES
  0
ATTDEF
  5
3930
  8
DEFPOINTS
 10
4645.0650383258325746
 20
211.2300714716444077
 30
0.0
 40
0.001
  1
K-26295W-G
  3

  2
MODELNUMBER
 70
     0
1001
ACDBATTR
1070
     0
1070
     1
  0
ATTDEF
  5
3931
  8
DEFPOINTS
 10
4645.0650383258325746
 20
211.2284048049777141
 30
0.0
 40
0.001
  1

  3

  2
TRADENAME
 70
     0
1001
ACDBATTR
1070
     0
1070
     1
  0
ATTDEF
  5
3932
  8
DEFPOINTS
 10
4645.0650383258325746
 20
211.2267381383109921
 30
0.0
 40
0.001
  1
SHOWERHEAD
  3

  2
PRODUCT
 70
     0
1001
ACDBATTR
1070
     0
1070
     1
  0
LINE
  5
C584
  8
0
 10
4638.136269264810835
 20
207.8183080956411004
 30
0.0
 11
4652.0036141191121715
 21
207.8183080956411004
 31
0.0
  0
LINE
  5
C585
  8
0
 10
4644.1250595045121372
 20
211.2257884106412007
 30
0.0
 11
4644.1250595045121372
 21
210.4373441518411028
 31
0.0
  0
LINE
  5
C586
  8
0
 10
4644.2864768274121161
 20
210.7946860484410934
 30
0.0
 11
4644.2864768274121161
 21
210.8734262058410991
 31
0.0
  0
LINE
  5
C587
  8
0
 10
4644.525497731611722
 20
210.8734262058410991
 30
0.0
 11
4644.525497731611722
 21
210.8813002216411121
 31
0.0
  0
LINE
  5
C588
  8
0
 10
4644.7482433247123481
 20
210.8813002216411121
 30
0.0
 11
4644.7482433247123481
 21
210.8734262058410991
 31
0.0
  0
LINE
  5
C589
  8
0
 10
4645.8534065565108904
 20
210.7946860484410934
 30
0.0
 11
4644.2864768274121161
 21
210.7946860484410934
 31
0.0
  0
LINE
  5
C58A
  8
0
 10
4644.2864768274121161
 20
210.8734262058410991
 30
0.0
 11
4645.8534065565108904
 21
210.8734262058410991
 31
0.0
  0
LINE
  5
C58B
  8
0
 10
4644.2864768276122049
 20
210.8813002216411121
 30
0.0
 11
4644.9943139436118145
 21
210.8813002216411121
 31
0.0
  0
LINE
  5
C58C
  8
0
 10
4646.0148238794108693
 20
211.2257884106412007
 30
0.0
 11
4644.1250595045121372
 21
211.2257884106412007
 31
0.0
  0
ARC
  5
C58D
  8
0
 10
4644.2864844882224133
 20
210.838012646181312
 30
0.0
 40
0.0433265984173907
 50
175.9331718118909862
 51
269.9898698773545789
  0
ARC
  5
C58E
  8
0
 10
4644.2864865603805811
 20
210.837968396888698
 30
0.0
 40
0.0433318258454692
 50
90.0128694791028749
 51
175.8750045363387073
  0
ARC
  5
C58F
  8
0
 10
4644.9943139427114147
 20
210.900985261041086
 30
0.0
 40
0.0196850393999997
 50
270.0000026195800729
 51
320.2081805004099806
  0
ARC
  5
C590
  8
0
 10
4644.9943139427114147
 20
210.775001009041091
 30
0.0
 40
0.0196850394
 50
39.7918194995899128
 51
90.0
  0
ARC
  5
C591
  8
0
 10
4645.0699413943120817
 20
210.8379931350411027
 30
0.0
 40
0.1062992126
 50
204.0420758968508039
 51
270.0001604347714874
  0
ARC
  5
C592
  8
0
 10
4645.0699413943120817
 20
210.8379931350411027
 30
0.0
 40
0.1062992126
 50
89.9998395652284273
 51
155.9579241031491961
  0
ARC
  5
C593
  8
0
 10
4645.0699413943120817
 20
210.8379931350411027
 30
0.0
 40
0.0787401575
 50
89.9997834130922598
 51
153.2563161107005953
  0
ARC
  5
C594
  8
0
 10
4645.0699413943120817
 20
210.8379931350411027
 30
0.0
 40
0.0787401575
 50
213.367012947453901
 51
270.0002165869078112
  0
ARC
  5
C595
  8
0
 10
4638.1371888206349468
 20
207.8341803047044039
 30
0.0
 40
0.0158988239647022
 50
182.8165520955458874
 51
266.6842775929014806
  0
ARC
  5
C596
  8
0
 10
4656.9744193307378737
 20
207.997128076552201
 30
0.0
 40
18.8538210633611598
 50
176.1840633035268127
 51
180.4975701913689932
  0
ARC
  5
C597
  8
0
 10
4639.2122187526128982
 20
209.2124046836889875
 30
0.0
 40
1.0505632795927571
 50
121.0746366789375941
 51
177.8467510552397925
  0
LINE
  5
C598
  8
0
 10
4648.7620316158263449
 20
210.4373441518411028
 30
0.0
 11
4641.3778517680966615
 21
210.4373441518411028
 31
0.0
  0
ARC
  5
C599
  8
0
 10
4642.4781906895514112
 20
163.8650488526994025
 30
0.0
 40
46.5852920477324517
 50
91.3534451977041044
 51
93.2894004149295739
  0
ARC
  5
C59A
  8
0
 10
4640.1624290100153303
 20
205.1068344889390005
 30
0.0
 40
5.2788586364265138
 50
93.8807258522335957
 51
100.8367748498669982
  0
ARC
  5
C59B
  8
0
 10
4639.4717777890318757
 20
208.6635265409543081
 30
0.0
 40
1.655771347193741
 50
100.5033737718499935
 51
118.9635218849836065
  0
LINE
  5
C59C
  8
0
 10
4646.0148238794108693
 20
211.2257884106412007
 30
0.0
 11
4646.0148238794108693
 21
210.4373441518411028
 31
0.0
  0
LINE
  5
C59D
  8
0
 10
4645.8534065565108904
 20
210.7946860484410934
 30
0.0
 11
4645.8534065565108904
 21
210.8734262058410991
 31
0.0
  0
LINE
  5
C59E
  8
0
 10
4645.6143856523112845
 20
210.8734262058410991
 30
0.0
 11
4645.6143856523112845
 21
210.8813002216411121
 31
0.0
  0
LINE
  5
C59F
  8
0
 10
4645.3916400592106584
 20
210.8813002216411121
 30
0.0
 11
4645.3916400592106584
 21
210.8734262058410991
 31
0.0
  0
LINE
  5
C5A0
  8
0
 10
4645.8534065563108015
 20
210.8813002216411121
 30
0.0
 11
4645.1455694403121015
 21
210.8813002216411121
 31
0.0
  0
ARC
  5
C5A1
  8
0
 10
4645.8533988957005931
 20
210.838012646181312
 30
0.0
 40
0.0433265984173872
 50
270.0101301226454211
 51
4.0668281881122859
  0
ARC
  5
C5A2
  8
0
 10
4645.8533968235433349
 20
210.837968396888698
 30
0.0
 40
0.0433318258454692
 50
4.1249954636612989
 51
89.9871305208971251
  0
ARC
  5
C5A3
  8
0
 10
4645.1455694412106823
 20
210.900985261041086
 30
0.0
 40
0.0196850393999997
 50
219.7918194995899057
 51
269.9999973804199271
  0
ARC
  5
C5A4
  8
0
 10
4645.1455694412106823
 20
210.775001009041091
 30
0.0
 40
0.0196850394
 50
90.0
 51
140.2081805004100943
  0
ARC
  5
C5A5
  8
0
 10
4645.0699419896109248
 20
210.8379931350411027
 30
0.0
 40
0.1062992126
 50
269.9998395652285126
 51
335.9579241031491961
  0
ARC
  5
C5A6
  8
0
 10
4645.0699419896109248
 20
210.8379931350411027
 30
0.0
 40
0.1062992126
 50
24.0420758968507897
 51
90.0001604347715869
  0
ARC
  5
C5A7
  8
0
 10
4645.0699419896109248
 20
210.8379931350411027
 30
0.0
 40
0.0787401575
 50
26.7436838892994011
 51
90.0002165869077544
  0
ARC
  5
C5A8
  8
0
 10
4645.0699419896109248
 20
210.8379931350411027
 30
0.0
 40
0.0787401575
 50
269.9997834130921888
 51
326.6329870525461274
  0
ARC
  5
C5A9
  8
0
 10
4652.0026945632880597
 20
207.8341803047044039
 30
0.0
 40
0.0158988239647022
 50
273.3157224070985194
 51
357.1834479044539989
  0
ARC
  5
C5AA
  8
0
 10
4633.1654640531860423
 20
207.997128076552201
 30
0.0
 40
18.8538210633611598
 50
359.5024298086310068
 51
3.8159366964731611
  0
ARC
  5
C5AB
  8
0
 10
4650.9276646313101082
 20
209.2124046836889875
 30
0.0
 40
1.0505632795927571
 50
2.1532489447602341
 51
58.9253633210623633
  0
ARC
  5
C5AC
  8
0
 10
4647.6616926943715953
 20
163.8650488526994025
 30
0.0
 40
46.5852920477324517
 50
86.7105995850704261
 51
88.646554802295924
  0
ARC
  5
C5AD
  8
0
 10
4649.9774543739076762
 20
205.1068344889390005
 30
0.0
 40
5.2788586364265138
 50
79.1632251501330018
 51
86.1192741477664185
  0
ARC
  5
C5AE
  8
0
 10
4650.6681055948920402
 20
208.6635265409543081
 30
0.0
 40
1.655771347193741
 50
61.0364781150164433
 51
79.4966262281499638
  0
LINE
  5
C5AF
  8
0
 10
4644.1604928730612301
 20
211.2316939224411101
 30
0.0
 11
4644.1604928730612301
 21
211.2257884106412007
 31
0.0
  0
LINE
  5
C5B0
  8
0
 10
4644.1604928730612301
 20
211.2316939224411101
 30
0.0
 11
4645.9793905108617764
 21
211.2316939224411101
 31
0.0
  0
LINE
  5
C5B1
  8
0
 10
4645.9793905108617764
 20
211.2316939224411101
 30
0.0
 11
4645.9793905108617764
 21
211.2257884106412007
 31
0.0
  0
ENDSEC
  0
EOF
