  0
SECTION
  2
HEADER
  9
$ACADVER
  1
AC1009
  9
$INSBASE
 10
4672.709644573071273
 20
215.4752920304048018
 30
0.0
  9
$EXTMIN
 10
4665.7603011484861781
 20
211.4786920304046873
 30
0.0
  9
$EXTMAX
 10
4679.6589879976572774
 20
219.4718920304048027
 30
0.0
  9
$LIMMIN
 10
0.0
 20
0.0
  9
$LIMMAX
 10
11.6929133858000007
 20
8.2677165353999982
  9
$ORTHOMODE
 70
     1
  9
$REGENMODE
 70
     1
  9
$FILLMODE
 70
     1
  9
$QTEXTMODE
 70
     0
  9
$MIRRTEXT
 70
     0
  9
$DRAGMODE
 70
     2
  9
$LTSCALE
 40
0.6431102362
  9
$OSMODE
 70
  4095
  9
$ATTMODE
 70
     1
  9
$TEXTSIZE
 40
0.2
  9
$TRACEWID
 40
0.05
  9
$TEXTSTYLE
  7
STANDARD
  9
$CLAYER
  8
0
  9
$CELTYPE
  6
BYLAYER
  9
$CECOLOR
 62
   256
  9
$DIMSCALE
 40
1.0
  9
$DIMASZ
 40
0.1875
  9
$DIMEXO
 40
0.0625
  9
$DIMDLI
 40
0.4443307087
  9
$DIMRND
 40
0.0
  9
$DIMDLE
 40
0.0
  9
$DIMEXE
 40
0.125
  9
$DIMTP
 40
0.01
  9
$DIMTM
 40
0.01
  9
$DIMTXT
 40
2.0
  9
$DIMCEN
 40
0.1052362205
  9
$DIMTSZ
 40
0.0
  9
$DIMTOL
 70
     1
  9
$DIMLIM
 70
     0
  9
$DIMTIH
 70
     1
  9
$DIMTOH
 70
     1
  9
$DIMSE1
 70
     0
  9
$DIMSE2
 70
     0
  9
$DIMTAD
 70
     0
  9
$DIMZIN
 70
     0
  9
$DIMBLK
  1

  9
$DIMASO
 70
     1
  9
$DIMSHO
 70
     1
  9
$DIMPOST
  1
\X
  9
$DIMAPOST
  1

  9
$DIMALT
 70
     1
  9
$DIMALTD
 70
     2
  9
$DIMALTF
 40
25.3999999999999986
  9
$DIMLFAC
 40
1.0
  9
$DIMTOFL
 70
     0
  9
$DIMTVP
 40
0.0
  9
$DIMTIX
 70
     0
  9
$DIMSOXD
 70
     0
  9
$DIMSAH
 70
     0
  9
$DIMBLK1
  1

  9
$DIMBLK2
  1

  9
$DIMSTYLE
  2
STANDARD
  9
$DIMCLRD
 70
     0
  9
$DIMCLRE
 70
     0
  9
$DIMCLRT
 70
     0
  9
$DIMTFAC
 40
1.0
  9
$DIMGAP
 40
0.09
  9
$LUNITS
 70
     2
  9
$LUPREC
 70
     4
  9
$SKETCHINC
 40
0.1
  9
$FILLETRAD
 40
0.0
  9
$AUNITS
 70
     0
  9
$AUPREC
 70
     0
  9
$MENU
  1
.
  9
$ELEVATION
 40
0.0
  9
$PELEVATION
 40
0.0
  9
$THICKNESS
 40
0.0
  9
$LIMCHECK
 70
     0
  9
$BLIPMODE
 70
     0
  9
$CHAMFERA
 40
0.0
  9
$CHAMFERB
 40
0.0
  9
$SKPOLY
 70
     0
  9
$TDCREATE
 40
2458060.468368056230247
  9
$TDUPDATE
 40
2459241.5209143520332873
  9
$TDINDWG
 40
0.367796412
  9
$TDUSRTIMER
 40
0.367796412
  9
$USRTIMER
 70
     1
  9
$ANGBASE
 50
0.0
  9
$ANGDIR
 70
     0
  9
$PDMODE
 70
     0
  9
$PDSIZE
 40
0.3125
  9
$PLINEWID
 40
0.0
  9
$COORDS
 70
     1
  9
$SPLFRAME
 70
     0
  9
$SPLINETYPE
 70
     6
  9
$SPLINESEGS
 70
     8
  9
$ATTDIA
 70
     1
  9
$ATTREQ
 70
     1
  9
$HANDLING
 70
     1
  9
$HANDSEED
  5
C79F
  9
$SURFTAB1
 70
     6
  9
$SURFTAB2
 70
     6
  9
$SURFTYPE
 70
     6
  9
$SURFU
 70
     6
  9
$SURFV
 70
     6
  9
$UCSNAME
  2

  9
$UCSORG
 10
0.0
 20
0.0
 30
0.0
  9
$UCSXDIR
 10
1.0
 20
0.0
 30
0.0
  9
$UCSYDIR
 10
0.0
 20
1.0
 30
0.0
  9
$PUCSNAME
  2

  9
$PUCSORG
 10
0.0
 20
0.0
 30
0.0
  9
$PUCSXDIR
 10
1.0
 20
0.0
 30
0.0
  9
$PUCSYDIR
 10
0.0
 20
1.0
 30
0.0
  9
$USERI1
 70
     0
  9
$USERI2
 70
     0
  9
$USERI3
 70
     0
  9
$USERI4
 70
     0
  9
$USERI5
 70
     0
  9
$USERR1
 40
0.0
  9
$USERR2
 40
0.0
  9
$USERR3
 40
0.0
  9
$USERR4
 40
0.0
  9
$USERR5
 40
0.0
  9
$WORLDVIEW
 70
     1
  9
$SHADEDGE
 70
     3
  9
$SHADEDIF
 70
    70
  9
$TILEMODE
 70
     1
  9
$MAXACTVP
 70
    64
  9
$PLIMCHECK
 70
     0
  9
$PEXTMIN
 10
1.0000000000000000E+20
 20
1.0000000000000000E+20
 30
1.0000000000000000E+20
  9
$PEXTMAX
 10
-1.0000000000000000E+20
 20
-1.0000000000000000E+20
 30
-1.0000000000000000E+20
  9
$PLIMMIN
 10
0.0
 20
0.0
  9
$PLIMMAX
 10
12.0
 20
9.0
  9
$UNITMODE
 70
     0
  9
$VISRETAIN
 70
     1
  9
$PLINEGEN
 70
     0
  9
$PSLTSCALE
 70
     1
  0
ENDSEC
  0
SECTION
  2
TABLES
  0
TABLE
  2
VPORT
 70
     1
  0
VPORT
  2
*ACTIVE
 70
     0
 10
0.0
 20
0.0
 11
1.0
 21
1.0
 12
0.0
 22
0.0
 13
0.0
 23
0.0
 14
1.0
 24
1.0
 15
0.0
 25
0.0
 16
0.0
 26
0.0
 36
45.4303866804790601
 17
4672.709716796875
 27
215.4752960205078125
 37
0.0
 40
16.0369335838069382
 41
2.1186252771618621
 42
50.0
 43
0.0
 44
0.0
 50
0.0
 51
0.0
 71
     0
 72
   100
 73
     1
 74
     1
 75
     0
 76
     0
 77
     0
 78
     0
  0
ENDTAB
  0
TABLE
  2
LTYPE
 70
     2
  0
LTYPE
  2
CONTINUOUS
 70
     0
  3
Solid line
 72
    65
 73
     0
 40
0.0
  0
LTYPE
  2
PHANTOM2
 70
     0
  3
___ _ _ ___ _ _ ___ _ _ ___ _ _
 72
    65
 73
     6
 40
1.25
 49
0.625
 49
-0.125
 49
0.125
 49
-0.125
 49
0.125
 49
-0.125
  0
ENDTAB
  0
TABLE
  2
LAYER
 70
     2
  0
LAYER
  2
0
 70
     0
 62
   255
  6
CONTINUOUS
  0
LAYER
  2
DEFPOINTS
 70
     0
 62
     7
  6
CONTINUOUS
  0
ENDTAB
  0
TABLE
  2
STYLE
 70
     1
  0
STYLE
  2
STANDARD
 70
     0
 40
0.0
 41
0.8
 50
0.0
 71
     0
 42
0.2
  3
txt
  4

  0
ENDTAB
  0
TABLE
  2
VIEW
 70
     0
  0
ENDTAB
  0
TABLE
  2
UCS
 70
     0
  0
ENDTAB
  0
TABLE
  2
APPID
 70
     9
  0
APPID
  2
ACAD
 70
     0
  0
APPID
  2
ACAD_MLEADERVER
 70
     0
  0
APPID
  2
ACAD_EXEMPT_FROM_CAD_STANDARDS
 70
     0
  0
APPID
  2
ACAD_NAV_VCDISPLAY
 70
     0
  0
APPID
  2
ACAECLAYERSTANDARD
 70
     0
  0
APPID
  2
ACCMTRANSPARENCY
 70
     0
  0
APPID
  2
ACAD_DSTYLE_DIMJAG
 70
     0
  0
APPID
  2
ACAD_DSTYLE_DIMTALN
 70
     0
  0
APPID
  2
ACDBATTR
 70
     0
  0
ENDTAB
  0
TABLE
  2
DIMSTYLE
 70
     1
  0
DIMSTYLE
  2
STANDARD
 70
     0
  3

  4

  5

  6

  7

 40
1.0
 41
0.1875
 42
0.0625
 43
0.38
 44
0.125
 45
0.0
 46
0.0
 47
0.01
 48
0.01
140
0.15625
141
0.09
142
0.0
143
25.3999999999999986
144
1.0
145
0.0
146
1.0
147
0.09
 71
     1
 72
     0
 73
     1
 74
     1
 75
     0
 76
     0
 77
     0
 78
     4
170
     0
171
     2
172
     0
173
     0
174
     0
175
     0
176
     0
177
     0
178
     0
  0
ENDTAB
  0
ENDSEC
  0
SECTION
  2
BLOCKS
  0
BLOCK
  8
0
  2
$MODEL_SPACE
 70
     0
 10
0.0
 20
0.0
 30
0.0
  3
$MODEL_SPACE
  1

  0
ENDBLK
  5
21
  8
0
  0
BLOCK
 67
     1
  8
0
  2
$PAPER_SPACE
 70
     0
 10
0.0
 20
0.0
 30
0.0
  3
$PAPER_SPACE
  1

  0
ENDBLK
  5
1D
 67
     1
  8
0
  0
ENDSEC
  0
SECTION
  2
ENTITIES
  0
ATTDEF
  5
3930
  8
DEFPOINTS
 10
4672.7066005319738906
 20
215.4793521893440982
 30
0.0
 40
0.001
  1
K-26295W-G
  3

  2
MODELNUMBER
 70
     0
1001
ACDBATTR
1070
     0
1070
     1
  0
ATTDEF
  5
3931
  8
DEFPOINTS
 10
4672.7066005319738906
 20
215.4776855226774046
 30
0.0
 40
0.001
  1

  3

  2
TRADENAME
 70
     0
1001
ACDBATTR
1070
     0
1070
     1
  0
ATTDEF
  5
3932
  8
DEFPOINTS
 10
4672.7066005319738906
 20
215.476018856010711
 30
0.0
 40
0.001
  1
SHOWERHEAD
  3

  2
PRODUCT
 70
     0
1001
ACDBATTR
1070
     0
1070
     1
  0
LINE
  5
C66C
  8
0
 10
4672.040352936821364
 20
215.6557191350399023
 30
0.0
 11
4672.040352936821364
 21
215.5067880934049072
 31
0.0
  0
LINE
  5
C66D
  8
0
 10
4672.5127938817213362
 20
215.6557191351708127
 30
0.0
 11
4672.5127938817213362
 21
215.5067880934049072
 31
0.0
  0
LINE
  5
C66E
  8
0
 10
4672.4043525218439754
 20
215.3672668973048019
 30
0.0
 11
4672.1487942967978597
 21
215.3672668973048019
 31
0.0
  0
LINE
  5
C66F
  8
0
 10
4672.443511386793034
 20
215.4866341050048106
 30
0.0
 11
4672.1096354318497106
 21
215.4866341050048106
 31
0.0
  0
LINE
  5
C670
  8
0
 10
4671.2181619528291776
 20
215.4866341050048106
 30
0.0
 11
4671.1223864406138091
 21
215.4866341050048106
 31
0.0
  0
CIRCLE
  5
C671
  8
0
 10
4672.2765734093218271
 20
215.4752920304048018
 30
0.0
 40
0.3287401575
  0
CIRCLE
  5
C672
  8
0
 10
4672.2765734093218271
 20
215.4752920304048018
 30
0.0
 40
0.2972440945
  0
ARC
  5
C673
  8
0
 10
4672.2765734093218271
 20
215.4752920304048018
 30
0.0
 40
0.2854330709
 50
34.1484243696136289
 51
145.8515756661408886
  0
ARC
  5
C674
  8
0
 10
4672.2765734093218271
 20
215.4752920304048018
 30
0.0
 40
0.2736220472
 50
30.3097875028166612
 51
149.6902125386799014
  0
ARC
  5
C675
  8
0
 10
4672.2765734093218271
 20
215.5067880934049072
 30
0.0
 40
0.2362204724
 50
180.0
 51
0.0
  0
CIRCLE
  5
C676
  8
0
 10
4672.2765734093218271
 20
215.4752920304048018
 30
0.0
 40
0.1850393701
  0
CIRCLE
  5
C677
  8
0
 10
4672.2765734093218271
 20
215.4752920304048018
 30
0.0
 40
0.1673228346
  0
CIRCLE
  5
C678
  8
0
 10
4671.1702733030224408
 20
215.4752971020049017
 30
0.0
 40
0.0846463737
  0
CIRCLE
  5
C679
  8
0
 10
4671.1702741967219481
 20
215.4752920304048018
 30
0.0
 40
0.0688976378
  0
CIRCLE
  5
C67A
  8
0
 10
4671.1702741967219481
 20
215.4752920304048018
 30
0.0
 40
0.0492125984
  0
LINE
  5
C67B
  8
0
 10
4673.8005014519712859
 20
211.478692030404801
 30
0.0
 11
4671.6187876941694412
 21
211.478692030404801
 31
0.0
  0
LINE
  5
C67C
  8
0
 10
4674.9261407010590119
 20
219.4718920304048027
 30
0.0
 11
4670.4931484450844437
 21
219.4718920304048027
 31
0.0
  0
ARC
  5
C67D
  8
0
 10
4670.568532640561898
 20
215.6805114933557093
 30
0.0
 40
4.8126089711673536
 50
182.4439499450402025
 51
208.2476263255796027
  0
ARC
  5
C67E
  8
0
 10
4669.6553083664512087
 20
215.4907660680771073
 30
0.0
 40
3.9272921761061301
 50
212.1176359005912104
 51
252.279636333428499
  0
ARC
  5
C67F
  8
0
 10
4671.0612876068080368
 20
223.5529654138182991
 30
0.0
 40
12.08641419178978
 50
257.5710921753540106
 51
265.6263401148747789
  0
ARC
  5
C680
  8
0
 10
4672.907990159320434
 20
341.6548121916998753
 30
0.0
 40
130.1825038292168131
 50
268.781474026059584
 51
269.4325883631813099
  0
ARC
  5
C681
  8
0
 10
4671.6376993332296479
 20
215.0806517996830962
 30
0.0
 40
5.890632422221862
 50
158.3744489038471102
 51
176.1586182121752984
  0
ARC
  5
C682
  8
0
 10
4669.6799030224829039
 20
215.442237707819487
 30
0.0
 40
3.9561984382614859
 50
114.306967662856394
 51
152.7841609332164978
  0
ARC
  5
C683
  8
0
 10
4669.8491489796706446
 20
214.7697568707775986
 30
0.0
 40
4.640350905471446
 50
94.7810660777391547
 51
112.7934182734818052
  0
ARC
  5
C684
  8
0
 10
4673.7075560362363831
 20
170.1000169106374074
 30
0.0
 40
49.4764031534627193
 50
93.7250443781929334
 51
94.9221436228851587
  0
LINE
  5
C685
  8
0
 10
4672.9793360814810512
 20
214.9967212921048088
 30
0.0
 11
4672.4399530646605854
 21
214.9967212921048088
 31
0.0
  0
LINE
  5
C686
  8
0
 10
4673.0726905662713762
 20
215.9538627687047949
 30
0.0
 11
4672.3465985798720794
 21
215.9538627687047949
 31
0.0
  0
LINE
  5
C687
  8
0
 10
4672.9772363367228536
 20
215.0282173551048004
 30
0.0
 11
4672.4420528094196925
 21
215.0282173551048004
 31
0.0
  0
LINE
  5
C688
  8
0
 10
4673.0600756113935859
 20
215.9223667057048885
 30
0.0
 11
4672.3592135347498697
 21
215.9223667057048885
 31
0.0
  0
ARC
  5
C689
  8
0
 10
4672.3897319293137116
 20
214.7213478164447054
 30
0.0
 40
1.2332694731399969
 50
92.004317023506772
 51
106.610638496664393
  0
ARC
  5
C68A
  8
0
 10
4672.1462767782750234
 20
215.5184196841788093
 30
0.0
 40
0.3999011780600774
 50
105.8312476438168943
 51
142.5426605264094917
  0
ARC
  5
C68B
  8
0
 10
4672.1919821290075561
 20
215.5410994041324102
 30
0.0
 40
0.4248650437543974
 50
148.7311038366784999
 51
172.7115926985601106
  0
ARC
  5
C68C
  8
0
 10
4677.0344863737373089
 20
215.2805071399959047
 30
0.0
 40
5.273322690695176
 50
176.5809449591206999
 51
177.8831351330599091
  0
ARC
  5
C68D
  8
0
 10
4672.9360571310562591
 20
215.4990180285001884
 30
0.0
 40
1.1715350131903139
 50
181.1604198884436983
 51
189.1372328632407971
  0
ARC
  5
C68E
  8
0
 10
4672.0801262182631035
 20
215.3620348664985897
 30
0.0
 40
0.3047130279783678
 50
189.2644565366938991
 51
235.2433994273260964
  0
ARC
  5
C68F
  8
0
 10
4672.2106095682056548
 20
215.5624823678697908
 30
0.0
 40
0.543830345448705
 50
235.9883634165838089
 51
262.8188695062318061
  0
ARC
  5
C690
  8
0
 10
4672.5402640700258416
 20
217.8356228695267873
 30
0.0
 40
2.8406732413437581
 50
261.9533236245554804
 51
267.9763274770962767
  0
ARC
  5
C691
  8
0
 10
4672.7288509368981977
 20
220.3901027592125956
 30
0.0
 40
5.3695500977931303
 50
264.3110986746083881
 51
266.9382638870537789
  0
ARC
  5
C692
  8
0
 10
4672.2578812892179485
 20
215.7211174190240968
 30
0.0
 40
0.676899767693548
 50
246.4231589129207123
 51
264.8043722921472067
  0
ARC
  5
C693
  8
0
 10
4672.0918267229571939
 20
215.3656948415890042
 30
0.0
 40
0.2849046669032571
 50
205.240165604114992
 51
248.4409912931425879
  0
ARC
  5
C694
  8
0
 10
4672.2619580509308435
 20
215.4208973849470112
 30
0.0
 40
0.4628851140930155
 50
185.4531184828319965
 51
202.4398933676172021
  0
ARC
  5
C695
  8
0
 10
4673.5898642985503102
 20
215.51547965471309
 30
0.0
 40
1.7940560086115991
 50
181.2835462710237948
 51
184.4298721796739926
  0
ARC
  5
C696
  8
0
 10
4672.885340446329792
 20
215.469324250576193
 30
0.0
 40
1.089098350143751
 50
174.2001762724798937
 51
179.6860244317333013
  0
ARC
  5
C697
  8
0
 10
4672.2149419786283033
 20
215.5411316697403947
 30
0.0
 40
0.4148917111529669
 50
154.9726187057283084
 51
174.7103042764011036
  0
ARC
  5
C698
  8
0
 10
4672.0721389665122842
 20
215.5969716405720078
 30
0.0
 40
0.2620578200769506
 50
121.8380012638603063
 51
152.8259474057495879
  0
ARC
  5
C699
  8
0
 10
4672.2113395037404189
 20
215.383008563407202
 30
0.0
 40
0.517287687433583
 50
97.6871353932322961
 51
122.4347059435888951
  0
ARC
  5
C69A
  8
0
 10
4672.5171587073737101
 20
213.7441122937688078
 30
0.0
 40
2.1839732051181682
 50
94.1472573539912929
 51
99.8873493380127826
  0
CIRCLE
  5
C69B
  8
0
 10
4672.2765734093218271
 20
215.4752920304048018
 30
0.0
 40
0.2047244094000007
  0
LINE
  5
C69C
  8
0
 10
4673.3789362093211821
 20
215.6557191350399023
 30
0.0
 11
4673.3789362093211821
 21
215.5067880934049072
 31
0.0
  0
LINE
  5
C69D
  8
0
 10
4672.9064952644212099
 20
215.6557191351708127
 30
0.0
 11
4672.9064952644212099
 21
215.5067880934049072
 31
0.0
  0
LINE
  5
C69E
  8
0
 10
4673.0149366242967517
 20
215.3672668973048019
 30
0.0
 11
4673.2704948493446864
 21
215.3672668973048019
 31
0.0
  0
LINE
  5
C69F
  8
0
 10
4672.9757777593504215
 20
215.4866341050048106
 30
0.0
 11
4673.3096537142928355
 21
215.4866341050048106
 31
0.0
  0
CIRCLE
  5
C6A0
  8
0
 10
4673.1427157368216285
 20
215.4752920304048018
 30
0.0
 40
0.3287401575
  0
CIRCLE
  5
C6A1
  8
0
 10
4673.1427157368216285
 20
215.4752920304048018
 30
0.0
 40
0.2972440945
  0
ARC
  5
C6A2
  8
0
 10
4673.1427157368216285
 20
215.4752920304048018
 30
0.0
 40
0.2854330709
 50
34.1484243338591114
 51
145.8515756303864066
  0
ARC
  5
C6A3
  8
0
 10
4673.1427157368216285
 20
215.4752920304048018
 30
0.0
 40
0.2736220472
 50
30.3097874613200702
 51
149.6902124971832961
  0
ARC
  5
C6A4
  8
0
 10
4673.1427157368216285
 20
215.5067880934049072
 30
0.0
 40
0.2362204724
 50
180.0
 51
0.0
  0
CIRCLE
  5
C6A5
  8
0
 10
4673.1427157368216285
 20
215.4752920304048018
 30
0.0
 40
0.1850393701
  0
CIRCLE
  5
C6A6
  8
0
 10
4673.1427157368216285
 20
215.4752920304048018
 30
0.0
 40
0.1673228346
  0
ARC
  5
C6A7
  8
0
 10
4674.8507565055806481
 20
215.6805114933557093
 30
0.0
 40
4.8126089711673536
 50
331.7523736744204257
 51
357.556050054959826
  0
ARC
  5
C6A8
  8
0
 10
4675.7639807796913374
 20
215.4907660680771073
 30
0.0
 40
3.9272921761061301
 50
287.7203636665714725
 51
327.8823640994087896
  0
ARC
  5
C6A9
  8
0
 10
4674.3580015393354188
 20
223.5529654138182991
 30
0.0
 40
12.08641419178978
 50
274.3736598851252211
 51
282.4289078246461031
  0
ARC
  5
C6AA
  8
0
 10
4672.5112989868175646
 20
341.654812191920314
 30
0.0
 40
130.1825038294373087
 50
270.5674116368185764
 51
271.218525973940416
  0
ARC
  5
C6AB
  8
0
 10
4673.7815898129128982
 20
215.0806517996830962
 30
0.0
 40
5.890632422221862
 50
3.8413817878246168
 51
21.6255510961529396
  0
ARC
  5
C6AC
  8
0
 10
4675.7393861236596422
 20
215.442237707819487
 30
0.0
 40
3.9561984382614859
 50
27.2158390667835199
 51
65.6930323371435634
  0
ARC
  5
C6AD
  8
0
 10
4675.570140166472811
 20
214.7697568707775986
 30
0.0
 40
4.640350905471446
 50
67.2065817265181806
 51
85.2189339222608311
  0
ARC
  5
C6AE
  8
0
 10
4671.7117331099088915
 20
170.1000169106991109
 30
0.0
 40
49.4764031534009376
 50
85.0778563771147134
 51
86.2749556218070666
  0
ARC
  5
C6AF
  8
0
 10
4673.029557216827925
 20
214.7213478164447054
 30
0.0
 40
1.2332694731399969
 50
73.389361503335536
 51
87.9956829764932422
  0
ARC
  5
C6B0
  8
0
 10
4673.2730123678684322
 20
215.5184196841788093
 30
0.0
 40
0.3999011780600774
 50
37.4573394735904515
 51
74.1687523561831057
  0
ARC
  5
C6B1
  8
0
 10
4673.22730701713499
 20
215.5410994041324102
 30
0.0
 40
0.4248650437543974
 50
7.2884073014398592
 51
31.2688961633214291
  0
ARC
  5
C6B2
  8
0
 10
4668.3848027724061467
 20
215.2805071399959047
 30
0.0
 40
5.273322690695176
 50
2.1168648669400461
 51
3.419055040879257
  0
ARC
  5
C6B3
  8
0
 10
4672.483232015088106
 20
215.4990180285001884
 30
0.0
 40
1.1715350131903139
 50
350.8627671367576113
 51
358.8395801115561881
  0
ARC
  5
C6B4
  8
0
 10
4673.3391629278794426
 20
215.3620348664985897
 30
0.0
 40
0.3047130279783678
 50
304.7566005726740173
 51
350.7355434633061009
  0
ARC
  5
C6B5
  8
0
 10
4673.2086795779359818
 20
215.5624823678697908
 30
0.0
 40
0.543830345448705
 50
277.1811304937680802
 51
304.0116365834161911
  0
ARC
  5
C6B6
  8
0
 10
4672.8790250761157949
 20
217.8356228695267873
 30
0.0
 40
2.8406732413437581
 50
272.0236725229037233
 51
278.0466763754445196
  0
ARC
  5
C6B7
  8
0
 10
4672.6904382092443484
 20
220.3901027592125956
 30
0.0
 40
5.3695500977931303
 50
273.0617361129462211
 51
275.6889013253916119
  0
ARC
  5
C6B8
  8
0
 10
4673.1614078569264166
 20
215.7211174190240968
 30
0.0
 40
0.676899767693548
 50
275.1956277078527933
 51
293.5768410870792877
  0
ARC
  5
C6B9
  8
0
 10
4673.3274624231862617
 20
215.3656948415890042
 30
0.0
 40
0.2849046669032571
 50
291.5590087068574121
 51
334.7598343958849227
  0
ARC
  5
C6BA
  8
0
 10
4673.1573310952098836
 20
215.4208973849470112
 30
0.0
 40
0.4628851140930155
 50
337.5601066323811779
 51
354.5468815171680035
  0
ARC
  5
C6BB
  8
0
 10
4671.8294248475931454
 20
215.51547965471309
 30
0.0
 40
1.7940560086115991
 50
355.5701278203259221
 51
358.7164537289762052
  0
ARC
  5
C6BC
  8
0
 10
4672.5339486998136636
 20
215.469324250576193
 30
0.0
 40
1.089098350143751
 50
0.3139755682666739
 51
5.7998237275201161
  0
ARC
  5
C6BD
  8
0
 10
4673.2043471675151523
 20
215.5411316697403947
 30
0.0
 40
0.4148917111529669
 50
5.2896957235988724
 51
25.0273812942717093
  0
ARC
  5
C6BE
  8
0
 10
4673.3471501796302618
 20
215.5969716405720078
 30
0.0
 40
0.2620578200769506
 50
27.1740525942504298
 51
58.1619987361396866
  0
ARC
  5
C6BF
  8
0
 10
4673.2079496424021272
 20
215.383008563407202
 30
0.0
 40
0.517287687433583
 50
57.5652940564110622
 51
82.3128646067677323
  0
ARC
  5
C6C0
  8
0
 10
4672.9021304387697455
 20
213.7441122937688078
 30
0.0
 40
2.1839732051181682
 50
80.1126506619872174
 51
85.8527426460087071
  0
CIRCLE
  5
C6C1
  8
0
 10
4673.1427157368216285
 20
215.4752920304048018
 30
0.0
 40
0.2047244094000007
  0
CIRCLE
  5
C6C2
  8
0
 10
4671.1702741967219481
 20
215.4752920304048018
 30
0.0
 40
0.1331031978453224
  0
LINE
  5
C6C3
  8
0
 10
4674.2969021103290288
 20
215.4866341050048106
 30
0.0
 11
4674.2011265981136603
 21
215.4866341050048106
 31
0.0
  0
CIRCLE
  5
C6C4
  8
0
 10
4674.2490134605213825
 20
215.4752971020049017
 30
0.0
 40
0.0846463737
  0
CIRCLE
  5
C6C5
  8
0
 10
4674.2490143542217993
 20
215.4752920304048018
 30
0.0
 40
0.0688976378
  0
CIRCLE
  5
C6C6
  8
0
 10
4674.2490143542217993
 20
215.4752920304048018
 30
0.0
 40
0.0492125984
  0
CIRCLE
  5
C6C7
  8
0
 10
4674.2490143542217993
 20
215.4752920304048018
 30
0.0
 40
0.1331031978453224
  0
LINE
  5
C6C8
  8
0
 10
4672.7575320315281715
 20
216.5614372546048116
 30
0.0
 11
4672.661756519312803
 21
216.5614372546048116
 31
0.0
  0
CIRCLE
  5
C6C9
  8
0
 10
4672.7096433817214347
 20
216.5501002516049027
 30
0.0
 40
0.0846463737
  0
CIRCLE
  5
C6CA
  8
0
 10
4672.709644275420942
 20
216.5500951800048881
 30
0.0
 40
0.0688976378
  0
CIRCLE
  5
C6CB
  8
0
 10
4672.709644275420942
 20
216.5500951800048881
 30
0.0
 40
0.0492125984
  0
CIRCLE
  5
C6CC
  8
0
 10
4672.709644275420942
 20
216.5500951800048881
 30
0.0
 40
0.1331031978453224
  0
LINE
  5
C6CD
  8
0
 10
4672.7575320315281715
 20
214.4118309554048096
 30
0.0
 11
4672.661756519312803
 21
214.4118309554048096
 31
0.0
  0
CIRCLE
  5
C6CE
  8
0
 10
4672.7096433817214347
 20
214.4004939524049007
 30
0.0
 40
0.0846463737
  0
CIRCLE
  5
C6CF
  8
0
 10
4672.709644275420942
 20
214.4004888808048861
 30
0.0
 40
0.0688976378
  0
CIRCLE
  5
C6D0
  8
0
 10
4672.709644275420942
 20
214.4004888808048861
 30
0.0
 40
0.0492125984
  0
CIRCLE
  5
C6D1
  8
0
 10
4672.709644275420942
 20
214.4004888808048861
 30
0.0
 40
0.1331031978453224
  0
ENDSEC
  0
EOF
