  0
SECTION
  2
HEADER
  9
$ACADVER
  1
AC1009
  9
$INSBASE
 10
4646.1386601805097598
 20
214.927292311262903
 30
0.0
  9
$EXTMIN
 10
4637.0850942205115643
 20
211.4903453903116031
 30
-0.0000000000000153
  9
$EXTMAX
 10
4655.197870019434049
 20
214.9338518721214939
 30
0.0
  9
$LIMMIN
 10
0.0
 20
0.0
  9
$LIMMAX
 10
11.6929133858000007
 20
8.2677165353999982
  9
$ORTHOMODE
 70
     1
  9
$REGENMODE
 70
     1
  9
$FILLMODE
 70
     1
  9
$QTEXTMODE
 70
     0
  9
$MIRRTEXT
 70
     0
  9
$DRAGMODE
 70
     2
  9
$LTSCALE
 40
0.6431102362
  9
$OSMODE
 70
  2039
  9
$ATTMODE
 70
     1
  9
$TEXTSIZE
 40
0.2
  9
$TRACEWID
 40
0.05
  9
$TEXTSTYLE
  7
STANDARD
  9
$CLAYER
  8
0
  9
$CELTYPE
  6
BYLAYER
  9
$CECOLOR
 62
   256
  9
$DIMSCALE
 40
1.0
  9
$DIMASZ
 40
0.1875
  9
$DIMEXO
 40
0.0625
  9
$DIMDLI
 40
0.4443307087
  9
$DIMRND
 40
0.0
  9
$DIMDLE
 40
0.0
  9
$DIMEXE
 40
0.125
  9
$DIMTP
 40
0.01
  9
$DIMTM
 40
0.01
  9
$DIMTXT
 40
2.0
  9
$DIMCEN
 40
0.1052362205
  9
$DIMTSZ
 40
0.0
  9
$DIMTOL
 70
     1
  9
$DIMLIM
 70
     0
  9
$DIMTIH
 70
     1
  9
$DIMTOH
 70
     1
  9
$DIMSE1
 70
     0
  9
$DIMSE2
 70
     0
  9
$DIMTAD
 70
     0
  9
$DIMZIN
 70
     0
  9
$DIMBLK
  1

  9
$DIMASO
 70
     1
  9
$DIMSHO
 70
     1
  9
$DIMPOST
  1
\X
  9
$DIMAPOST
  1

  9
$DIMALT
 70
     1
  9
$DIMALTD
 70
     2
  9
$DIMALTF
 40
25.3999999999999986
  9
$DIMLFAC
 40
1.0
  9
$DIMTOFL
 70
     0
  9
$DIMTVP
 40
0.0
  9
$DIMTIX
 70
     0
  9
$DIMSOXD
 70
     0
  9
$DIMSAH
 70
     0
  9
$DIMBLK1
  1

  9
$DIMBLK2
  1

  9
$DIMSTYLE
  2
STANDARD
  9
$DIMCLRD
 70
     0
  9
$DIMCLRE
 70
     0
  9
$DIMCLRT
 70
     0
  9
$DIMTFAC
 40
1.0
  9
$DIMGAP
 40
0.09
  9
$LUNITS
 70
     2
  9
$LUPREC
 70
     4
  9
$SKETCHINC
 40
0.1
  9
$FILLETRAD
 40
0.0
  9
$AUNITS
 70
     0
  9
$AUPREC
 70
     0
  9
$MENU
  1
.
  9
$ELEVATION
 40
0.0
  9
$PELEVATION
 40
0.0
  9
$THICKNESS
 40
0.0
  9
$LIMCHECK
 70
     0
  9
$BLIPMODE
 70
     0
  9
$CHAMFERA
 40
0.0
  9
$CHAMFERB
 40
0.0
  9
$SKPOLY
 70
     0
  9
$TDCREATE
 40
2458060.468368056230247
  9
$TDUPDATE
 40
2459285.7475694450549781
  9
$TDINDWG
 40
0.3529584491
  9
$TDUSRTIMER
 40
0.3529584491
  9
$USRTIMER
 70
     1
  9
$ANGBASE
 50
0.0
  9
$ANGDIR
 70
     0
  9
$PDMODE
 70
     0
  9
$PDSIZE
 40
0.3125
  9
$PLINEWID
 40
0.0
  9
$COORDS
 70
     1
  9
$SPLFRAME
 70
     0
  9
$SPLINETYPE
 70
     6
  9
$SPLINESEGS
 70
     8
  9
$ATTDIA
 70
     1
  9
$ATTREQ
 70
     1
  9
$HANDLING
 70
     1
  9
$HANDSEED
  5
C8D7
  9
$SURFTAB1
 70
     6
  9
$SURFTAB2
 70
     6
  9
$SURFTYPE
 70
     6
  9
$SURFU
 70
     6
  9
$SURFV
 70
     6
  9
$UCSNAME
  2

  9
$UCSORG
 10
0.0
 20
0.0
 30
0.0
  9
$UCSXDIR
 10
1.0
 20
0.0
 30
0.0
  9
$UCSYDIR
 10
0.0
 20
1.0
 30
0.0
  9
$PUCSNAME
  2

  9
$PUCSORG
 10
0.0
 20
0.0
 30
0.0
  9
$PUCSXDIR
 10
1.0
 20
0.0
 30
0.0
  9
$PUCSYDIR
 10
0.0
 20
1.0
 30
0.0
  9
$USERI1
 70
     0
  9
$USERI2
 70
     0
  9
$USERI3
 70
     0
  9
$USERI4
 70
     0
  9
$USERI5
 70
     0
  9
$USERR1
 40
0.0
  9
$USERR2
 40
0.0
  9
$USERR3
 40
0.0
  9
$USERR4
 40
0.0
  9
$USERR5
 40
0.0
  9
$WORLDVIEW
 70
     1
  9
$SHADEDGE
 70
     3
  9
$SHADEDIF
 70
    70
  9
$TILEMODE
 70
     1
  9
$MAXACTVP
 70
    64
  9
$PLIMCHECK
 70
     0
  9
$PEXTMIN
 10
1.0000000000000000E+20
 20
1.0000000000000000E+20
 30
1.0000000000000000E+20
  9
$PEXTMAX
 10
-1.0000000000000000E+20
 20
-1.0000000000000000E+20
 30
-1.0000000000000000E+20
  9
$PLIMMIN
 10
0.0
 20
0.0
  9
$PLIMMAX
 10
12.0
 20
9.0
  9
$UNITMODE
 70
     0
  9
$VISRETAIN
 70
     1
  9
$PLINEGEN
 70
     0
  9
$PSLTSCALE
 70
     1
  0
ENDSEC
  0
SECTION
  2
TABLES
  0
TABLE
  2
VPORT
 70
     1
  0
VPORT
  2
*ACTIVE
 70
     0
 10
0.0
 20
0.0
 11
1.0
 21
1.0
 12
0.0028102449732614
 22
-0.0017380387052981
 13
0.0
 23
0.0
 14
1.0
 24
1.0
 15
0.0
 25
0.0
 16
0.0
 26
0.0
 36
51.456647007814631
 17
4646.1386718749990905
 27
213.2138366699219034
 37
0.0
 40
6.860080351025978
 41
2.6486111111111108
 42
50.0
 43
0.0
 44
0.0
 50
0.0
 51
0.0
 71
     0
 72
   100
 73
     1
 74
     1
 75
     0
 76
     0
 77
     0
 78
     0
  0
ENDTAB
  0
TABLE
  2
LTYPE
 70
     2
  0
LTYPE
  2
CONTINUOUS
 70
     0
  3
Solid line
 72
    65
 73
     0
 40
0.0
  0
LTYPE
  2
PHANTOM2
 70
     0
  3
___ _ _ ___ _ _ ___ _ _ ___ _ _
 72
    65
 73
     6
 40
1.25
 49
0.625
 49
-0.125
 49
0.125
 49
-0.125
 49
0.125
 49
-0.125
  0
ENDTAB
  0
TABLE
  2
LAYER
 70
     2
  0
LAYER
  2
0
 70
     0
 62
   255
  6
CONTINUOUS
  0
LAYER
  2
DEFPOINTS
 70
     0
 62
     7
  6
CONTINUOUS
  0
ENDTAB
  0
TABLE
  2
STYLE
 70
     1
  0
STYLE
  2
STANDARD
 70
     0
 40
0.0
 41
0.8
 50
0.0
 71
     0
 42
0.2
  3
txt
  4

  0
ENDTAB
  0
TABLE
  2
VIEW
 70
     0
  0
ENDTAB
  0
TABLE
  2
UCS
 70
     0
  0
ENDTAB
  0
TABLE
  2
APPID
 70
     9
  0
APPID
  2
ACAD
 70
     0
  0
APPID
  2
ACAD_MLEADERVER
 70
     0
  0
APPID
  2
ACAD_EXEMPT_FROM_CAD_STANDARDS
 70
     0
  0
APPID
  2
ACAD_NAV_VCDISPLAY
 70
     0
  0
APPID
  2
ACAECLAYERSTANDARD
 70
     0
  0
APPID
  2
ACCMTRANSPARENCY
 70
     0
  0
APPID
  2
ACAD_DSTYLE_DIMJAG
 70
     0
  0
APPID
  2
ACAD_DSTYLE_DIMTALN
 70
     0
  0
APPID
  2
ACDBATTR
 70
     0
  0
ENDTAB
  0
TABLE
  2
DIMSTYLE
 70
     1
  0
DIMSTYLE
  2
STANDARD
 70
     0
  3

  4

  5

  6

  7

 40
1.0
 41
0.1875
 42
0.0625
 43
0.38
 44
0.125
 45
0.0
 46
0.0
 47
0.01
 48
0.01
140
0.15625
141
0.09
142
0.0
143
25.3999999999999986
144
1.0
145
0.0
146
1.0
147
0.09
 71
     1
 72
     0
 73
     1
 74
     1
 75
     0
 76
     0
 77
     0
 78
     4
170
     0
171
     2
172
     0
173
     0
174
     0
175
     0
176
     0
177
     0
178
     0
  0
ENDTAB
  0
ENDSEC
  0
SECTION
  2
BLOCKS
  0
BLOCK
  8
0
  2
$MODEL_SPACE
 70
     0
 10
0.0
 20
0.0
 30
0.0
  3
$MODEL_SPACE
  1

  0
ENDBLK
  5
21
  8
0
  0
BLOCK
 67
     1
  8
0
  2
$PAPER_SPACE
 70
     0
 10
0.0
 20
0.0
 30
0.0
  3
$PAPER_SPACE
  1

  0
ENDBLK
  5
1D
 67
     1
  8
0
  0
ENDSEC
  0
SECTION
  2
ENTITIES
  0
ATTDEF
  5
3930
  8
DEFPOINTS
 10
4646.1340420721689952
 20
214.9257031848887891
 30
0.0
 40
0.001
  1
K-26297BR
  3

  2
MODELNUMBER
 70
     0
1001
ACDBATTR
1070
     0
1070
     1
  0
ATTDEF
  5
3931
  8
DEFPOINTS
 10
4646.1340420721689952
 20
214.9240365182222092
 30
0.0
 40
0.001
  1

  3

  2
TRADENAME
 70
     0
1001
ACDBATTR
1070
     0
1070
     1
  0
ATTDEF
  5
3932
  8
DEFPOINTS
 10
4646.1340420721689952
 20
214.9223698515554872
 30
0.0
 40
0.001
  1
SHOWERHEAD
  3

  2
PRODUCT
 70
     0
1001
ACDBATTR
1070
     0
1070
     1
  0
LINE
  5
C5C6
  8
0
 10
4638.1522542181110111
 20
211.5058229098628999
 30
0.0
 11
4638.1475871642105631
 21
211.5139064844628933
 31
0.0
  0
LINE
  5
C5C7
  8
0
 10
4638.2870277208112384
 20
211.5058229098628999
 30
0.0
 11
4638.2916947748099119
 21
211.5139064844628933
 31
0.0
  0
LINE
  5
C5C8
  8
0
 10
4638.1610220208121973
 20
211.5008229098629045
 30
0.0
 11
4638.2782599182110062
 21
211.5008229098629045
 31
0.0
  0
LINE
  5
C5C9
  8
0
 10
4645.3551957377112558
 20
214.494221445162907
 30
0.0
 11
4645.3551957377112558
 21
214.5729616025629127
 31
0.0
  0
LINE
  5
C5CA
  8
0
 10
4646.0331844910097061
 20
214.4804419175628993
 30
0.0
 11
4645.3611012495111936
 21
214.4804419175628993
 31
0.0
  0
LINE
  5
C5CB
  8
0
 10
4645.3551957377112558
 20
214.494221445162907
 30
0.0
 11
4646.9221246233109923
 21
214.494221445162907
 31
0.0
  0
LINE
  5
C5CC
  8
0
 10
4646.9221246233109923
 20
214.5729616025629127
 30
0.0
 11
4645.3551957377112558
 21
214.5729616025629127
 31
0.0
  0
LINE
  5
C5CD
  8
0
 10
4645.3611012495111936
 20
214.5788671143629927
 30
0.0
 11
4646.0331844910097061
 21
214.5788671143629927
 31
0.0
  0
ARC
  5
C5CE
  8
0
 10
4645.3611012495111936
 20
214.5296545159629034
 30
0.0
 40
0.0492125984
 50
90.0
 51
270.0
  0
ARC
  5
C5CF
  8
0
 10
4646.0331844910097061
 20
214.460756878162897
 30
0.0
 40
0.0196850394
 50
33.1528879376046319
 51
90.0
  0
ARC
  5
C5D0
  8
0
 10
4646.0331844910097061
 20
214.598552153762995
 30
0.0
 40
0.0196850394
 50
270.0
 51
326.8471120625928279
  0
ARC
  5
C5D1
  8
0
 10
4638.2777107745187095
 20
211.5119733028739972
 30
0.0
 40
0.0111639071607692
 50
272.8194714773305236
 51
326.5700126000829755
  0
ARC
  5
C5D2
  8
0
 10
4638.1612952375589884
 20
211.511489448279292
 30
0.0
 40
0.0106700369811393
 50
212.077790853293692
 51
268.5327250692728853
  0
ARC
  5
C5D3
  8
0
 10
4646.1433077001565835
 20
214.5382412424638972
 30
0.0
 40
0.1149799045136304
 50
215.4693634292077036
 51
267.6834576064310909
  0
ARC
  5
C5D4
  8
0
 10
4646.1416166939507093
 20
214.5241921647501897
 30
0.0
 40
0.1118006624201173
 50
91.515335313801657
 51
145.3318436505761895
  0
LINE
  5
C5D5
  8
0
 10
4637.2371932065807414
 20
211.5139064844628933
 30
0.0
 11
4655.0401271544405972
 21
211.5139064844628933
 31
0.0
  0
LINE
  5
C5D6
  8
0
 10
4645.1937781171600363
 20
214.9233553033629107
 30
0.0
 11
4645.1937781171600363
 21
214.1329425406628957
 31
0.0
  0
LINE
  5
C5D7
  8
0
 10
4645.5942163442596211
 20
214.5729616025629127
 30
0.0
 11
4645.5942163442596211
 21
214.576898610462905
 31
0.0
  0
LINE
  5
C5D8
  8
0
 10
4645.8169619373611567
 20
214.576898610462905
 30
0.0
 11
4645.8169619373611567
 21
214.5729616025629127
 31
0.0
  0
LINE
  5
C5D9
  8
0
 10
4646.0630325553602233
 20
214.490284437263
 30
0.0
 11
4645.3551954400600152
 21
214.490284437263
 31
0.0
  0
LINE
  5
C5DA
  8
0
 10
4645.3551954402610136
 20
214.576898610462905
 30
0.0
 11
4646.0630325562597136
 21
214.576898610462905
 31
0.0
  0
LINE
  5
C5DB
  8
0
 10
4647.0835422438613023
 20
214.9233553033629107
 30
0.0
 11
4645.1937781171600363
 21
214.9233553033629107
 31
0.0
  0
ARC
  5
C5DC
  8
0
 10
4645.3552031008721315
 20
214.5336110350031049
 30
0.0
 40
0.0433265984173907
 50
182.7206808685743056
 51
269.9898698773545789
  0
ARC
  5
C5DD
  8
0
 10
4645.3552051730293897
 20
214.5335667857104909
 30
0.0
 40
0.0433318258454692
 50
90.0128694791028749
 51
110.1252471682129936
  0
ARC
  5
C5DE
  8
0
 10
4646.0630325553602233
 20
214.5965836498629074
 30
0.0
 40
0.0196850393999997
 50
270.0000026195800729
 51
320.2081805004099806
  0
ARC
  5
C5DF
  8
0
 10
4646.0630325553602233
 20
214.4705993978629124
 30
0.0
 40
0.0196850394
 50
39.7918194995899128
 51
90.0
  0
ARC
  5
C5E0
  8
0
 10
4646.1386600069599808
 20
214.5335915238628957
 30
0.0
 40
0.0787401575
 50
89.9998737152363049
 51
150.0000000419967989
  0
ARC
  5
C5E1
  8
0
 10
4646.1386600069599808
 20
214.5335915238619009
 30
0.0
 40
0.0787401574986128
 50
209.9999999577190977
 51
270.0001262854931952
  0
ARC
  5
C5E2
  8
0
 10
4637.2381127624048531
 20
211.5297786935261968
 30
0.0
 40
0.0158988239647022
 50
182.8165520955458874
 51
266.6842775929014806
  0
ARC
  5
C5E3
  8
0
 10
4656.0753432725068706
 20
211.6927264653741076
 30
0.0
 40
18.8538210633611598
 50
176.1840633035268127
 51
180.4975701913689932
  0
ARC
  5
C5E4
  8
0
 10
4638.3131426943818951
 20
212.9080030725108088
 30
0.0
 40
1.0505632795927571
 50
121.0746366789375941
 51
177.8467510552397925
  0
LINE
  5
C5E5
  8
0
 10
4651.7985446511556802
 20
214.1329425406628957
 30
0.0
 11
4640.4787757098656584
 21
214.1329425406630094
 31
0.0
  0
ARC
  5
C5E6
  8
0
 10
4641.5791146313213176
 20
167.5606472415211954
 30
0.0
 40
46.5852920477324517
 50
91.3534451977041044
 51
93.2894004149295739
  0
ARC
  5
C5E7
  8
0
 10
4639.2633529517843272
 20
208.8024328777607934
 30
0.0
 40
5.2788586364265138
 50
93.8807258522335957
 51
100.8367748498669982
  0
ARC
  5
C5E8
  8
0
 10
4638.5727017307999631
 20
212.359124929776101
 30
0.0
 40
1.655771347193741
 50
100.5033737718499935
 51
118.9635218849836065
  0
LINE
  5
C5E9
  8
0
 10
4645.2292114857109482
 20
214.927292311262903
 30
0.0
 11
4645.2292114857109482
 21
214.9233553033629107
 31
0.0
  0
LINE
  5
C5EA
  8
0
 10
4645.2292114857109482
 20
214.927292311262903
 30
0.0
 11
4647.0481088753112999
 21
214.927292311262903
 31
0.0
  0
LINE
  5
C5EB
  8
0
 10
4638.0758982881097836
 20
211.5074786957628987
 30
0.0
 11
4638.0721872026306301
 21
211.5139064844628933
 31
0.0
  0
LINE
  5
C5EC
  8
0
 10
4638.0846660908109698
 20
211.5024786957629033
 30
0.0
 11
4638.1555806922342526
 21
211.5024786957629033
 31
0.0
  0
ARC
  5
C5ED
  8
0
 10
4638.0849393075595799
 20
211.5131452341792908
 30
0.0
 40
0.0106700369811393
 50
212.077790853293692
 51
268.5327250692728853
  0
LINE
  5
C5EE
  8
0
 10
4638.3999463099107743
 20
211.5053769524629104
 30
0.0
 11
4638.3950217823903586
 21
211.5139064844628933
 31
0.0
  0
LINE
  5
C5EF
  8
0
 10
4638.5347198126110015
 20
211.5053769524629104
 30
0.0
 11
4638.5396443402369187
 21
211.5139064844628933
 31
0.0
  0
LINE
  5
C5F0
  8
0
 10
4638.4087141126101415
 20
211.5003769524628865
 30
0.0
 11
4638.5259520100098598
 21
211.5003769524628865
 31
0.0
  0
ARC
  5
C5F1
  8
0
 10
4638.5254028663202917
 20
211.5115273454740077
 30
0.0
 40
0.0111639071607692
 50
272.8194714773305236
 51
326.5700126000829755
  0
ARC
  5
C5F2
  8
0
 10
4638.4089873293587516
 20
211.5110434908793025
 30
0.0
 40
0.0106700369811393
 50
212.077790853293692
 51
268.5327250692728853
  0
LINE
  5
C5F3
  8
0
 10
4638.8330703191113571
 20
211.5068143984628932
 30
0.0
 11
4638.8289757014126735
 21
211.5139064844628933
 31
0.0
  0
LINE
  5
C5F4
  8
0
 10
4638.9678438218097654
 20
211.5068143984628932
 30
0.0
 11
4638.9719384395966699
 21
211.5139064844628933
 31
0.0
  0
LINE
  5
C5F5
  8
0
 10
4638.8418381218107243
 20
211.5018143984628978
 30
0.0
 11
4638.9590760192113521
 21
211.5018143984628978
 31
0.0
  0
ARC
  5
C5F6
  8
0
 10
4638.958526875518146
 20
211.5129647914739905
 30
0.0
 40
0.0111639071607692
 50
272.8194714773305236
 51
326.5700126000829755
  0
ARC
  5
C5F7
  8
0
 10
4638.8421113385602439
 20
211.5124809368793137
 30
0.0
 40
0.0106700369811393
 50
212.077790853293692
 51
268.5327250692728853
  0
LINE
  5
C5F8
  8
0
 10
4639.4053134716123168
 20
211.5099181749629054
 30
0.0
 11
4639.4030108200822724
 21
211.5139064844628933
 31
0.0
  0
LINE
  5
C5F9
  8
0
 10
4639.5400869743098156
 20
211.5099181749629054
 30
0.0
 11
4639.5423896258889727
 21
211.5139064844628933
 31
0.0
  0
LINE
  5
C5FA
  8
0
 10
4639.4140812743107745
 20
211.5049181749629099
 30
0.0
 11
4639.5313191717123118
 21
211.5049181749629099
 31
0.0
  0
ARC
  5
C5FB
  8
0
 10
4639.5307700280191057
 20
211.5160685679740027
 30
0.0
 40
0.0111639071607692
 50
272.8194714773305236
 51
326.5700126000829755
  0
ARC
  5
C5FC
  8
0
 10
4639.4143544910602941
 20
211.5155847133792975
 30
0.0
 40
0.0106700369811393
 50
212.077790853293692
 51
268.5327250692728853
  0
LINE
  5
C5FD
  8
0
 10
4640.0927663090105852
 20
211.5106755239629024
 30
0.0
 11
4640.2100042064112131
 21
211.5106755239629024
 31
0.0
  0
ARC
  5
C5FE
  8
0
 10
4640.2094550627189165
 20
211.5218259169739099
 30
0.0
 40
0.0111639071607692
 50
272.8194714773305236
 51
314.8156524803590059
  0
ARC
  5
C5FF
  8
0
 10
4640.0930395257601049
 20
211.5213420623792047
 30
0.0
 40
0.0106700369811393
 50
224.1760399726680077
 51
268.5327250692728853
  0
LINE
  5
C600
  8
0
 10
4654.125066142911237
 20
211.5058229098628999
 30
0.0
 11
4654.1297331968107756
 21
211.5139064844628933
 31
0.0
  0
LINE
  5
C601
  8
0
 10
4653.9902926402110097
 20
211.5058229098628999
 30
0.0
 11
4653.9856255862096077
 21
211.5139064844628933
 31
0.0
  0
LINE
  5
C602
  8
0
 10
4654.1162983402109603
 20
211.5008229098629045
 30
0.0
 11
4653.999060442811242
 21
211.5008229098629045
 31
0.0
  0
ARC
  5
C603
  8
0
 10
4653.9996095865017196
 20
211.5119733028739972
 30
0.0
 40
0.0111639071607692
 50
213.4299873999169961
 51
267.1805285226694764
  0
ARC
  5
C604
  8
0
 10
4654.1160251234614407
 20
211.511489448279292
 30
0.0
 40
0.0106700369811393
 50
271.4672749307271147
 51
327.9222091467063933
  0
ARC
  5
C605
  8
0
 10
4655.039207598617395
 20
211.5297786935261968
 30
0.0
 40
0.0158988239647022
 50
273.3157224070985194
 51
357.1834479044539989
  0
ARC
  5
C606
  8
0
 10
4636.2019770885135586
 20
211.6927264653741076
 30
0.0
 40
18.8538210633611598
 50
359.5024298086310068
 51
3.8159366964731611
  0
ARC
  5
C607
  8
0
 10
4653.9641776666394435
 20
212.9080030725108088
 30
0.0
 40
1.0505632795927571
 50
2.1532489447602341
 51
58.9253633210623633
  0
ARC
  5
C608
  8
0
 10
4650.6982057297009305
 20
167.5606472415211954
 30
0.0
 40
46.5852920477324517
 50
86.7105995850704261
 51
88.646554802295924
  0
ARC
  5
C609
  8
0
 10
4653.0139674092379209
 20
208.8024328777607934
 30
0.0
 40
5.2788586364265138
 50
79.1632251501330018
 51
86.1192741477664185
  0
ARC
  5
C60A
  8
0
 10
4653.7046186302213755
 20
212.359124929776101
 30
0.0
 40
1.655771347193741
 50
61.0364781150164433
 51
79.4966262281499638
  0
LINE
  5
C60B
  8
0
 10
4654.2014220729106455
 20
211.5074786957628987
 30
0.0
 11
4654.2051331583907086
 21
211.5139064844628933
 31
0.0
  0
LINE
  5
C60C
  8
0
 10
4654.1926542702112783
 20
211.5024786957629033
 30
0.0
 11
4654.1217396687861765
 21
211.5024786957629033
 31
0.0
  0
ARC
  5
C60D
  8
0
 10
4654.1923810534608492
 20
211.5131452341792908
 30
0.0
 40
0.0106700369811393
 50
271.4672749307271147
 51
327.9222091467063933
  0
LINE
  5
C60E
  8
0
 10
4653.8773740511096548
 20
211.5053769524629104
 30
0.0
 11
4653.8822985786318895
 21
211.5139064844628933
 31
0.0
  0
LINE
  5
C60F
  8
0
 10
4653.7426005484112466
 20
211.5053769524629104
 30
0.0
 11
4653.73767602078442
 21
211.5139064844628933
 31
0.0
  0
LINE
  5
C610
  8
0
 10
4653.8686062484111972
 20
211.5003769524628865
 30
0.0
 11
4653.7513683510096598
 21
211.5003769524628865
 31
0.0
  0
ARC
  5
C611
  8
0
 10
4653.751917494702866
 20
211.5115273454740077
 30
0.0
 40
0.0111639071607692
 50
213.4299873999169961
 51
267.1805285226694764
  0
ARC
  5
C612
  8
0
 10
4653.868333031660768
 20
211.5110434908793025
 30
0.0
 40
0.0106700369811393
 50
271.4672749307271147
 51
327.9222091467063933
  0
LINE
  5
C613
  8
0
 10
4653.444250041910891
 20
211.5068143984628932
 30
0.0
 11
4653.4483446596095746
 21
211.5139064844628933
 31
0.0
  0
LINE
  5
C614
  8
0
 10
4653.3094765392097543
 20
211.5068143984628932
 30
0.0
 11
4653.3053819214237592
 21
211.5139064844628933
 31
0.0
  0
LINE
  5
C615
  8
0
 10
4653.4354822392106144
 20
211.5018143984628978
 30
0.0
 11
4653.318244341810896
 21
211.5018143984628978
 31
0.0
  0
ARC
  5
C616
  8
0
 10
4653.3187934855022831
 20
211.5129647914739905
 30
0.0
 40
0.0111639071607692
 50
213.4299873999169961
 51
267.1805285226694764
  0
ARC
  5
C617
  8
0
 10
4653.4352090224620042
 20
211.5124809368793137
 30
0.0
 40
0.0106700369811393
 50
271.4672749307271147
 51
327.9222091467063933
  0
LINE
  5
C618
  8
0
 10
4652.8720068894108408
 20
211.5099181749629054
 30
0.0
 11
4652.8743095409390662
 21
211.5139064844628933
 31
0.0
  0
LINE
  5
C619
  8
0
 10
4652.7372333867097041
 20
211.5099181749629054
 30
0.0
 11
4652.7349307351341849
 21
211.5139064844628933
 31
0.0
  0
LINE
  5
C61A
  8
0
 10
4652.8632390867105642
 20
211.5049181749629099
 30
0.0
 11
4652.7460011893108458
 21
211.5049181749629099
 31
0.0
  0
ARC
  5
C61B
  8
0
 10
4652.7465503330013235
 20
211.5160685679740027
 30
0.0
 40
0.0111639071607692
 50
213.4299873999169961
 51
267.1805285226694764
  0
ARC
  5
C61C
  8
0
 10
4652.862965869961954
 20
211.5155847133792975
 30
0.0
 40
0.0106700369811393
 50
271.4672749307271147
 51
327.9222091467063933
  0
LINE
  5
C61D
  8
0
 10
4652.1845540520107534
 20
211.5106755239629024
 30
0.0
 11
4652.067316154611035
 21
211.5106755239629024
 31
0.0
  0
ARC
  5
C61E
  8
0
 10
4652.0678652983024222
 20
211.5218259169739099
 30
0.0
 40
0.0111639071607692
 50
225.1843475196411077
 51
267.1805285226694764
  0
ARC
  5
C61F
  8
0
 10
4652.1842808352621432
 20
211.5213420623792047
 30
0.0
 40
0.0106700369811393
 50
271.4672749307271147
 51
315.823960027330827
  0
LINE
  5
C620
  8
0
 10
4646.9221246233109923
 20
214.494221445162907
 30
0.0
 11
4646.9221246233109923
 21
214.5729616025629127
 31
0.0
  0
LINE
  5
C621
  8
0
 10
4646.244135870010723
 20
214.4804419175628993
 30
0.0
 11
4646.9162191115110545
 21
214.4804419175628993
 31
0.0
  0
LINE
  5
C622
  8
0
 10
4646.9162191115110545
 20
214.5788671143629927
 30
0.0
 11
4646.244135870010723
 21
214.5788671143629927
 31
0.0
  0
ARC
  5
C623
  8
0
 10
4646.9162191115110545
 20
214.5296545159629034
 30
0.0
 40
0.0492125984
 50
270.0
 51
90.0
  0
ARC
  5
C624
  8
0
 10
4646.244135870010723
 20
214.460756878162897
 30
0.0
 40
0.0196850394
 50
90.0
 51
146.8471120623954107
  0
ARC
  5
C625
  8
0
 10
4646.244135870010723
 20
214.598552153762995
 30
0.0
 40
0.0196850394
 50
213.1528879374072005
 51
270.0
  0
ARC
  5
C626
  8
0
 10
4646.1340126608638457
 20
214.5382412424638972
 30
0.0
 40
0.1149799045136304
 50
272.3165423935689091
 51
324.5306365707921827
  0
ARC
  5
C627
  8
0
 10
4646.1357036670688103
 20
214.5241921647501897
 30
0.0
 40
0.1118006624201173
 50
34.6681563494237466
 51
88.4846646861983572
  0
LINE
  5
C628
  8
0
 10
4647.0835422438613023
 20
214.9233553033629107
 30
0.0
 11
4647.0835422438613023
 21
214.1329425406628957
 31
0.0
  0
LINE
  5
C629
  8
0
 10
4646.683104016760808
 20
214.5729616025629127
 30
0.0
 11
4646.683104016760808
 21
214.576898610462905
 31
0.0
  0
LINE
  5
C62A
  8
0
 10
4646.4603584236610914
 20
214.576898610462905
 30
0.0
 11
4646.4603584236610914
 21
214.5729616025629127
 31
0.0
  0
LINE
  5
C62B
  8
0
 10
4646.2142878056611153
 20
214.490284437263
 30
0.0
 11
4646.9221249209613234
 21
214.490284437263
 31
0.0
  0
LINE
  5
C62C
  8
0
 10
4646.9221249207612345
 20
214.576898610462905
 30
0.0
 11
4646.214287804759806
 21
214.576898610462905
 31
0.0
  0
ARC
  5
C62D
  8
0
 10
4646.9221172601501166
 20
214.5336110350031049
 30
0.0
 40
0.0433265984173907
 50
270.0101301226454211
 51
357.2793191314257228
  0
ARC
  5
C62E
  8
0
 10
4646.9221151879919489
 20
214.5335667857104909
 30
0.0
 40
0.0433318258454692
 50
69.8747528317870348
 51
89.9871305208971251
  0
ARC
  5
C62F
  8
0
 10
4646.2142878056611153
 20
214.5965836498629074
 30
0.0
 40
0.0196850393999997
 50
219.7918194995899057
 51
269.9999973804199271
  0
ARC
  5
C630
  8
0
 10
4646.2142878056611153
 20
214.4705993978629124
 30
0.0
 40
0.0196850394
 50
90.0
 51
140.2081805004100943
  0
ARC
  5
C631
  8
0
 10
4646.1386603540613578
 20
214.5335915238628957
 30
0.0
 40
0.0787401575
 50
29.9999999580031691
 51
90.0001262847636951
  0
ARC
  5
C632
  8
0
 10
4646.1386603540613578
 20
214.5335915238628957
 30
0.0
 40
0.0787401574999981
 50
269.9998737152362764
 51
330.0000000420257038
  0
LINE
  5
C633
  8
0
 10
4647.0481088753112999
 20
214.927292311262903
 30
0.0
 11
4647.0481088753112999
 21
214.9233553033629107
 31
0.0
  0
ENDSEC
  0
EOF
