  0
SECTION
  2
HEADER
  9
$ACADVER
  1
AC1009
  9
$INSBASE
 10
4672.0484536440426382
 20
214.2671202847172935
 30
0.0
  9
$EXTMIN
 10
4668.0518570753074528
 20
210.8402049259173054
 30
0.0
  9
$EXTMAX
 10
4676.0450502127787331
 20
214.2785229631107882
 30
0.0
  9
$LIMMIN
 10
0.0
 20
0.0
  9
$LIMMAX
 10
11.6929133858000007
 20
8.2677165353999982
  9
$ORTHOMODE
 70
     1
  9
$REGENMODE
 70
     1
  9
$FILLMODE
 70
     1
  9
$QTEXTMODE
 70
     0
  9
$MIRRTEXT
 70
     0
  9
$DRAGMODE
 70
     2
  9
$LTSCALE
 40
0.6431102362
  9
$OSMODE
 70
  4095
  9
$ATTMODE
 70
     1
  9
$TEXTSIZE
 40
0.2
  9
$TRACEWID
 40
0.05
  9
$TEXTSTYLE
  7
STANDARD
  9
$CLAYER
  8
0
  9
$CELTYPE
  6
BYLAYER
  9
$CECOLOR
 62
   256
  9
$DIMSCALE
 40
1.0
  9
$DIMASZ
 40
0.1875
  9
$DIMEXO
 40
0.0625
  9
$DIMDLI
 40
0.4443307087
  9
$DIMRND
 40
0.0
  9
$DIMDLE
 40
0.0
  9
$DIMEXE
 40
0.125
  9
$DIMTP
 40
0.01
  9
$DIMTM
 40
0.01
  9
$DIMTXT
 40
2.0
  9
$DIMCEN
 40
0.1052362205
  9
$DIMTSZ
 40
0.0
  9
$DIMTOL
 70
     1
  9
$DIMLIM
 70
     0
  9
$DIMTIH
 70
     1
  9
$DIMTOH
 70
     1
  9
$DIMSE1
 70
     0
  9
$DIMSE2
 70
     0
  9
$DIMTAD
 70
     0
  9
$DIMZIN
 70
     0
  9
$DIMBLK
  1

  9
$DIMASO
 70
     1
  9
$DIMSHO
 70
     1
  9
$DIMPOST
  1
\X
  9
$DIMAPOST
  1

  9
$DIMALT
 70
     1
  9
$DIMALTD
 70
     2
  9
$DIMALTF
 40
25.3999999999999986
  9
$DIMLFAC
 40
1.0
  9
$DIMTOFL
 70
     0
  9
$DIMTVP
 40
0.0
  9
$DIMTIX
 70
     0
  9
$DIMSOXD
 70
     0
  9
$DIMSAH
 70
     0
  9
$DIMBLK1
  1

  9
$DIMBLK2
  1

  9
$DIMSTYLE
  2
STANDARD
  9
$DIMCLRD
 70
     0
  9
$DIMCLRE
 70
     0
  9
$DIMCLRT
 70
     0
  9
$DIMTFAC
 40
1.0
  9
$DIMGAP
 40
0.09
  9
$LUNITS
 70
     2
  9
$LUPREC
 70
     4
  9
$SKETCHINC
 40
0.1
  9
$FILLETRAD
 40
0.0
  9
$AUNITS
 70
     0
  9
$AUPREC
 70
     0
  9
$MENU
  1
.
  9
$ELEVATION
 40
0.0
  9
$PELEVATION
 40
0.0
  9
$THICKNESS
 40
0.0
  9
$LIMCHECK
 70
     0
  9
$BLIPMODE
 70
     0
  9
$CHAMFERA
 40
0.0
  9
$CHAMFERB
 40
0.0
  9
$SKPOLY
 70
     0
  9
$TDCREATE
 40
2458060.468368056230247
  9
$TDUPDATE
 40
2459246.4731134260073304
  9
$TDINDWG
 40
0.3532362269
  9
$TDUSRTIMER
 40
0.3532362269
  9
$USRTIMER
 70
     1
  9
$ANGBASE
 50
0.0
  9
$ANGDIR
 70
     0
  9
$PDMODE
 70
     0
  9
$PDSIZE
 40
0.3125
  9
$PLINEWID
 40
0.0
  9
$COORDS
 70
     1
  9
$SPLFRAME
 70
     0
  9
$SPLINETYPE
 70
     6
  9
$SPLINESEGS
 70
     8
  9
$ATTDIA
 70
     1
  9
$ATTREQ
 70
     1
  9
$HANDLING
 70
     1
  9
$HANDSEED
  5
C841
  9
$SURFTAB1
 70
     6
  9
$SURFTAB2
 70
     6
  9
$SURFTYPE
 70
     6
  9
$SURFU
 70
     6
  9
$SURFV
 70
     6
  9
$UCSNAME
  2

  9
$UCSORG
 10
0.0
 20
0.0
 30
0.0
  9
$UCSXDIR
 10
1.0
 20
0.0
 30
0.0
  9
$UCSYDIR
 10
0.0
 20
1.0
 30
0.0
  9
$PUCSNAME
  2

  9
$PUCSORG
 10
0.0
 20
0.0
 30
0.0
  9
$PUCSXDIR
 10
1.0
 20
0.0
 30
0.0
  9
$PUCSYDIR
 10
0.0
 20
1.0
 30
0.0
  9
$USERI1
 70
     0
  9
$USERI2
 70
     0
  9
$USERI3
 70
     0
  9
$USERI4
 70
     0
  9
$USERI5
 70
     0
  9
$USERR1
 40
0.0
  9
$USERR2
 40
0.0
  9
$USERR3
 40
0.0
  9
$USERR4
 40
0.0
  9
$USERR5
 40
0.0
  9
$WORLDVIEW
 70
     1
  9
$SHADEDGE
 70
     3
  9
$SHADEDIF
 70
    70
  9
$TILEMODE
 70
     1
  9
$MAXACTVP
 70
    64
  9
$PLIMCHECK
 70
     0
  9
$PEXTMIN
 10
1.0000000000000000E+20
 20
1.0000000000000000E+20
 30
1.0000000000000000E+20
  9
$PEXTMAX
 10
-1.0000000000000000E+20
 20
-1.0000000000000000E+20
 30
-1.0000000000000000E+20
  9
$PLIMMIN
 10
0.0
 20
0.0
  9
$PLIMMAX
 10
12.0
 20
9.0
  9
$UNITMODE
 70
     0
  9
$VISRETAIN
 70
     1
  9
$PLINEGEN
 70
     0
  9
$PSLTSCALE
 70
     1
  0
ENDSEC
  0
SECTION
  2
TABLES
  0
TABLE
  2
VPORT
 70
     1
  0
VPORT
  2
*ACTIVE
 70
     0
 10
0.0
 20
0.0
 11
1.0
 21
1.0
 12
0.0
 22
0.0
 13
0.0
 23
0.0
 14
1.0
 24
1.0
 15
0.0
 25
0.0
 16
0.0
 26
0.0
 36
24.6549379485119715
 17
4672.04833984375
 27
212.5593664620240872
 37
0.0
 40
8.7025474246997216
 41
2.1186252771618621
 42
50.0
 43
0.0
 44
0.0
 50
0.0
 51
0.0
 71
     0
 72
   100
 73
     1
 74
     1
 75
     0
 76
     0
 77
     0
 78
     0
  0
ENDTAB
  0
TABLE
  2
LTYPE
 70
     2
  0
LTYPE
  2
CONTINUOUS
 70
     0
  3
Solid line
 72
    65
 73
     0
 40
0.0
  0
LTYPE
  2
PHANTOM2
 70
     0
  3
___ _ _ ___ _ _ ___ _ _ ___ _ _
 72
    65
 73
     6
 40
1.25
 49
0.625
 49
-0.125
 49
0.125
 49
-0.125
 49
0.125
 49
-0.125
  0
ENDTAB
  0
TABLE
  2
LAYER
 70
     2
  0
LAYER
  2
0
 70
     0
 62
   255
  6
CONTINUOUS
  0
LAYER
  2
DEFPOINTS
 70
     0
 62
     7
  6
CONTINUOUS
  0
ENDTAB
  0
TABLE
  2
STYLE
 70
     1
  0
STYLE
  2
STANDARD
 70
     0
 40
0.0
 41
0.8
 50
0.0
 71
     0
 42
0.2
  3
txt
  4

  0
ENDTAB
  0
TABLE
  2
VIEW
 70
     0
  0
ENDTAB
  0
TABLE
  2
UCS
 70
     0
  0
ENDTAB
  0
TABLE
  2
APPID
 70
     9
  0
APPID
  2
ACAD
 70
     0
  0
APPID
  2
ACAD_MLEADERVER
 70
     0
  0
APPID
  2
ACAD_EXEMPT_FROM_CAD_STANDARDS
 70
     0
  0
APPID
  2
ACAD_NAV_VCDISPLAY
 70
     0
  0
APPID
  2
ACAECLAYERSTANDARD
 70
     0
  0
APPID
  2
ACCMTRANSPARENCY
 70
     0
  0
APPID
  2
ACAD_DSTYLE_DIMJAG
 70
     0
  0
APPID
  2
ACAD_DSTYLE_DIMTALN
 70
     0
  0
APPID
  2
ACDBATTR
 70
     0
  0
ENDTAB
  0
TABLE
  2
DIMSTYLE
 70
     1
  0
DIMSTYLE
  2
STANDARD
 70
     0
  3

  4

  5

  6

  7

 40
1.0
 41
0.1875
 42
0.0625
 43
0.38
 44
0.125
 45
0.0
 46
0.0
 47
0.01
 48
0.01
140
0.15625
141
0.09
142
0.0
143
25.3999999999999986
144
1.0
145
0.0
146
1.0
147
0.09
 71
     1
 72
     0
 73
     1
 74
     1
 75
     0
 76
     0
 77
     0
 78
     4
170
     0
171
     2
172
     0
173
     0
174
     0
175
     0
176
     0
177
     0
178
     0
  0
ENDTAB
  0
ENDSEC
  0
SECTION
  2
BLOCKS
  0
BLOCK
  8
0
  2
$MODEL_SPACE
 70
     0
 10
0.0
 20
0.0
 30
0.0
  3
$MODEL_SPACE
  1

  0
ENDBLK
  5
21
  8
0
  0
BLOCK
 67
     1
  8
0
  2
$PAPER_SPACE
 70
     0
 10
0.0
 20
0.0
 30
0.0
  3
$PAPER_SPACE
  1

  0
ENDBLK
  5
1D
 67
     1
  8
0
  0
ENDSEC
  0
SECTION
  2
ENTITIES
  0
ATTDEF
  5
3930
  8
DEFPOINTS
 10
4672.0447694018330367
 20
214.2775229631106981
 30
0.0
 40
0.001
  1
K-26297IN
  3

  2
MODELNUMBER
 70
     0
1001
ACDBATTR
1070
     0
1070
     1
  0
ATTDEF
  5
3931
  8
DEFPOINTS
 10
4672.0447694018330367
 20
214.2758562964440898
 30
0.0
 40
0.001
  1

  3

  2
TRADENAME
 70
     0
1001
ACDBATTR
1070
     0
1070
     1
  0
ATTDEF
  5
3932
  8
DEFPOINTS
 10
4672.0447694018330367
 20
214.2741896297773962
 30
0.0
 40
0.001
  1
SHOWERHEAD
  3

  2
PRODUCT
 70
     0
1001
ACDBATTR
1070
     0
1070
     1
  0
LINE
  5
C6DA
  8
0
 10
4671.6172818644427025
 20
213.8301124107173052
 30
0.0
 11
4671.6074736546415807
 21
213.8202698910172899
 31
0.0
  0
LINE
  5
C6DB
  8
0
 10
4671.5698829058428601
 20
213.4727705141172862
 30
0.0
 11
4671.5698829058428601
 21
213.8202698910172899
 31
0.0
  0
LINE
  5
C6DC
  8
0
 10
4671.5698829058428601
 20
213.9186950878172979
 30
0.0
 11
4671.5698829058428601
 21
214.2631832768173012
 31
0.0
  0
LINE
  5
C6DD
  8
0
 10
4671.6053159767434408
 20
214.2631832768173012
 30
0.0
 11
4671.6053159767434408
 21
214.2671202847172935
 31
0.0
  0
LINE
  5
C6DE
  8
0
 10
4671.6626268725431146
 20
213.8340494186172975
 30
0.0
 11
4671.6626268725431146
 21
213.9127895760173033
 31
0.0
  0
LINE
  5
C6DF
  8
0
 10
4671.6679030116429203
 20
213.8202698910172899
 30
0.0
 11
4671.5698829058428601
 21
213.8202698910172899
 31
0.0
  0
LINE
  5
C6E0
  8
0
 10
4671.6875978280431809
 20
213.8301124107173052
 30
0.0
 11
4671.6172818644427025
 21
213.8301124107173052
 31
0.0
  0
LINE
  5
C6E1
  8
0
 10
4671.6626268725431146
 20
213.8340494186172975
 30
0.0
 11
4671.6908834003661468
 21
213.8340494186172975
 31
0.0
  0
LINE
  5
C6E2
  8
0
 10
4671.6832223679430172
 20
213.9127895760173033
 30
0.0
 11
4671.6626268725431146
 21
213.9127895760173033
 31
0.0
  0
LINE
  5
C6E3
  8
0
 10
4671.6172818644427025
 20
213.9167265839172956
 30
0.0
 11
4671.6766112421082653
 21
213.9167265839172956
 31
0.0
  0
LINE
  5
C6E4
  8
0
 10
4671.5698829058428601
 20
213.9186950878172979
 30
0.0
 11
4671.6679030116429203
 21
213.9186950878172979
 31
0.0
  0
LINE
  5
C6E5
  8
0
 10
4672.5270243822424163
 20
214.2631832768173012
 30
0.0
 11
4671.5698829058428601
 21
214.2631832768173012
 31
0.0
  0
LINE
  5
C6E6
  8
0
 10
4672.4915913113418355
 20
214.2671202847172935
 30
0.0
 11
4671.6053159767434408
 21
214.2671202847172935
 31
0.0
  0
LINE
  5
C6E7
  8
0
 10
4671.6153693463165837
 20
213.9186950878172979
 30
0.0
 11
4671.6172818644427025
 21
213.9167265839172956
 31
0.0
  0
LINE
  5
C6E8
  8
0
 10
4668.0675280727418794
 20
210.8537344579171986
 30
0.0
 11
4676.0293792153415779
 21
210.8537344579171986
 31
0.0
  0
ARC
  5
C6E9
  8
0
 10
4668.0684476285659912
 20
210.869606666980502
 30
0.0
 40
0.0158988239647022
 50
182.8165520955458874
 51
266.6842775929014806
  0
ARC
  5
C6EA
  8
0
 10
4686.9056781386689181
 20
211.0325544388284129
 30
0.0
 40
18.8538210633611598
 50
176.1840633035268127
 51
180.4975701913689932
  0
ARC
  5
C6EB
  8
0
 10
4669.1434775605439427
 20
212.2478310459651993
 30
0.0
 40
1.0505632795927571
 50
121.0746366789375941
 51
177.8467510552397925
  0
LINE
  5
C6EC
  8
0
 10
4672.7877967120566609
 20
213.4727705141172862
 30
0.0
 11
4671.309110576027706
 21
213.4727705141172862
 31
0.0
  0
ARC
  5
C6ED
  8
0
 10
4672.4094494974815461
 20
166.9004752149755006
 30
0.0
 40
46.5852920477324517
 50
91.3534451977041044
 51
93.2894004149295739
  0
ARC
  5
C6EE
  8
0
 10
4670.0936878179463747
 20
208.1422608512150987
 30
0.0
 40
5.2788586364265138
 50
93.8807258522335957
 51
100.8367748498669982
  0
ARC
  5
C6EF
  8
0
 10
4669.4030365969629202
 20
211.6989529032304915
 30
0.0
 40
1.655771347193741
 50
100.5033737718499935
 51
118.9635218849836065
  0
ARC
  5
C6F0
  8
0
 10
4676.0284596595183757
 20
210.869606666980502
 30
0.0
 40
0.0158988239647022
 50
273.3157224070985194
 51
357.1834479044539989
  0
ARC
  5
C6F1
  8
0
 10
4657.1912291494172678
 20
211.0325544388284129
 30
0.0
 40
18.8538210633611598
 50
359.5024298086310068
 51
3.8159366964731611
  0
ARC
  5
C6F2
  8
0
 10
4674.9534297275413337
 20
212.2478310459651993
 30
0.0
 40
1.0505632795927571
 50
2.1532489447602341
 51
58.9253633210623633
  0
ARC
  5
C6F3
  8
0
 10
4671.6874577906028208
 20
166.9004752149755006
 30
0.0
 40
46.5852920477324517
 50
86.7105995850704261
 51
88.646554802295924
  0
ARC
  5
C6F4
  8
0
 10
4674.0032194701389017
 20
208.1422608512150987
 30
0.0
 40
5.2788586364265138
 50
79.1632251501330018
 51
86.1192741477664185
  0
ARC
  5
C6F5
  8
0
 10
4674.6938706911223562
 20
211.6989529032304915
 30
0.0
 40
1.655771347193741
 50
61.0364781150164433
 51
79.4966262281499638
  0
ARC
  5
C6F6
  8
0
 10
4671.6658691485718009
 20
213.8489654955868957
 30
0.0
 40
0.028767591498197
 50
274.0541826024302736
 51
319.0531630449775093
  0
ARC
  5
C6F7
  8
0
 10
4671.6446494153487947
 20
213.869293847075312
 30
0.0
 40
0.0581356268389831
 50
317.626093805361279
 51
48.4326950433159809
  0
ARC
  5
C6F8
  8
0
 10
4671.6664947774152097
 20
213.8922194628906084
 30
0.0
 40
0.0265130503506631
 50
50.8820334911558021
 51
86.9553158474587065
  0
LINE
  5
C6F9
  8
0
 10
4672.5270243822424163
 20
213.4727705141172862
 30
0.0
 11
4672.5270243822424163
 21
214.2631832768173012
 31
0.0
  0
LINE
  5
C6FA
  8
0
 10
4672.4915913113418355
 20
214.2631832768173012
 30
0.0
 11
4672.4915913113418355
 21
214.2671202847172935
 31
0.0
  0
LINE
  5
C6FB
  8
0
 10
4669.4773131431429647
 20
210.8497461484172106
 30
0.0
 11
4669.4750104916138298
 21
210.8537344579171986
 31
0.0
  0
LINE
  5
C6FC
  8
0
 10
4669.6120866458441014
 20
210.8497461484172106
 30
0.0
 11
4669.6143892974214396
 21
210.8537344579171986
 31
0.0
  0
LINE
  5
C6FD
  8
0
 10
4669.4860809458423319
 20
210.8447461484173004
 30
0.0
 11
4669.6033188432420502
 21
210.8447461484173004
 31
0.0
  0
ARC
  5
C6FE
  8
0
 10
4669.6027696995506631
 20
210.855896541428308
 30
0.0
 40
0.0111639071607692
 50
272.8194714773305236
 51
326.5700126000816113
  0
ARC
  5
C6FF
  8
0
 10
4669.4863541625918515
 20
210.8554126868336027
 30
0.0
 40
0.0106700369811393
 50
212.077790853293692
 51
268.5327250692728853
  0
LINE
  5
C700
  8
0
 10
4669.9621200877918454
 20
210.8466423719173122
 30
0.0
 11
4669.9580254700931619
 21
210.8537344579171986
 31
0.0
  0
LINE
  5
C701
  8
0
 10
4670.0968926886462214
 20
210.8466408098726959
 30
0.0
 11
4670.1009882082789773
 21
210.8537344579171986
 31
0.0
  0
LINE
  5
C702
  8
0
 10
4669.9708878904921221
 20
210.8416423719172883
 30
0.0
 11
4670.0881257878918404
 21
210.8416423719172883
 31
0.0
  0
ARC
  5
C703
  8
0
 10
4670.0875766442022723
 20
210.8527927649282958
 30
0.0
 40
0.0111639071607692
 50
272.8194714773305236
 51
326.5700126000816113
  0
ARC
  5
C704
  8
0
 10
4669.9711611072407322
 20
210.8523089103335906
 30
0.0
 40
0.0106700369811393
 50
212.077790853293692
 51
268.5327250692728853
  0
LINE
  5
C705
  8
0
 10
4670.5744095336931423
 20
210.8452049259173009
 30
0.0
 11
4670.5694850061709076
 21
210.8537344579171986
 31
0.0
  0
LINE
  5
C706
  8
0
 10
4670.7091830363915506
 20
210.8452049259173009
 30
0.0
 11
4670.7141075640192867
 21
210.8537344579171986
 31
0.0
  0
LINE
  5
C707
  8
0
 10
4670.5831773363916
 20
210.8402049259173054
 30
0.0
 11
4670.7004152337931373
 21
210.8402049259173054
 31
0.0
  0
ARC
  5
C708
  8
0
 10
4670.6998660900999312
 20
210.851355318928313
 30
0.0
 40
0.0111639071607692
 50
272.8194714773305236
 51
326.5700126000829755
  0
ARC
  5
C709
  8
0
 10
4670.5834505531420291
 20
210.8508714643336077
 30
0.0
 40
0.0106700369811393
 50
212.077790853293692
 51
268.5327250692728853
  0
LINE
  5
C70A
  8
0
 10
4671.2610668927918596
 20
210.8456508833172904
 30
0.0
 11
4671.256399838892321
 21
210.8537344579171986
 31
0.0
  0
LINE
  5
C70B
  8
0
 10
4671.3958403954929963
 20
210.8456508833172904
 30
0.0
 11
4671.4005074494925793
 21
210.8537344579171986
 31
0.0
  0
LINE
  5
C70C
  8
0
 10
4671.2698346954921362
 20
210.8406508833172097
 30
0.0
 11
4671.3870725928918546
 21
210.8406508833172097
 31
0.0
  0
ARC
  5
C70D
  8
0
 10
4671.3865234492013769
 20
210.8518012763283025
 30
0.0
 40
0.0111639071607692
 50
272.8194714773305236
 51
326.5700126000829755
  0
ARC
  5
C70E
  8
0
 10
4671.2701079122407464
 20
210.8513174217335973
 30
0.0
 40
0.0106700369811393
 50
212.077790853293692
 51
268.5327250692728853
  0
LINE
  5
C70F
  8
0
 10
4669.1668841016917213
 20
210.8505034974172077
 30
0.0
 11
4669.2841219990923491
 21
210.8505034974172077
 31
0.0
  0
ARC
  5
C710
  8
0
 10
4669.283572855400962
 20
210.8616538904283004
 30
0.0
 40
0.0111639071607692
 50
272.8194714773305236
 51
314.8156524804039123
  0
ARC
  5
C711
  8
0
 10
4669.1671573184421504
 20
210.8611700358335952
 30
0.0
 40
0.0106700369811393
 50
224.1760399726609876
 51
268.5327250692728853
  0
LINE
  5
C712
  8
0
 10
4674.6195941449414022
 20
210.8497461484172106
 30
0.0
 11
4674.6218967964714466
 21
210.8537344579171986
 31
0.0
  0
LINE
  5
C713
  8
0
 10
4674.4848206422429939
 20
210.8497461484172106
 30
0.0
 11
4674.4825179906638368
 21
210.8537344579171986
 31
0.0
  0
LINE
  5
C714
  8
0
 10
4674.6108263422429445
 20
210.8447461484173004
 30
0.0
 11
4674.4935884448423167
 21
210.8447461484173004
 31
0.0
  0
ARC
  5
C715
  8
0
 10
4674.4941375885337038
 20
210.855896541428308
 30
0.0
 40
0.0111639071607692
 50
213.4299873999169961
 51
267.1805285226694764
  0
ARC
  5
C716
  8
0
 10
4674.6105531254934249
 20
210.8554126868336027
 30
0.0
 40
0.0106700369811393
 50
271.4672749307271147
 51
327.9222091467063933
  0
LINE
  5
C717
  8
0
 10
4674.134787200291612
 20
210.8466423719173122
 30
0.0
 11
4674.138881817991205
 21
210.8537344579171986
 31
0.0
  0
LINE
  5
C718
  8
0
 10
4674.0000145994399645
 20
210.8466408098726959
 30
0.0
 11
4673.9959190798062991
 21
210.8537344579171986
 31
0.0
  0
LINE
  5
C719
  8
0
 10
4674.1260193975931543
 20
210.8416423719172883
 30
0.0
 11
4674.0087815001934359
 21
210.8416423719172883
 31
0.0
  0
ARC
  5
C71A
  8
0
 10
4674.0093306438830041
 20
210.8527927649282958
 30
0.0
 40
0.0111639071607692
 50
213.4299873999169961
 51
267.1805285226694764
  0
ARC
  5
C71B
  8
0
 10
4674.1257461808436346
 20
210.8523089103335906
 30
0.0
 40
0.0106700369811393
 50
271.4672749307271147
 51
327.9222091467063933
  0
LINE
  5
C71C
  8
0
 10
4673.5224977543930436
 20
210.8452049259173009
 30
0.0
 11
4673.5274222819125498
 21
210.8537344579171986
 31
0.0
  0
LINE
  5
C71D
  8
0
 10
4673.3877242516928163
 20
210.8452049259173009
 30
0.0
 11
4673.3827997240650802
 21
210.8537344579171986
 31
0.0
  0
LINE
  5
C71E
  8
0
 10
4673.5137299516918574
 20
210.8402049259173054
 30
0.0
 11
4673.3964920542930486
 21
210.8402049259173054
 31
0.0
  0
ARC
  5
C71F
  8
0
 10
4673.3970411979853452
 20
210.851355318928313
 30
0.0
 40
0.0111639071607692
 50
213.4299873999169961
 51
267.1805285226694764
  0
ARC
  5
C720
  8
0
 10
4673.5134567349432473
 20
210.8508714643336077
 30
0.0
 40
0.0106700369811393
 50
271.4672749307271147
 51
327.9222091467063933
  0
LINE
  5
C721
  8
0
 10
4672.8358403952915978
 20
210.8456508833172904
 30
0.0
 11
4672.8405074491929554
 21
210.8537344579171986
 31
0.0
  0
LINE
  5
C722
  8
0
 10
4672.7010668925931896
 20
210.8456508833172904
 30
0.0
 11
4672.6963998385917876
 21
210.8537344579171986
 31
0.0
  0
LINE
  5
C723
  8
0
 10
4672.8270725925931401
 20
210.8406508833172097
 30
0.0
 11
4672.7098346951934218
 21
210.8406508833172097
 31
0.0
  0
ARC
  5
C724
  8
0
 10
4672.7103838388838994
 20
210.8518012763283025
 30
0.0
 40
0.0111639071607692
 50
213.4299873999169961
 51
267.1805285226694764
  0
ARC
  5
C725
  8
0
 10
4672.826799375842711
 20
210.8513174217335973
 30
0.0
 40
0.0106700369811393
 50
271.4672749307271147
 51
327.9222091467063933
  0
LINE
  5
C726
  8
0
 10
4674.9300231863926456
 20
210.8505034974172077
 30
0.0
 11
4674.8127852889929272
 21
210.8505034974172077
 31
0.0
  0
ARC
  5
C727
  8
0
 10
4674.8133344326843144
 20
210.8616538904283004
 30
0.0
 40
0.0111639071607692
 50
225.1843475195960877
 51
267.1805285226694764
  0
ARC
  5
C728
  8
0
 10
4674.9297499696440354
 20
210.8611700358335952
 30
0.0
 40
0.0106700369811393
 50
271.4672749307271147
 51
315.8239600273390124
  0
LINE
  5
C729
  8
0
 10
4671.9810668926429571
 20
210.8473066692172893
 30
0.0
 11
4671.9773558071628941
 21
210.8537344579171986
 31
0.0
  0
LINE
  5
C72A
  8
0
 10
4672.1158403953431844
 20
210.8473066692172893
 30
0.0
 11
4672.1195514809023734
 21
210.8537344579171986
 31
0.0
  0
LINE
  5
C72B
  8
0
 10
4671.9898346953423243
 20
210.8423066692172938
 30
0.0
 11
4672.1070725927429521
 21
210.8423066692172938
 31
0.0
  0
ARC
  5
C72C
  8
0
 10
4672.1065234490506555
 20
210.8534570622283013
 30
0.0
 40
0.0111639071607692
 50
272.8194714773305236
 51
326.5700126000829755
  0
ARC
  5
C72D
  8
0
 10
4671.9901079120909344
 20
210.8529732076335961
 30
0.0
 40
0.0106700369811393
 50
212.077790853293692
 51
268.5327250692728853
  0
ENDSEC
  0
EOF
