  0
SECTION
  2
HEADER
  9
$ACADVER
  1
AC1009
  9
$INSBASE
 10
4681.3809213740050836
 20
213.5640096409300099
 30
0.0
  9
$EXTMIN
 10
4672.4637834026398195
 20
210.1359306828300078
 30
0.0
  9
$EXTMAX
 10
4690.2980593453703477
 20
213.5640096409300099
 30
0.0
  9
$LIMMIN
 10
0.0
 20
0.0
  9
$LIMMAX
 10
11.6929133858000007
 20
8.2677165353999982
  9
$ORTHOMODE
 70
     1
  9
$REGENMODE
 70
     1
  9
$FILLMODE
 70
     1
  9
$QTEXTMODE
 70
     0
  9
$MIRRTEXT
 70
     0
  9
$DRAGMODE
 70
     2
  9
$LTSCALE
 40
0.6431102362
  9
$OSMODE
 70
  4095
  9
$ATTMODE
 70
     1
  9
$TEXTSIZE
 40
0.2
  9
$TRACEWID
 40
0.05
  9
$TEXTSTYLE
  7
STANDARD
  9
$CLAYER
  8
0
  9
$CELTYPE
  6
BYLAYER
  9
$CECOLOR
 62
   256
  9
$DIMSCALE
 40
1.0
  9
$DIMASZ
 40
0.1875
  9
$DIMEXO
 40
0.0625
  9
$DIMDLI
 40
0.4443307087
  9
$DIMRND
 40
0.0
  9
$DIMDLE
 40
0.0
  9
$DIMEXE
 40
0.125
  9
$DIMTP
 40
0.01
  9
$DIMTM
 40
0.01
  9
$DIMTXT
 40
2.0
  9
$DIMCEN
 40
0.1052362205
  9
$DIMTSZ
 40
0.0
  9
$DIMTOL
 70
     1
  9
$DIMLIM
 70
     0
  9
$DIMTIH
 70
     1
  9
$DIMTOH
 70
     1
  9
$DIMSE1
 70
     0
  9
$DIMSE2
 70
     0
  9
$DIMTAD
 70
     0
  9
$DIMZIN
 70
     0
  9
$DIMBLK
  1

  9
$DIMASO
 70
     1
  9
$DIMSHO
 70
     1
  9
$DIMPOST
  1
\X
  9
$DIMAPOST
  1

  9
$DIMALT
 70
     1
  9
$DIMALTD
 70
     2
  9
$DIMALTF
 40
25.3999999999999986
  9
$DIMLFAC
 40
1.0
  9
$DIMTOFL
 70
     0
  9
$DIMTVP
 40
0.0
  9
$DIMTIX
 70
     0
  9
$DIMSOXD
 70
     0
  9
$DIMSAH
 70
     0
  9
$DIMBLK1
  1

  9
$DIMBLK2
  1

  9
$DIMSTYLE
  2
STANDARD
  9
$DIMCLRD
 70
     0
  9
$DIMCLRE
 70
     0
  9
$DIMCLRT
 70
     0
  9
$DIMTFAC
 40
1.0
  9
$DIMGAP
 40
0.09
  9
$LUNITS
 70
     2
  9
$LUPREC
 70
     4
  9
$SKETCHINC
 40
0.1
  9
$FILLETRAD
 40
0.0
  9
$AUNITS
 70
     0
  9
$AUPREC
 70
     0
  9
$MENU
  1
.
  9
$ELEVATION
 40
0.0
  9
$PELEVATION
 40
0.0
  9
$THICKNESS
 40
0.0
  9
$LIMCHECK
 70
     0
  9
$BLIPMODE
 70
     0
  9
$CHAMFERA
 40
0.0
  9
$CHAMFERB
 40
0.0
  9
$SKPOLY
 70
     0
  9
$TDCREATE
 40
2458060.468368056230247
  9
$TDUPDATE
 40
2459246.4812268521636724
  9
$TDINDWG
 40
0.3545556713
  9
$TDUSRTIMER
 40
0.3545556713
  9
$USRTIMER
 70
     1
  9
$ANGBASE
 50
0.0
  9
$ANGDIR
 70
     0
  9
$PDMODE
 70
     0
  9
$PDSIZE
 40
0.3125
  9
$PLINEWID
 40
0.0
  9
$COORDS
 70
     1
  9
$SPLFRAME
 70
     0
  9
$SPLINETYPE
 70
     6
  9
$SPLINESEGS
 70
     8
  9
$ATTDIA
 70
     1
  9
$ATTREQ
 70
     1
  9
$HANDLING
 70
     1
  9
$HANDSEED
  5
C8E9
  9
$SURFTAB1
 70
     6
  9
$SURFTAB2
 70
     6
  9
$SURFTYPE
 70
     6
  9
$SURFU
 70
     6
  9
$SURFV
 70
     6
  9
$UCSNAME
  2

  9
$UCSORG
 10
0.0
 20
0.0
 30
0.0
  9
$UCSXDIR
 10
1.0
 20
0.0
 30
0.0
  9
$UCSYDIR
 10
0.0
 20
1.0
 30
0.0
  9
$PUCSNAME
  2

  9
$PUCSORG
 10
0.0
 20
0.0
 30
0.0
  9
$PUCSXDIR
 10
1.0
 20
0.0
 30
0.0
  9
$PUCSYDIR
 10
0.0
 20
1.0
 30
0.0
  9
$USERI1
 70
     0
  9
$USERI2
 70
     0
  9
$USERI3
 70
     0
  9
$USERI4
 70
     0
  9
$USERI5
 70
     0
  9
$USERR1
 40
0.0
  9
$USERR2
 40
0.0
  9
$USERR3
 40
0.0
  9
$USERR4
 40
0.0
  9
$USERR5
 40
0.0
  9
$WORLDVIEW
 70
     1
  9
$SHADEDGE
 70
     3
  9
$SHADEDIF
 70
    70
  9
$TILEMODE
 70
     1
  9
$MAXACTVP
 70
    64
  9
$PLIMCHECK
 70
     0
  9
$PEXTMIN
 10
1.0000000000000000E+20
 20
1.0000000000000000E+20
 30
1.0000000000000000E+20
  9
$PEXTMAX
 10
-1.0000000000000000E+20
 20
-1.0000000000000000E+20
 30
-1.0000000000000000E+20
  9
$PLIMMIN
 10
0.0
 20
0.0
  9
$PLIMMAX
 10
12.0
 20
9.0
  9
$UNITMODE
 70
     0
  9
$VISRETAIN
 70
     1
  9
$PLINEGEN
 70
     0
  9
$PSLTSCALE
 70
     1
  0
ENDSEC
  0
SECTION
  2
TABLES
  0
TABLE
  2
VPORT
 70
     1
  0
VPORT
  2
*ACTIVE
 70
     0
 10
0.0
 20
0.0
 11
1.0
 21
1.0
 12
0.0
 22
0.0
 13
0.0
 23
0.0
 14
1.0
 24
1.0
 15
0.0
 25
0.0
 16
0.0
 26
0.0
 36
51.4572753310633786
 17
4681.380859375
 27
211.8499679565429972
 37
0.0
 40
18.160729721469469
 41
2.1186252771618621
 42
50.0
 43
0.0
 44
0.0
 50
0.0
 51
0.0
 71
     0
 72
   100
 73
     1
 74
     1
 75
     0
 76
     0
 77
     0
 78
     0
  0
ENDTAB
  0
TABLE
  2
LTYPE
 70
     2
  0
LTYPE
  2
CONTINUOUS
 70
     0
  3
Solid line
 72
    65
 73
     0
 40
0.0
  0
LTYPE
  2
PHANTOM2
 70
     0
  3
___ _ _ ___ _ _ ___ _ _ ___ _ _
 72
    65
 73
     6
 40
1.25
 49
0.625
 49
-0.125
 49
0.125
 49
-0.125
 49
0.125
 49
-0.125
  0
ENDTAB
  0
TABLE
  2
LAYER
 70
     2
  0
LAYER
  2
0
 70
     0
 62
   255
  6
CONTINUOUS
  0
LAYER
  2
DEFPOINTS
 70
     0
 62
     7
  6
CONTINUOUS
  0
ENDTAB
  0
TABLE
  2
STYLE
 70
     1
  0
STYLE
  2
STANDARD
 70
     0
 40
0.0
 41
0.8
 50
0.0
 71
     0
 42
0.2
  3
txt
  4

  0
ENDTAB
  0
TABLE
  2
VIEW
 70
     0
  0
ENDTAB
  0
TABLE
  2
UCS
 70
     0
  0
ENDTAB
  0
TABLE
  2
APPID
 70
     9
  0
APPID
  2
ACAD
 70
     0
  0
APPID
  2
ACAD_MLEADERVER
 70
     0
  0
APPID
  2
ACAD_EXEMPT_FROM_CAD_STANDARDS
 70
     0
  0
APPID
  2
ACAD_NAV_VCDISPLAY
 70
     0
  0
APPID
  2
ACAECLAYERSTANDARD
 70
     0
  0
APPID
  2
ACCMTRANSPARENCY
 70
     0
  0
APPID
  2
ACAD_DSTYLE_DIMJAG
 70
     0
  0
APPID
  2
ACAD_DSTYLE_DIMTALN
 70
     0
  0
APPID
  2
ACDBATTR
 70
     0
  0
ENDTAB
  0
TABLE
  2
DIMSTYLE
 70
     1
  0
DIMSTYLE
  2
STANDARD
 70
     0
  3

  4

  5

  6

  7

 40
1.0
 41
0.1875
 42
0.0625
 43
0.38
 44
0.125
 45
0.0
 46
0.0
 47
0.01
 48
0.01
140
0.15625
141
0.09
142
0.0
143
25.3999999999999986
144
1.0
145
0.0
146
1.0
147
0.09
 71
     1
 72
     0
 73
     1
 74
     1
 75
     0
 76
     0
 77
     0
 78
     4
170
     0
171
     2
172
     0
173
     0
174
     0
175
     0
176
     0
177
     0
178
     0
  0
ENDTAB
  0
ENDSEC
  0
SECTION
  2
BLOCKS
  0
BLOCK
  8
0
  2
$MODEL_SPACE
 70
     0
 10
0.0
 20
0.0
 30
0.0
  3
$MODEL_SPACE
  1

  0
ENDBLK
  5
21
  8
0
  0
BLOCK
 67
     1
  8
0
  2
$PAPER_SPACE
 70
     0
 10
0.0
 20
0.0
 30
0.0
  3
$PAPER_SPACE
  1

  0
ENDBLK
  5
1D
 67
     1
  8
0
  0
ENDSEC
  0
SECTION
  2
ENTITIES
  0
ATTDEF
  5
3930
  8
DEFPOINTS
 10
4681.3758142069491441
 20
213.5620751759572045
 30
0.0
 40
0.001
  1
K-26298T
  3

  2
MODELNUMBER
 70
     0
1001
ACDBATTR
1070
     0
1070
     1
  0
ATTDEF
  5
3931
  8
DEFPOINTS
 10
4681.3758142069491441
 20
213.5604085092905109
 30
0.0
 40
0.001
  1

  3

  2
TRADENAME
 70
     0
1001
ACDBATTR
1070
     0
1070
     1
  0
ATTDEF
  5
3932
  8
DEFPOINTS
 10
4681.3758142069491441
 20
213.5587418426239026
 30
0.0
 40
0.001
  1
SHOWERHEAD
  3

  2
PRODUCT
 70
     0
1001
ACDBATTR
1070
     0
1070
     1
  0
LINE
  5
C72D
  8
0
 10
4680.5974569312047606
 20
213.1309387748300992
 30
0.0
 11
4680.5974569312047606
 21
213.2096789322301049
 31
0.0
  0
LINE
  5
C72E
  8
0
 10
4681.2754456845041204
 20
213.1171592472300915
 30
0.0
 11
4680.6033624430046984
 21
213.1171592472300915
 31
0.0
  0
LINE
  5
C72F
  8
0
 10
4680.5974569312047606
 20
213.1309387748300992
 30
0.0
 11
4682.1643858168054066
 21
213.1309387748300992
 31
0.0
  0
LINE
  5
C730
  8
0
 10
4682.1643858168054066
 20
213.2096789322301049
 30
0.0
 11
4680.5974569312047606
 21
213.2096789322301049
 31
0.0
  0
LINE
  5
C731
  8
0
 10
4680.6033624430046984
 20
213.2155844440300996
 30
0.0
 11
4681.2754456845041204
 21
213.2155844440300996
 31
0.0
  0
ARC
  5
C732
  8
0
 10
4680.6033624430046984
 20
213.1663718456300955
 30
0.0
 40
0.0492125984
 50
90.0
 51
270.0
  0
ARC
  5
C733
  8
0
 10
4681.2754456845041204
 20
213.0974742078300892
 30
0.0
 40
0.0196850394
 50
33.1528879376046319
 51
90.0
  0
ARC
  5
C734
  8
0
 10
4681.2754456845041204
 20
213.2352694834301019
 30
0.0
 40
0.0196850394
 50
270.0
 51
326.8471120625928279
  0
ARC
  5
C735
  8
0
 10
4681.3855688936509978
 20
213.1749585721310041
 30
0.0
 40
0.1149799045136304
 50
215.4693634292077036
 51
267.6834576064310909
  0
ARC
  5
C736
  8
0
 10
4681.3838778874460331
 20
213.1609094944172966
 30
0.0
 40
0.1118006624201173
 50
91.515335313801657
 51
145.3318436505761895
  0
LINE
  5
C737
  8
0
 10
4672.4794544000742462
 20
210.1506238141301139
 30
0.0
 11
4690.2823883479341021
 21
210.1506238141301139
 31
0.0
  0
LINE
  5
C738
  8
0
 10
4680.4360393106553602
 20
213.5640096409300099
 30
0.0
 11
4680.4360393106553602
 21
212.7696598703300879
 31
0.0
  0
LINE
  5
C739
  8
0
 10
4680.8364775377549449
 20
213.2096789322301049
 30
0.0
 11
4680.8364775377549449
 21
213.2136159401300972
 31
0.0
  0
LINE
  5
C73A
  8
0
 10
4681.0592231308537521
 20
213.2136159401300972
 30
0.0
 11
4681.0592231308537521
 21
213.2096789322301049
 31
0.0
  0
LINE
  5
C73B
  8
0
 10
4681.3052937488546377
 20
213.1270017669301069
 30
0.0
 11
4680.5974566335553391
 21
213.1270017669301069
 31
0.0
  0
LINE
  5
C73C
  8
0
 10
4680.5974566337554279
 20
213.2136159401300972
 30
0.0
 11
4681.3052937497550374
 21
213.2136159401300972
 31
0.0
  0
ARC
  5
C73D
  8
0
 10
4680.5974642943656363
 20
213.1703283646702971
 30
0.0
 40
0.0433265984173907
 50
182.7206808685743056
 51
269.9898698773545789
  0
ARC
  5
C73E
  8
0
 10
4680.5974663665228945
 20
213.1702841153777115
 30
0.0
 40
0.0433318258454692
 50
90.0128694791028749
 51
110.1252471682129936
  0
ARC
  5
C73F
  8
0
 10
4681.3052937488546377
 20
213.2333009795300995
 30
0.0
 40
0.0196850393999997
 50
270.0000026195800729
 51
320.2081805004099806
  0
ARC
  5
C740
  8
0
 10
4681.3052937488546377
 20
213.1073167275301046
 30
0.0
 40
0.0196850394
 50
39.7918194995899128
 51
90.0
  0
ARC
  5
C741
  8
0
 10
4681.3809212004562141
 20
213.1703088535300878
 30
0.0
 40
0.0787401575
 50
89.9998737152363049
 51
150.0000000419967989
  0
ARC
  5
C742
  8
0
 10
4681.3809212004543951
 20
213.1703088535290931
 30
0.0
 40
0.0787401574986128
 50
209.9999999577190977
 51
270.0001262854931952
  0
ARC
  5
C743
  8
0
 10
4672.480373955898358
 20
210.1664960231933037
 30
0.0
 40
0.0158988239647022
 50
182.8165520955458874
 51
266.6842775929014806
  0
ARC
  5
C744
  8
0
 10
4691.3176044660012849
 20
210.3294437950411861
 30
0.0
 40
18.8538210633611598
 50
176.1840633035268127
 51
180.4975701913689932
  0
ARC
  5
C745
  8
0
 10
4673.5554038878772189
 20
211.5447204021778873
 30
0.0
 40
1.0505632795927571
 50
121.0746366789375941
 51
177.8467510552397925
  0
LINE
  5
C746
  8
0
 10
4687.0408058446500945
 20
212.7696598703300026
 30
0.0
 11
4675.7210369033600728
 21
212.7696598703300879
 31
0.0
  0
ARC
  5
C747
  8
0
 10
4676.8213758248148224
 20
166.1973645711883023
 30
0.0
 40
46.5852920477324517
 50
91.3534451977041044
 51
93.2894004149295739
  0
ARC
  5
C748
  8
0
 10
4674.505614145277832
 20
207.4391502074279003
 30
0.0
 40
5.2788586364265138
 50
93.8807258522335957
 51
100.8367748498669982
  0
ARC
  5
C749
  8
0
 10
4673.8149629242952869
 20
210.9958422594432932
 30
0.0
 40
1.655771347193741
 50
100.5033737718499935
 51
118.9635218849836065
  0
LINE
  5
C74A
  8
0
 10
4680.4360393106553602
 20
213.5640096409300099
 30
0.0
 11
4682.3258034373548071
 21
213.5640096409300099
 31
0.0
  0
ARC
  5
C74B
  8
0
 10
4690.2814687921118093
 20
210.1664960231933037
 30
0.0
 40
0.0158988239647022
 50
273.3157224070985194
 51
357.1834479044539989
  0
ARC
  5
C74C
  8
0
 10
4671.4442382820088824
 20
210.3294437950411861
 30
0.0
 40
18.8538210633611598
 50
359.5024298086310068
 51
3.8159366964731611
  0
ARC
  5
C74D
  8
0
 10
4689.2064388601329483
 20
211.5447204021778873
 30
0.0
 40
1.0505632795927571
 50
2.1532489447602341
 51
58.9253633210623633
  0
ARC
  5
C74E
  8
0
 10
4685.9404669231953449
 20
166.1973645711883023
 30
0.0
 40
46.5852920477324517
 50
86.7105995850704261
 51
88.646554802295924
  0
ARC
  5
C74F
  8
0
 10
4688.2562286027314258
 20
207.4391502074279003
 30
0.0
 40
5.2788586364265138
 50
79.1632251501330018
 51
86.1192741477664185
  0
ARC
  5
C750
  8
0
 10
4688.9468798237139708
 20
210.9958422594432932
 30
0.0
 40
1.655771347193741
 50
61.0364781150164433
 51
79.4966262281499638
  0
LINE
  5
C751
  8
0
 10
4682.1643858168054066
 20
213.1309387748300992
 30
0.0
 11
4682.1643858168054066
 21
213.2096789322301049
 31
0.0
  0
LINE
  5
C752
  8
0
 10
4681.4863970635051373
 20
213.1171592472300915
 30
0.0
 11
4682.1584803050036498
 21
213.1171592472300915
 31
0.0
  0
LINE
  5
C753
  8
0
 10
4682.1584803050036498
 20
213.2155844440300996
 30
0.0
 11
4681.4863970635051373
 21
213.2155844440300996
 31
0.0
  0
ARC
  5
C754
  8
0
 10
4682.1584803050036498
 20
213.1663718456300955
 30
0.0
 40
0.0492125984
 50
270.0
 51
90.0
  0
ARC
  5
C755
  8
0
 10
4681.4863970635051373
 20
213.0974742078300892
 30
0.0
 40
0.0196850394
 50
90.0
 51
146.8471120623954107
  0
ARC
  5
C756
  8
0
 10
4681.4863970635051373
 20
213.2352694834301019
 30
0.0
 40
0.0196850394
 50
213.1528879374072005
 51
270.0
  0
ARC
  5
C757
  8
0
 10
4681.37627385435826
 20
213.1749585721310041
 30
0.0
 40
0.1149799045136304
 50
272.3165423935689091
 51
324.5306365707921827
  0
ARC
  5
C758
  8
0
 10
4681.3779648605641341
 20
213.1609094944172966
 30
0.0
 40
0.1118006624201173
 50
34.6681563494237466
 51
88.4846646861983572
  0
LINE
  5
C759
  8
0
 10
4682.3258034373548071
 20
213.5640096409300099
 30
0.0
 11
4682.3258034373548071
 21
212.7696598703300879
 31
0.0
  0
LINE
  5
C75A
  8
0
 10
4681.9253652102552223
 20
213.2096789322301049
 30
0.0
 11
4681.9253652102552223
 21
213.2136159401300972
 31
0.0
  0
LINE
  5
C75B
  8
0
 10
4681.7026196171536867
 20
213.2136159401300972
 30
0.0
 11
4681.7026196171536867
 21
213.2096789322301049
 31
0.0
  0
LINE
  5
C75C
  8
0
 10
4681.4565489991537106
 20
213.1270017669301069
 30
0.0
 11
4682.1643861144548282
 21
213.1270017669301069
 31
0.0
  0
LINE
  5
C75D
  8
0
 10
4682.1643861142538299
 20
213.2136159401300972
 30
0.0
 11
4681.4565489982542204
 21
213.2136159401300972
 31
0.0
  0
ARC
  5
C75E
  8
0
 10
4682.1643784536436215
 20
213.1703283646702971
 30
0.0
 40
0.0433265984173907
 50
270.0101301226454211
 51
357.2793191314257228
  0
ARC
  5
C75F
  8
0
 10
4682.1643763814863632
 20
213.1702841153777115
 30
0.0
 40
0.0433318258454692
 50
69.8747528317870348
 51
89.9871305208971251
  0
ARC
  5
C760
  8
0
 10
4681.4565489991537106
 20
213.2333009795300995
 30
0.0
 40
0.0196850393999997
 50
219.7918194995899057
 51
269.9999973804199271
  0
ARC
  5
C761
  8
0
 10
4681.4565489991537106
 20
213.1073167275301046
 30
0.0
 40
0.0196850394
 50
90.0
 51
140.2081805004100943
  0
ARC
  5
C762
  8
0
 10
4681.3809215475548626
 20
213.1703088535300878
 30
0.0
 40
0.0787401575
 50
29.9999999580031691
 51
90.0001262847636951
  0
ARC
  5
C763
  8
0
 10
4681.3809215475548626
 20
213.1703088535300878
 30
0.0
 40
0.0787401574999981
 50
269.9998737152362764
 51
330.0000000420257038
  0
LINE
  5
C765
  8
0
 10
4673.2671033673550482
 20
210.1413175673301055
 30
0.0
 11
4673.2617304033419714
 21
210.1506238141301139
 31
0.0
  0
LINE
  5
C766
  8
0
 10
4673.401876870054366
 20
210.1413175673301055
 30
0.0
 11
4673.4072498341829487
 21
210.1506238141301139
 31
0.0
  0
LINE
  5
C767
  8
0
 10
4673.2758711700553249
 20
210.13631756733011
 30
0.0
 11
4673.3931090674550433
 21
210.13631756733011
 31
0.0
  0
ARC
  5
C768
  8
0
 10
4673.3925599237636561
 20
210.1474679603410891
 30
0.0
 40
0.0111639071607692
 50
272.8194714773305236
 51
326.5700126000829755
  0
ARC
  5
C769
  8
0
 10
4673.276144386803935
 20
210.1469841057464123
 30
0.0
 40
0.0106700369811393
 50
212.077790853293692
 51
268.5327250692728853
  0
LINE
  5
C76A
  8
0
 10
4673.1875691186050972
 20
210.1409306828300885
 30
0.0
 11
4673.1819727867250549
 21
210.1506238141301139
 31
0.0
  0
LINE
  5
C76B
  8
0
 10
4673.1963369213053738
 20
210.1359306828300078
 30
0.0
 11
4673.3135748187050922
 21
210.1359306828300078
 31
0.0
  0
ARC
  5
C76C
  8
0
 10
4673.3130256750127955
 20
210.1470810758411005
 30
0.0
 40
0.0111639071607692
 50
272.8194714773305236
 51
285.391553587817782
  0
ARC
  5
C76D
  8
0
 10
4673.196610138053984
 20
210.1465972212463953
 30
0.0
 40
0.0106700369811393
 50
212.077790853293692
 51
268.5327250692728853
  0
LINE
  5
C76E
  8
0
 10
4673.5194030005050081
 20
210.1431392154300966
 30
0.0
 11
4673.5150817654957791
 21
210.1506238141301139
 31
0.0
  0
LINE
  5
C76F
  8
0
 10
4673.6541765032043259
 20
210.1431392154300966
 30
0.0
 11
4673.6584977383054138
 21
210.1506238141301139
 31
0.0
  0
LINE
  5
C770
  8
0
 10
4673.5281708032052848
 20
210.1381392154301011
 30
0.0
 11
4673.6454087006050031
 21
210.1381392154301011
 31
0.0
  0
ARC
  5
C771
  8
0
 10
4673.6448595569127065
 20
210.1492896084411086
 30
0.0
 40
0.0111639071607692
 50
272.8194714773305236
 51
326.5700126000829755
  0
ARC
  5
C772
  8
0
 10
4673.5284440199538949
 20
210.1488057538464034
 30
0.0
 40
0.0106700369811393
 50
212.077790853293692
 51
268.5327250692728853
  0
LINE
  5
C773
  8
0
 10
4673.9455720240048322
 20
210.1465972867300991
 30
0.0
 11
4673.9432473073620713
 21
210.1506238141301139
 31
0.0
  0
LINE
  5
C774
  8
0
 10
4674.0803455267050595
 20
210.1465972867300991
 30
0.0
 11
4674.0826702433969331
 21
210.1506238141301139
 31
0.0
  0
LINE
  5
C775
  8
0
 10
4673.9543398267051089
 20
210.1415972867301036
 30
0.0
 11
4674.0715777241048272
 21
210.1415972867301036
 31
0.0
  0
ARC
  5
C776
  8
0
 10
4674.0710285804134401
 20
210.1527476797411111
 30
0.0
 40
0.0111639071607692
 50
272.8194714773305236
 51
326.5700126000829755
  0
ARC
  5
C777
  8
0
 10
4673.954613043453719
 20
210.1522638251464059
 30
0.0
 40
0.0106700369811393
 50
212.077790853293692
 51
268.5327250692728853
  0
LINE
  5
C778
  8
0
 10
4674.5578431340545649
 20
210.1470306714300875
 30
0.0
 11
4674.6750810314551927
 21
210.1470306714300875
 31
0.0
  0
ARC
  5
C779
  8
0
 10
4674.6745318877628961
 20
210.158181064441095
 30
0.0
 40
0.0111639071607692
 50
272.8194714773305236
 51
317.3953296472806755
  0
ARC
  5
C77A
  8
0
 10
4674.5581163508040845
 20
210.1576972098463898
 30
0.0
 40
0.0106700369811393
 50
221.5230568007052057
 51
268.5327250692728853
  0
LINE
  5
C77B
  8
0
 10
4689.494739380655119
 20
210.1413175673301055
 30
0.0
 11
4689.5001123446681959
 21
210.1506238141301139
 31
0.0
  0
LINE
  5
C77C
  8
0
 10
4689.3599658779548918
 20
210.1413175673301055
 30
0.0
 11
4689.3545929138272186
 21
210.1506238141301139
 31
0.0
  0
LINE
  5
C77D
  8
0
 10
4689.4859715779539329
 20
210.13631756733011
 30
0.0
 11
4689.368733680555124
 21
210.13631756733011
 31
0.0
  0
ARC
  5
C77E
  8
0
 10
4689.3692828242456017
 20
210.1474679603410891
 30
0.0
 40
0.0111639071607692
 50
213.4299873999169961
 51
267.1805285226694764
  0
ARC
  5
C77F
  8
0
 10
4689.4856983612062322
 20
210.1469841057464123
 30
0.0
 40
0.0106700369811393
 50
271.4672749307271147
 51
327.9222091467063933
  0
LINE
  5
C780
  8
0
 10
4689.5742736294050701
 20
210.1409306828300885
 30
0.0
 11
4689.5798699612851124
 21
210.1506238141301139
 31
0.0
  0
LINE
  5
C781
  8
0
 10
4689.5655058267038839
 20
210.1359306828300078
 30
0.0
 11
4689.4482679293050751
 21
210.1359306828300078
 31
0.0
  0
ARC
  5
C782
  8
0
 10
4689.4488170729955527
 20
210.1470810758411005
 30
0.0
 40
0.0111639071607692
 50
254.6084464121821895
 51
267.1805285226694764
  0
ARC
  5
C783
  8
0
 10
4689.5652326099570928
 20
210.1465972212463953
 30
0.0
 40
0.0106700369811393
 50
271.4672749307271147
 51
327.9222091467063933
  0
LINE
  5
C784
  8
0
 10
4689.2424397475051592
 20
210.1431392154300966
 30
0.0
 11
4689.2467609825125692
 21
210.1506238141301139
 31
0.0
  0
LINE
  5
C785
  8
0
 10
4689.1076662448049319
 20
210.1431392154300966
 30
0.0
 11
4689.103345009703844
 21
210.1506238141301139
 31
0.0
  0
LINE
  5
C786
  8
0
 10
4689.233671944803973
 20
210.1381392154301011
 30
0.0
 11
4689.1164340474051642
 21
210.1381392154301011
 31
0.0
  0
ARC
  5
C787
  8
0
 10
4689.1169831910956418
 20
210.1492896084411086
 30
0.0
 40
0.0111639071607692
 50
213.4299873999169961
 51
267.1805285226694764
  0
ARC
  5
C788
  8
0
 10
4689.2333987280562724
 20
210.1488057538464034
 30
0.0
 40
0.0106700369811393
 50
271.4672749307271147
 51
327.9222091467063933
  0
LINE
  5
C789
  8
0
 10
4688.8162707240053351
 20
210.1465972867300991
 30
0.0
 11
4688.818595440648096
 21
210.1506238141301139
 31
0.0
  0
LINE
  5
C78A
  8
0
 10
4688.6814972213051078
 20
210.1465972867300991
 30
0.0
 11
4688.6791725046123247
 21
210.1506238141301139
 31
0.0
  0
LINE
  5
C78B
  8
0
 10
4688.8075029213050584
 20
210.1415972867301036
 30
0.0
 11
4688.6902650239053401
 21
210.1415972867301036
 31
0.0
  0
ARC
  5
C78C
  8
0
 10
4688.6908141675958177
 20
210.1527476797411111
 30
0.0
 40
0.0111639071607692
 50
213.4299873999169961
 51
267.1805285226694764
  0
ARC
  5
C78D
  8
0
 10
4688.8072297045546293
 20
210.1522638251464059
 30
0.0
 40
0.0106700369811393
 50
271.4672749307271147
 51
327.9222091467063933
  0
LINE
  5
C78E
  8
0
 10
4688.2039996139537834
 20
210.1470306714300875
 30
0.0
 11
4688.0867617165540651
 21
210.1470306714300875
 31
0.0
  0
ARC
  5
C78F
  8
0
 10
4688.0873108602463617
 20
210.158181064441095
 30
0.0
 40
0.0111639071607692
 50
222.604670352719296
 51
267.1805285226694764
  0
ARC
  5
C790
  8
0
 10
4688.2037263972060828
 20
210.1576972098463898
 30
0.0
 40
0.0106700369811393
 50
271.4672749307271147
 51
318.4769431992947943
  0
ENDSEC
  0
EOF
