  0
SECTION
  2
HEADER
  9
$ACADVER
  1
AC1009
  9
$INSBASE
 10
4704.982385066678944
 20
214.0520925065000029
 30
0.0
  9
$EXTMIN
 10
4700.9857884979428491
 20
210.6240135484000007
 30
0.0
  9
$EXTMAX
 10
4708.9789816354132199
 20
214.0635247257989136
 30
0.0
  9
$LIMMIN
 10
0.0
 20
0.0
  9
$LIMMAX
 10
11.6929133858000007
 20
8.2677165353999982
  9
$ORTHOMODE
 70
     1
  9
$REGENMODE
 70
     1
  9
$FILLMODE
 70
     1
  9
$QTEXTMODE
 70
     0
  9
$MIRRTEXT
 70
     0
  9
$DRAGMODE
 70
     2
  9
$LTSCALE
 40
0.6431102362
  9
$OSMODE
 70
  4095
  9
$ATTMODE
 70
     1
  9
$TEXTSIZE
 40
0.2
  9
$TRACEWID
 40
0.05
  9
$TEXTSTYLE
  7
STANDARD
  9
$CLAYER
  8
0
  9
$CELTYPE
  6
BYLAYER
  9
$CECOLOR
 62
   256
  9
$DIMSCALE
 40
1.0
  9
$DIMASZ
 40
0.1875
  9
$DIMEXO
 40
0.0625
  9
$DIMDLI
 40
0.4443307087
  9
$DIMRND
 40
0.0
  9
$DIMDLE
 40
0.0
  9
$DIMEXE
 40
0.125
  9
$DIMTP
 40
0.01
  9
$DIMTM
 40
0.01
  9
$DIMTXT
 40
2.0
  9
$DIMCEN
 40
0.1052362205
  9
$DIMTSZ
 40
0.0
  9
$DIMTOL
 70
     1
  9
$DIMLIM
 70
     0
  9
$DIMTIH
 70
     1
  9
$DIMTOH
 70
     1
  9
$DIMSE1
 70
     0
  9
$DIMSE2
 70
     0
  9
$DIMTAD
 70
     0
  9
$DIMZIN
 70
     0
  9
$DIMBLK
  1

  9
$DIMASO
 70
     1
  9
$DIMSHO
 70
     1
  9
$DIMPOST
  1
\X
  9
$DIMAPOST
  1

  9
$DIMALT
 70
     1
  9
$DIMALTD
 70
     2
  9
$DIMALTF
 40
25.3999999999999986
  9
$DIMLFAC
 40
1.0
  9
$DIMTOFL
 70
     0
  9
$DIMTVP
 40
0.0
  9
$DIMTIX
 70
     0
  9
$DIMSOXD
 70
     0
  9
$DIMSAH
 70
     0
  9
$DIMBLK1
  1

  9
$DIMBLK2
  1

  9
$DIMSTYLE
  2
STANDARD
  9
$DIMCLRD
 70
     0
  9
$DIMCLRE
 70
     0
  9
$DIMCLRT
 70
     0
  9
$DIMTFAC
 40
1.0
  9
$DIMGAP
 40
0.09
  9
$LUNITS
 70
     2
  9
$LUPREC
 70
     4
  9
$SKETCHINC
 40
0.1
  9
$FILLETRAD
 40
0.0
  9
$AUNITS
 70
     0
  9
$AUPREC
 70
     0
  9
$MENU
  1
.
  9
$ELEVATION
 40
0.0
  9
$PELEVATION
 40
0.0
  9
$THICKNESS
 40
0.0
  9
$LIMCHECK
 70
     0
  9
$BLIPMODE
 70
     0
  9
$CHAMFERA
 40
0.0
  9
$CHAMFERB
 40
0.0
  9
$SKPOLY
 70
     0
  9
$TDCREATE
 40
2458060.468368056230247
  9
$TDUPDATE
 40
2459246.4814351848326623
  9
$TDINDWG
 40
0.3550070602
  9
$TDUSRTIMER
 40
0.3550070602
  9
$USRTIMER
 70
     1
  9
$ANGBASE
 50
0.0
  9
$ANGDIR
 70
     0
  9
$PDMODE
 70
     0
  9
$PDSIZE
 40
0.3125
  9
$PLINEWID
 40
0.0
  9
$COORDS
 70
     1
  9
$SPLFRAME
 70
     0
  9
$SPLINETYPE
 70
     6
  9
$SPLINESEGS
 70
     8
  9
$ATTDIA
 70
     1
  9
$ATTREQ
 70
     1
  9
$HANDLING
 70
     1
  9
$HANDSEED
  5
C981
  9
$SURFTAB1
 70
     6
  9
$SURFTAB2
 70
     6
  9
$SURFTYPE
 70
     6
  9
$SURFU
 70
     6
  9
$SURFV
 70
     6
  9
$UCSNAME
  2

  9
$UCSORG
 10
0.0
 20
0.0
 30
0.0
  9
$UCSXDIR
 10
1.0
 20
0.0
 30
0.0
  9
$UCSYDIR
 10
0.0
 20
1.0
 30
0.0
  9
$PUCSNAME
  2

  9
$PUCSORG
 10
0.0
 20
0.0
 30
0.0
  9
$PUCSXDIR
 10
1.0
 20
0.0
 30
0.0
  9
$PUCSYDIR
 10
0.0
 20
1.0
 30
0.0
  9
$USERI1
 70
     0
  9
$USERI2
 70
     0
  9
$USERI3
 70
     0
  9
$USERI4
 70
     0
  9
$USERI5
 70
     0
  9
$USERR1
 40
0.0
  9
$USERR2
 40
0.0
  9
$USERR3
 40
0.0
  9
$USERR4
 40
0.0
  9
$USERR5
 40
0.0
  9
$WORLDVIEW
 70
     1
  9
$SHADEDGE
 70
     3
  9
$SHADEDIF
 70
    70
  9
$TILEMODE
 70
     1
  9
$MAXACTVP
 70
    64
  9
$PLIMCHECK
 70
     0
  9
$PEXTMIN
 10
1.0000000000000000E+20
 20
1.0000000000000000E+20
 30
1.0000000000000000E+20
  9
$PEXTMAX
 10
-1.0000000000000000E+20
 20
-1.0000000000000000E+20
 30
-1.0000000000000000E+20
  9
$PLIMMIN
 10
0.0
 20
0.0
  9
$PLIMMAX
 10
12.0
 20
9.0
  9
$UNITMODE
 70
     0
  9
$VISRETAIN
 70
     1
  9
$PLINEGEN
 70
     0
  9
$PSLTSCALE
 70
     1
  0
ENDSEC
  0
SECTION
  2
TABLES
  0
TABLE
  2
VPORT
 70
     1
  0
VPORT
  2
*ACTIVE
 70
     0
 10
0.0
 20
0.0
 11
1.0
 21
1.0
 12
0.0
 22
0.0
 13
0.0
 23
0.0
 14
1.0
 24
1.0
 15
0.0
 25
0.0
 16
0.0
 26
0.0
 36
24.6562856918957216
 17
4704.982421875
 27
212.3437664522548971
 37
0.0
 40
8.7048666444152278
 41
2.1186252771618621
 42
50.0
 43
0.0
 44
0.0
 50
0.0
 51
0.0
 71
     0
 72
   100
 73
     1
 74
     1
 75
     0
 76
     0
 77
     0
 78
     0
  0
ENDTAB
  0
TABLE
  2
LTYPE
 70
     2
  0
LTYPE
  2
CONTINUOUS
 70
     0
  3
Solid line
 72
    65
 73
     0
 40
0.0
  0
LTYPE
  2
PHANTOM2
 70
     0
  3
___ _ _ ___ _ _ ___ _ _ ___ _ _
 72
    65
 73
     6
 40
1.25
 49
0.625
 49
-0.125
 49
0.125
 49
-0.125
 49
0.125
 49
-0.125
  0
ENDTAB
  0
TABLE
  2
LAYER
 70
     2
  0
LAYER
  2
0
 70
     0
 62
   255
  6
CONTINUOUS
  0
LAYER
  2
DEFPOINTS
 70
     0
 62
     7
  6
CONTINUOUS
  0
ENDTAB
  0
TABLE
  2
STYLE
 70
     1
  0
STYLE
  2
STANDARD
 70
     0
 40
0.0
 41
0.8
 50
0.0
 71
     0
 42
0.2
  3
txt
  4

  0
ENDTAB
  0
TABLE
  2
VIEW
 70
     0
  0
ENDTAB
  0
TABLE
  2
UCS
 70
     0
  0
ENDTAB
  0
TABLE
  2
APPID
 70
     9
  0
APPID
  2
ACAD
 70
     0
  0
APPID
  2
ACAD_MLEADERVER
 70
     0
  0
APPID
  2
ACAD_EXEMPT_FROM_CAD_STANDARDS
 70
     0
  0
APPID
  2
ACAD_NAV_VCDISPLAY
 70
     0
  0
APPID
  2
ACAECLAYERSTANDARD
 70
     0
  0
APPID
  2
ACCMTRANSPARENCY
 70
     0
  0
APPID
  2
ACAD_DSTYLE_DIMJAG
 70
     0
  0
APPID
  2
ACAD_DSTYLE_DIMTALN
 70
     0
  0
APPID
  2
ACDBATTR
 70
     0
  0
ENDTAB
  0
TABLE
  2
DIMSTYLE
 70
     1
  0
DIMSTYLE
  2
STANDARD
 70
     0
  3

  4

  5

  6

  7

 40
1.0
 41
0.1875
 42
0.0625
 43
0.38
 44
0.125
 45
0.0
 46
0.0
 47
0.01
 48
0.01
140
0.15625
141
0.09
142
0.0
143
25.3999999999999986
144
1.0
145
0.0
146
1.0
147
0.09
 71
     1
 72
     0
 73
     1
 74
     1
 75
     0
 76
     0
 77
     0
 78
     4
170
     0
171
     2
172
     0
173
     0
174
     0
175
     0
176
     0
177
     0
178
     0
  0
ENDTAB
  0
ENDSEC
  0
SECTION
  2
BLOCKS
  0
BLOCK
  8
0
  2
$MODEL_SPACE
 70
     0
 10
0.0
 20
0.0
 30
0.0
  3
$MODEL_SPACE
  1

  0
ENDBLK
  5
21
  8
0
  0
BLOCK
 67
     1
  8
0
  2
$PAPER_SPACE
 70
     0
 10
0.0
 20
0.0
 30
0.0
  3
$PAPER_SPACE
  1

  0
ENDBLK
  5
1D
 67
     1
  8
0
  0
ENDSEC
  0
SECTION
  2
ENTITIES
  0
ATTDEF
  5
3930
  8
DEFPOINTS
 10
4704.9787808285364008
 20
214.0625247257987951
 30
0.0
 40
0.001
  1
K-26298T
  3

  2
MODELNUMBER
 70
     0
1001
ACDBATTR
1070
     0
1070
     1
  0
ATTDEF
  5
3931
  8
DEFPOINTS
 10
4704.9787808285364008
 20
214.0608580591321015
 30
0.0
 40
0.001
  1

  3

  2
TRADENAME
 70
     0
1001
ACDBATTR
1070
     0
1070
     1
  0
ATTDEF
  5
3932
  8
DEFPOINTS
 10
4704.9787808285364008
 20
214.0591913924654932
 30
0.0
 40
0.001
  1
SHOWERHEAD
  3

  2
PRODUCT
 70
     0
1001
ACDBATTR
1070
     0
1070
     1
  0
LINE
  5
C827
  8
0
 10
4704.5512132870790083
 20
213.6150846324999861
 30
0.0
 11
4704.5414050772787959
 21
213.6052421127999992
 31
0.0
  0
LINE
  5
C828
  8
0
 10
4704.5038143284791659
 20
213.2577427358999955
 30
0.0
 11
4704.5038143284791659
 21
213.6052421127999992
 31
0.0
  0
LINE
  5
C829
  8
0
 10
4704.5038143284791659
 20
213.7036673096000072
 30
0.0
 11
4704.5038143284791659
 21
214.0520925065000029
 31
0.0
  0
LINE
  5
C82A
  8
0
 10
4704.5965582951776014
 20
213.6190216404000068
 30
0.0
 11
4704.5965582951776014
 21
213.6977617978000126
 31
0.0
  0
LINE
  5
C82B
  8
0
 10
4704.6018344342783166
 20
213.6052421127999992
 30
0.0
 11
4704.5038143284791659
 21
213.6052421127999992
 31
0.0
  0
LINE
  5
C82C
  8
0
 10
4704.6215292506785772
 20
213.6150846324999861
 30
0.0
 11
4704.5512132870790083
 21
213.6150846324999861
 31
0.0
  0
LINE
  5
C82D
  8
0
 10
4704.5965582951776014
 20
213.6190216404000068
 30
0.0
 11
4704.6248148230033621
 21
213.6190216404000068
 31
0.0
  0
LINE
  5
C82E
  8
0
 10
4704.6171537905784135
 20
213.6977617978000126
 30
0.0
 11
4704.5965582951776014
 21
213.6977617978000126
 31
0.0
  0
LINE
  5
C82F
  8
0
 10
4704.5512132870790083
 20
213.7016988057000049
 30
0.0
 11
4704.6105426647436616
 21
213.7016988057000049
 31
0.0
  0
LINE
  5
C830
  8
0
 10
4704.5038143284791659
 20
213.7036673096000072
 30
0.0
 11
4704.6018344342783166
 21
213.7036673096000072
 31
0.0
  0
LINE
  5
C831
  8
0
 10
4705.4609558048787221
 20
214.0520925065000029
 30
0.0
 11
4704.5038143284791659
 21
214.0520925065000029
 31
0.0
  0
LINE
  5
C832
  8
0
 10
4704.54930076895198
 20
213.7036673096000072
 30
0.0
 11
4704.5512132870790083
 21
213.7016988057000049
 31
0.0
  0
LINE
  5
C833
  8
0
 10
4701.0014594953790947
 20
210.6387066796999932
 30
0.0
 11
4708.9633106379787932
 21
210.6387066796999932
 31
0.0
  0
ARC
  5
C834
  8
0
 10
4701.002379051202297
 20
210.6545788887632966
 30
0.0
 40
0.0158988239647022
 50
182.8165520955458874
 51
266.6842775929014806
  0
ARC
  5
C835
  8
0
 10
4719.8396095613034049
 20
210.8175266606110938
 30
0.0
 40
18.8538210633611598
 50
176.1840633035268127
 51
180.4975701913689932
  0
ARC
  5
C836
  8
0
 10
4702.0774089831802485
 20
212.0328032677479086
 30
0.0
 40
1.0505632795927571
 50
121.0746366789375941
 51
177.8467510552397925
  0
LINE
  5
C837
  8
0
 10
4705.7217281346929667
 20
213.2577427358999955
 30
0.0
 11
4704.2430419986640118
 21
213.2577427358999955
 31
0.0
  0
ARC
  5
C838
  8
0
 10
4705.3433809201178519
 20
166.68544743675821
 30
0.0
 40
46.5852920477324517
 50
91.3534451977041044
 51
93.2894004149295739
  0
ARC
  5
C839
  8
0
 10
4703.0276192405808615
 20
207.927233072997808
 30
0.0
 40
5.2788586364265138
 50
93.8807258522335957
 51
100.8367748498669982
  0
ARC
  5
C83A
  8
0
 10
4702.336968019599226
 20
211.4839251250132008
 30
0.0
 40
1.655771347193741
 50
100.5033737718499935
 51
118.9635218849836065
  0
ARC
  5
C83B
  8
0
 10
4708.9623910821546815
 20
210.6545788887632966
 30
0.0
 40
0.0158988239647022
 50
273.3157224070985194
 51
357.1834479044539989
  0
ARC
  5
C83C
  8
0
 10
4690.1251605720517546
 20
210.8175266606110938
 30
0.0
 40
18.8538210633611598
 50
359.5024298086310068
 51
3.8159366964731611
  0
ARC
  5
C83D
  8
0
 10
4707.88736115017673
 20
212.0328032677479086
 30
0.0
 40
1.0505632795927571
 50
2.1532489447602341
 51
58.9253633210623633
  0
ARC
  5
C83E
  8
0
 10
4704.6213892132391265
 20
166.68544743675821
 30
0.0
 40
46.5852920477324517
 50
86.7105995850704261
 51
88.646554802295924
  0
ARC
  5
C83F
  8
0
 10
4706.9371508927752075
 20
207.927233072997808
 30
0.0
 40
5.2788586364265138
 50
79.1632251501330018
 51
86.1192741477664185
  0
ARC
  5
C840
  8
0
 10
4707.6278021137577525
 20
211.4839251250132008
 30
0.0
 40
1.655771347193741
 50
61.0364781150164433
 51
79.4966262281499638
  0
ARC
  5
C841
  8
0
 10
4704.5998005712090162
 20
213.6339377173696903
 30
0.0
 40
0.028767591498197
 50
274.0541826024302736
 51
319.0531630449762019
  0
ARC
  5
C842
  8
0
 10
4704.5785808379851005
 20
213.6542660688581066
 30
0.0
 40
0.0581356268389831
 50
317.626093805361279
 51
48.4326950433159809
  0
ARC
  5
C843
  8
0
 10
4704.600426200050606
 20
213.6771916846732893
 30
0.0
 40
0.0265130503506631
 50
50.8820334911547718
 51
86.9553158474587065
  0
LINE
  5
C844
  8
0
 10
4705.4609558048787221
 20
213.2577427358999955
 30
0.0
 11
4705.4609558048787221
 21
214.0520925065000029
 31
0.0
  0
LINE
  5
C846
  8
0
 10
4704.1691532828790514
 20
210.6293995192000068
 30
0.0
 11
4704.1637797913408576
 21
210.6387066796999932
 31
0.0
  0
LINE
  5
C847
  8
0
 10
4704.3039267855783692
 20
210.6293995192000068
 30
0.0
 11
4704.3093002772320688
 21
210.6387066796999932
 31
0.0
  0
LINE
  5
C848
  8
0
 10
4704.1779210855784186
 20
210.6243995192000114
 30
0.0
 11
4704.2951589829781369
 21
210.6243995192000114
 31
0.0
  0
ARC
  5
C849
  8
0
 10
4704.2946098392867498
 20
210.6355499122109904
 30
0.0
 40
0.0111639071607692
 50
272.8194714773305236
 51
326.5700126000829755
  0
ARC
  5
C84A
  8
0
 10
4704.1781943023279382
 20
210.6350660576163136
 30
0.0
 40
0.0106700369811393
 50
212.077790853293692
 51
268.5327250692728853
  0
LINE
  5
C84B
  8
0
 10
4703.4628637562782387
 20
210.6312228845999925
 30
0.0
 11
4703.4585429852304514
 21
210.6387066796999932
 31
0.0
  0
LINE
  5
C84C
  8
0
 10
4703.5976372589793755
 20
210.6312228845999925
 30
0.0
 11
4703.6019580301199312
 21
210.6387066796999932
 31
0.0
  0
LINE
  5
C84D
  8
0
 10
4703.4716315589776059
 20
210.6262228845999971
 30
0.0
 11
4703.5888694563791432
 21
210.6262228845999971
 31
0.0
  0
ARC
  5
C84E
  8
0
 10
4703.5883203126868466
 20
210.6373732776110046
 30
0.0
 40
0.0111639071607692
 50
272.8194714773305236
 51
326.5700126000829755
  0
ARC
  5
C84F
  8
0
 10
4703.4719047757271255
 20
210.6368894230162994
 30
0.0
 40
0.0106700369811393
 50
212.077790853293692
 51
268.5327250692728853
  0
LINE
  5
C850
  8
0
 10
4702.8456255130276986
 20
210.6346801953000067
 30
0.0
 11
4702.8433008212123241
 21
210.6387066796999932
 31
0.0
  0
LINE
  5
C851
  8
0
 10
4702.9803990157288354
 20
210.6346801953000067
 30
0.0
 11
4702.9827237075942321
 21
210.6387066796999932
 31
0.0
  0
LINE
  5
C852
  8
0
 10
4702.8543933157279753
 20
210.6296801953000113
 30
0.0
 11
4702.9716312131276936
 21
210.6296801953000113
 31
0.0
  0
ARC
  5
C853
  8
0
 10
4702.9710820694381255
 20
210.6408305883109904
 30
0.0
 40
0.0111639071607692
 50
272.8194714773305236
 51
326.5700126000829755
  0
ARC
  5
C854
  8
0
 10
4702.8546665324765854
 20
210.6403467337163136
 30
0.0
 40
0.0106700369811393
 50
212.077790853293692
 51
268.5327250692728853
  0
LINE
  5
C855
  8
0
 10
4702.3292253616791641
 20
210.6351139884000077
 30
0.0
 11
4702.4464632590788824
 21
210.6351139884000077
 31
0.0
  0
ARC
  5
C856
  8
0
 10
4702.4459141153865858
 20
210.6462643814109867
 30
0.0
 40
0.0111639071607692
 50
272.8194714773305236
 51
317.3921820700062995
  0
ARC
  5
C857
  8
0
 10
4702.3294985784277742
 20
210.6457805268163099
 30
0.0
 40
0.0106700369811393
 50
221.5262944340942965
 51
268.5327250692728853
  0
LINE
  5
C858
  8
0
 10
4705.7956168504788366
 20
210.6293995192000068
 30
0.0
 11
4705.8009903420170303
 21
210.6387066796999932
 31
0.0
  0
LINE
  5
C859
  8
0
 10
4705.6608433477776998
 20
210.6293995192000068
 30
0.0
 11
4705.6554698561249097
 21
210.6387066796999932
 31
0.0
  0
LINE
  5
C85A
  8
0
 10
4705.7868490477776504
 20
210.6243995192000114
 30
0.0
 11
4705.6696111503788416
 21
210.6243995192000114
 31
0.0
  0
ARC
  5
C85B
  8
0
 10
4705.6701602940702287
 20
210.6355499122109904
 30
0.0
 40
0.0111639071607692
 50
213.4299873999169961
 51
267.1805285226694764
  0
ARC
  5
C85C
  8
0
 10
4705.7865758310290403
 20
210.6350660576163136
 30
0.0
 40
0.0106700369811393
 50
271.4672749307271147
 51
327.9222091467063933
  0
LINE
  5
C85D
  8
0
 10
4706.5019063770787398
 20
210.6312228845999925
 30
0.0
 11
4706.5062271481274365
 21
210.6387066796999932
 31
0.0
  0
LINE
  5
C85E
  8
0
 10
4706.367132874379422
 20
210.6312228845999925
 30
0.0
 11
4706.3628121032370473
 21
210.6387066796999932
 31
0.0
  0
LINE
  5
C85F
  8
0
 10
4706.4931385743775536
 20
210.6262228845999971
 30
0.0
 11
4706.3759006769778352
 21
210.6262228845999971
 31
0.0
  0
ARC
  5
C860
  8
0
 10
4706.3764498206701319
 20
210.6373732776110046
 30
0.0
 40
0.0111639071607692
 50
213.4299873999169961
 51
267.1805285226694764
  0
ARC
  5
C861
  8
0
 10
4706.492865357629853
 20
210.6368894230162994
 30
0.0
 40
0.0106700369811393
 50
271.4672749307271147
 51
327.9222091467063933
  0
LINE
  5
C862
  8
0
 10
4707.1191446203283704
 20
210.6346801953000067
 30
0.0
 11
4707.1214693121446544
 21
210.6387066796999932
 31
0.0
  0
LINE
  5
C863
  8
0
 10
4706.9843711176290526
 20
210.6346801953000067
 30
0.0
 11
4706.9820464257609274
 21
210.6387066796999932
 31
0.0
  0
LINE
  5
C864
  8
0
 10
4707.1103768176290032
 20
210.6296801953000113
 30
0.0
 11
4706.9931389202265564
 21
210.6296801953000113
 31
0.0
  0
ARC
  5
C865
  8
0
 10
4706.9936880639197625
 20
210.6408305883109904
 30
0.0
 40
0.0111639071607692
 50
213.4299873999169961
 51
267.1805285226694764
  0
ARC
  5
C866
  8
0
 10
4707.1101036008803931
 20
210.6403467337163136
 30
0.0
 40
0.0106700369811393
 50
271.4672749307271147
 51
327.9222091467063933
  0
LINE
  5
C867
  8
0
 10
4707.6355447716787239
 20
210.6351139884000077
 30
0.0
 11
4707.5183068742790056
 21
210.6351139884000077
 31
0.0
  0
ARC
  5
C868
  8
0
 10
4707.5188560179703927
 20
210.6462643814109867
 30
0.0
 40
0.0111639071607692
 50
222.6078179299937858
 51
267.1805285226694764
  0
ARC
  5
C869
  8
0
 10
4707.6352715549292043
 20
210.6457805268163099
 30
0.0
 40
0.0106700369811393
 50
271.4672749307271147
 51
318.473705565905675
  0
LINE
  5
C86A
  8
0
 10
4704.9149983152783534
 20
210.6290135483999961
 30
0.0
 11
4704.9094019833992206
 21
210.6387066796999932
 31
0.0
  0
LINE
  5
C86B
  8
0
 10
4705.0497718179776712
 20
210.6290135483999961
 30
0.0
 11
4705.0553681499777667
 21
210.6387066796999932
 31
0.0
  0
LINE
  5
C86C
  8
0
 10
4704.9237661179777206
 20
210.6240135484000007
 30
0.0
 11
4705.0410040153783484
 21
210.6240135484000007
 31
0.0
  0
ARC
  5
C86D
  8
0
 10
4705.0404548716869613
 20
210.6351639414110082
 30
0.0
 40
0.0111639071607692
 50
272.8194714773305236
 51
326.5700126000829755
  0
ARC
  5
C86E
  8
0
 10
4704.9240393347281497
 20
210.6346800868163029
 30
0.0
 40
0.0106700369811393
 50
212.077790853293692
 51
268.5327250692728853
  0
ENDSEC
  0
EOF
