  0
SECTION
  2
HEADER
  9
$ACADVER
  1
AC1009
  9
$INSBASE
 10
4705.7160524367764083
 20
212.4312510299681946
 30
0.0
  9
$EXTMIN
 10
4703.58226023937641
 20
211.0524929680960895
 30
0.0
  9
$EXTMAX
 10
4707.9335170037757052
 20
213.8100067282960879
 30
0.0
  9
$LIMMIN
 10
0.0
 20
0.0
  9
$LIMMAX
 10
11.6929133858000007
 20
8.2677165353999982
  9
$ORTHOMODE
 70
     1
  9
$REGENMODE
 70
     1
  9
$FILLMODE
 70
     1
  9
$QTEXTMODE
 70
     0
  9
$MIRRTEXT
 70
     0
  9
$DRAGMODE
 70
     2
  9
$LTSCALE
 40
0.6431102362
  9
$OSMODE
 70
  4095
  9
$ATTMODE
 70
     1
  9
$TEXTSIZE
 40
0.2
  9
$TRACEWID
 40
0.05
  9
$TEXTSTYLE
  7
STANDARD
  9
$CLAYER
  8
0
  9
$CELTYPE
  6
BYLAYER
  9
$CECOLOR
 62
   256
  9
$DIMSCALE
 40
1.0
  9
$DIMASZ
 40
0.1875
  9
$DIMEXO
 40
0.0625
  9
$DIMDLI
 40
0.4443307087
  9
$DIMRND
 40
0.0
  9
$DIMDLE
 40
0.0
  9
$DIMEXE
 40
0.125
  9
$DIMTP
 40
0.01
  9
$DIMTM
 40
0.01
  9
$DIMTXT
 40
2.0
  9
$DIMCEN
 40
0.1052362205
  9
$DIMTSZ
 40
0.0
  9
$DIMTOL
 70
     1
  9
$DIMLIM
 70
     0
  9
$DIMTIH
 70
     1
  9
$DIMTOH
 70
     1
  9
$DIMSE1
 70
     0
  9
$DIMSE2
 70
     0
  9
$DIMTAD
 70
     0
  9
$DIMZIN
 70
     0
  9
$DIMBLK
  1

  9
$DIMASO
 70
     1
  9
$DIMSHO
 70
     1
  9
$DIMPOST
  1
\X
  9
$DIMAPOST
  1

  9
$DIMALT
 70
     1
  9
$DIMALTD
 70
     2
  9
$DIMALTF
 40
25.3999999999999986
  9
$DIMLFAC
 40
1.0
  9
$DIMTOFL
 70
     0
  9
$DIMTVP
 40
0.0
  9
$DIMTIX
 70
     0
  9
$DIMSOXD
 70
     0
  9
$DIMSAH
 70
     0
  9
$DIMBLK1
  1

  9
$DIMBLK2
  1

  9
$DIMSTYLE
  2
STANDARD
  9
$DIMCLRD
 70
     0
  9
$DIMCLRE
 70
     0
  9
$DIMCLRT
 70
     0
  9
$DIMTFAC
 40
1.0
  9
$DIMGAP
 40
0.09
  9
$LUNITS
 70
     2
  9
$LUPREC
 70
     4
  9
$SKETCHINC
 40
0.1
  9
$FILLETRAD
 40
0.0
  9
$AUNITS
 70
     0
  9
$AUPREC
 70
     0
  9
$MENU
  1
.
  9
$ELEVATION
 40
0.0
  9
$PELEVATION
 40
0.0
  9
$THICKNESS
 40
0.0
  9
$LIMCHECK
 70
     0
  9
$BLIPMODE
 70
     0
  9
$CHAMFERA
 40
0.0
  9
$CHAMFERB
 40
0.0
  9
$SKPOLY
 70
     0
  9
$TDCREATE
 40
2458060.468368056230247
  9
$TDUPDATE
 40
2459246.4871759261004627
  9
$TDINDWG
 40
0.3574954861
  9
$TDUSRTIMER
 40
0.3574954861
  9
$USRTIMER
 70
     1
  9
$ANGBASE
 50
0.0
  9
$ANGDIR
 70
     0
  9
$PDMODE
 70
     0
  9
$PDSIZE
 40
0.3125
  9
$PLINEWID
 40
0.0
  9
$COORDS
 70
     1
  9
$SPLFRAME
 70
     0
  9
$SPLINETYPE
 70
     6
  9
$SPLINESEGS
 70
     8
  9
$ATTDIA
 70
     1
  9
$ATTREQ
 70
     1
  9
$HANDLING
 70
     1
  9
$HANDSEED
  5
CA35
  9
$SURFTAB1
 70
     6
  9
$SURFTAB2
 70
     6
  9
$SURFTYPE
 70
     6
  9
$SURFU
 70
     6
  9
$SURFV
 70
     6
  9
$UCSNAME
  2

  9
$UCSORG
 10
0.0
 20
0.0
 30
0.0
  9
$UCSXDIR
 10
1.0
 20
0.0
 30
0.0
  9
$UCSYDIR
 10
0.0
 20
1.0
 30
0.0
  9
$PUCSNAME
  2

  9
$PUCSORG
 10
0.0
 20
0.0
 30
0.0
  9
$PUCSXDIR
 10
1.0
 20
0.0
 30
0.0
  9
$PUCSYDIR
 10
0.0
 20
1.0
 30
0.0
  9
$USERI1
 70
     0
  9
$USERI2
 70
     0
  9
$USERI3
 70
     0
  9
$USERI4
 70
     0
  9
$USERI5
 70
     0
  9
$USERR1
 40
0.0
  9
$USERR2
 40
0.0
  9
$USERR3
 40
0.0
  9
$USERR4
 40
0.0
  9
$USERR5
 40
0.0
  9
$WORLDVIEW
 70
     1
  9
$SHADEDGE
 70
     3
  9
$SHADEDIF
 70
    70
  9
$TILEMODE
 70
     1
  9
$MAXACTVP
 70
    64
  9
$PLIMCHECK
 70
     0
  9
$PEXTMIN
 10
1.0000000000000000E+20
 20
1.0000000000000000E+20
 30
1.0000000000000000E+20
  9
$PEXTMAX
 10
-1.0000000000000000E+20
 20
-1.0000000000000000E+20
 30
-1.0000000000000000E+20
  9
$PLIMMIN
 10
0.0
 20
0.0
  9
$PLIMMAX
 10
12.0
 20
9.0
  9
$UNITMODE
 70
     0
  9
$VISRETAIN
 70
     1
  9
$PLINEGEN
 70
     0
  9
$PSLTSCALE
 70
     1
  0
ENDSEC
  0
SECTION
  2
TABLES
  0
TABLE
  2
VPORT
 70
     1
  0
VPORT
  2
*ACTIVE
 70
     0
 10
0.0
 20
0.0
 11
1.0
 21
1.0
 12
0.0
 22
0.0
 13
0.0
 23
0.0
 14
1.0
 24
1.0
 15
0.0
 25
0.0
 16
0.0
 26
0.0
 36
14.5972255515687994
 17
4705.7578124999990905
 27
212.4312515258789063
 37
0.0
 40
5.1538090598498618
 41
2.1186252771618621
 42
50.0
 43
0.0
 44
0.0
 50
0.0
 51
0.0
 71
     0
 72
   100
 73
     1
 74
     1
 75
     0
 76
     0
 77
     0
 78
     0
  0
ENDTAB
  0
TABLE
  2
LTYPE
 70
     2
  0
LTYPE
  2
CONTINUOUS
 70
     0
  3
Solid line
 72
    65
 73
     0
 40
0.0
  0
LTYPE
  2
PHANTOM2
 70
     0
  3
___ _ _ ___ _ _ ___ _ _ ___ _ _
 72
    65
 73
     6
 40
1.25
 49
0.625
 49
-0.125
 49
0.125
 49
-0.125
 49
0.125
 49
-0.125
  0
ENDTAB
  0
TABLE
  2
LAYER
 70
     2
  0
LAYER
  2
0
 70
     0
 62
   255
  6
CONTINUOUS
  0
LAYER
  2
DEFPOINTS
 70
     0
 62
     7
  6
CONTINUOUS
  0
ENDTAB
  0
TABLE
  2
STYLE
 70
     1
  0
STYLE
  2
STANDARD
 70
     0
 40
0.0
 41
0.8
 50
0.0
 71
     0
 42
0.2
  3
txt
  4

  0
ENDTAB
  0
TABLE
  2
VIEW
 70
     0
  0
ENDTAB
  0
TABLE
  2
UCS
 70
     0
  0
ENDTAB
  0
TABLE
  2
APPID
 70
     9
  0
APPID
  2
ACAD
 70
     0
  0
APPID
  2
ACAD_MLEADERVER
 70
     0
  0
APPID
  2
ACAD_EXEMPT_FROM_CAD_STANDARDS
 70
     0
  0
APPID
  2
ACAD_NAV_VCDISPLAY
 70
     0
  0
APPID
  2
ACAECLAYERSTANDARD
 70
     0
  0
APPID
  2
ACCMTRANSPARENCY
 70
     0
  0
APPID
  2
ACAD_DSTYLE_DIMJAG
 70
     0
  0
APPID
  2
ACAD_DSTYLE_DIMTALN
 70
     0
  0
APPID
  2
ACDBATTR
 70
     0
  0
ENDTAB
  0
TABLE
  2
DIMSTYLE
 70
     1
  0
DIMSTYLE
  2
STANDARD
 70
     0
  3

  4

  5

  6

  7

 40
1.0
 41
0.1875
 42
0.0625
 43
0.38
 44
0.125
 45
0.0
 46
0.0
 47
0.01
 48
0.01
140
0.15625
141
0.09
142
0.0
143
25.3999999999999986
144
1.0
145
0.0
146
1.0
147
0.09
 71
     1
 72
     0
 73
     1
 74
     1
 75
     0
 76
     0
 77
     0
 78
     4
170
     0
171
     2
172
     0
173
     0
174
     0
175
     0
176
     0
177
     0
178
     0
  0
ENDTAB
  0
ENDSEC
  0
SECTION
  2
BLOCKS
  0
BLOCK
  8
0
  2
$MODEL_SPACE
 70
     0
 10
0.0
 20
0.0
 30
0.0
  3
$MODEL_SPACE
  1

  0
ENDBLK
  5
21
  8
0
  0
BLOCK
 67
     1
  8
0
  2
$PAPER_SPACE
 70
     0
 10
0.0
 20
0.0
 30
0.0
  3
$PAPER_SPACE
  1

  0
ENDBLK
  5
1D
 67
     1
  8
0
  0
ENDSEC
  0
SECTION
  2
ENTITIES
  0
ATTDEF
  5
3930
  8
DEFPOINTS
 10
4705.7242857210094371
 20
212.4324009522437109
 30
0.0
 40
0.001
  1
K-26299T
  3

  2
MODELNUMBER
 70
     0
1001
ACDBATTR
1070
     0
1070
     1
  0
ATTDEF
  5
3931
  8
DEFPOINTS
 10
4705.7242857210094371
 20
212.4307342855769889
 30
0.0
 40
0.001
  1

  3

  2
TRADENAME
 70
     0
1001
ACDBATTR
1070
     0
1070
     1
  0
ATTDEF
  5
3932
  8
DEFPOINTS
 10
4705.7242857210094371
 20
212.429067618910409
 30
0.0
 40
0.001
  1
BODY SPRAY
  3

  2
PRODUCT
 70
     0
1001
ACDBATTR
1070
     0
1070
     1
  0
LINE
  5
C8F4
  8
0
 10
4707.4995170037773278
 20
212.4312490259960953
 30
0.0
 11
4707.7105170037757489
 21
212.4312490259960953
 31
0.0
  0
LINE
  5
C8F5
  8
0
 10
4703.8788435118749476
 20
213.8075441914961061
 30
0.0
 11
4703.596239754175258
 21
213.8100067282960879
 31
0.0
  0
LINE
  5
C8F6
  8
0
 10
4705.6963673974760241
 20
213.6910955554961049
 30
0.0
 11
4705.4995170037764183
 21
213.6910955554961049
 31
0.0
  0
LINE
  5
C8F7
  8
0
 10
4705.7554225155763561
 20
213.4942451617961012
 30
0.0
 11
4705.7160524367764083
 21
213.4942451617961012
 31
0.0
  0
LINE
  5
C8F8
  8
0
 10
4707.4995170037773278
 20
213.1893139392961132
 30
0.0
 11
4707.7105170037757489
 21
213.1893139392961132
 31
0.0
  0
LINE
  5
C8F9
  8
0
 10
4705.7554225155763561
 20
213.1399144531960985
 30
0.0
 11
4707.4877059800755887
 21
213.1399144531960985
 31
0.0
  0
LINE
  5
C8FA
  8
0
 10
4707.7255170037751668
 20
213.0012530357961111
 30
0.0
 11
4707.9185170037762873
 21
213.0012530357961111
 31
0.0
  0
LINE
  5
C8FB
  8
0
 10
4705.3761547989761311
 20
212.7757412247960929
 30
0.0
 11
4705.4798319643759896
 21
212.7757412247960929
 31
0.0
  0
LINE
  5
C8FC
  8
0
 10
4705.3761547989761311
 20
212.7757412247960929
 30
0.0
 11
4705.3761547989761311
 21
212.0867608369960919
 31
0.0
  0
LINE
  5
C8FD
  8
0
 10
4705.4798319643759896
 20
213.6714105160961026
 30
0.0
 11
4705.4798319643759896
 21
211.1910915456961106
 31
0.0
  0
LINE
  5
C8FE
  8
0
 10
4705.7160524367764083
 20
211.1910915438402867
 30
0.0
 11
4705.7160524367764083
 21
213.6714105160961026
 31
0.0
  0
LINE
  5
C8FF
  8
0
 10
4705.7554225155763561
 20
211.368256899996112
 30
0.0
 11
4705.7554225155763561
 21
213.4942451617961012
 31
0.0
  0
LINE
  5
C900
  8
0
 10
4707.7105170037757489
 20
211.6731881224961
 30
0.0
 11
4707.7105170037757489
 21
213.1893139392961132
 31
0.0
  0
LINE
  5
C901
  8
0
 10
4707.9335170037757052
 20
211.8762490283764919
 30
0.0
 11
4707.9335170037757052
 21
212.9862530333961104
 31
0.0
  0
ARC
  5
C902
  8
0
 10
4705.6952462222088798
 20
213.6702893408283899
 30
0.0
 40
0.0208364009074768
 50
3.0844890434878969
 51
86.9155109565248551
  0
ARC
  5
C903
  8
0
 10
4705.500813572007246
 20
213.6701139478653033
 30
0.0
 40
0.0210216304779296
 50
93.5361228892308247
 51
176.4638771107586876
  0
ARC
  5
C904
  8
0
 10
4707.7261767117206546
 20
213.0169127438207113
 30
0.0
 40
0.0156735978635391
 50
182.4123215510709031
 51
267.587685298815984
  0
ARC
  5
C905
  8
0
 10
4707.918164757456907
 20
212.9859007895325078
 30
0.0
 40
0.0153562867519364
 50
1.3143710089547691
 51
88.6856198989476781
  0
ARC
  5
C906
  8
0
 10
4707.4869169268067708
 20
213.1273143761212907
 30
0.0
 40
0.0126247591989224
 50
3.583348640341836
 51
86.4166518447276246
  0
LINE
  5
C907
  8
0
 10
4703.58226023937641
 20
213.7961564551960976
 30
0.0
 11
4703.58226023937641
 21
211.0663456065962009
 31
0.0
  0
ARC
  5
C908
  8
0
 10
4703.5967683354001565
 20
213.7954930968980989
 30
0.0
 40
0.0145232535772224
 50
92.0857697811322424
 51
177.3820701650604121
  0
ARC
  5
C909
  8
0
 10
4703.251362826949844
 20
190.307555746894792
 30
0.0
 40
23.5083642328926885
 50
86.9706943933570926
 51
88.4704905454158137
  0
ARC
  5
C90A
  8
0
 10
4704.3391889691001779
 20
212.9684561032215129
 30
0.0
 40
0.8291385498968054
 50
2.929720107724461
 51
79.259867212624826
  0
ARC
  5
C90B
  8
0
 10
4705.6380909812878599
 20
213.0208582858442981
 30
0.0
 40
0.4709538551824414
 50
181.219613756784014
 51
197.1473057232639121
  0
ARC
  5
C90C
  8
0
 10
4705.355317646633921
 20
212.9612237303718132
 30
0.0
 40
0.1850585549802326
 50
205.3446106445009036
 51
272.2687373202667231
  0
ARC
  5
C90D
  8
0
 10
4705.3623287759855884
 20
212.7624304582543004
 30
0.0
 40
0.0138833437976652
 50
5.2083034683684204
 51
88.7011078011477139
  0
LINE
  5
C90E
  8
0
 10
4707.4995170037773278
 20
213.1893139392961132
 30
0.0
 11
4707.4995170037773278
 21
211.6731881224961
 31
0.0
  0
LINE
  5
C90F
  8
0
 10
4703.8788435118749476
 20
211.0549578702961071
 30
0.0
 11
4703.596239754175258
 21
211.0524929680960895
 31
0.0
  0
LINE
  5
C910
  8
0
 10
4705.6963673974760241
 20
211.1714065062961083
 30
0.0
 11
4705.4995170037764183
 21
211.1714065062961083
 31
0.0
  0
LINE
  5
C911
  8
0
 10
4705.7554225155763561
 20
211.368256899996112
 30
0.0
 11
4705.7160524367764083
 21
211.368256899996112
 31
0.0
  0
LINE
  5
C912
  8
0
 10
4707.4995170037773278
 20
211.6731881224961
 30
0.0
 11
4707.7105170037757489
 21
211.6731881224961
 31
0.0
  0
LINE
  5
C913
  8
0
 10
4705.7554225155763561
 20
211.7225876085960863
 30
0.0
 11
4707.4877059800755887
 21
211.7225876085960863
 31
0.0
  0
LINE
  5
C914
  8
0
 10
4707.7255170037751668
 20
211.8612490259961021
 30
0.0
 11
4707.9185170037762873
 21
211.8612490259961021
 31
0.0
  0
LINE
  5
C915
  8
0
 10
4705.3761547989761311
 20
212.0867608369960919
 30
0.0
 11
4705.4798319643759896
 21
212.0867608369960919
 31
0.0
  0
ARC
  5
C916
  8
0
 10
4705.6952462222088798
 20
211.1922127209637949
 30
0.0
 40
0.02083640090748
 50
273.0844890434751733
 51
356.915505846131623
  0
ARC
  5
C917
  8
0
 10
4705.500813572007246
 20
211.1923881139269099
 30
0.0
 40
0.0210216304779296
 50
183.5361228892411987
 51
266.46387711076909
  0
ARC
  5
C918
  8
0
 10
4707.7261767117206546
 20
211.8455893179715019
 30
0.0
 40
0.0156735978635391
 50
92.412314701184016
 51
177.5876784489290117
  0
ARC
  5
C919
  8
0
 10
4707.918164757456907
 20
211.8766012722597054
 30
0.0
 40
0.0153562867519364
 50
271.3143801010522793
 51
358.6856289910435862
  0
ARC
  5
C91A
  8
0
 10
4707.4869169268067708
 20
211.7351876856708941
 30
0.0
 40
0.0126247591989224
 50
273.5833481552724038
 51
356.4166513596580899
  0
ARC
  5
C91B
  8
0
 10
4703.5967727213974285
 20
211.067010912593588
 30
0.0
 40
0.0145277240643772
 50
182.6248132427805899
 51
267.8975628793206738
  0
ARC
  5
C91C
  8
0
 10
4703.251362826949844
 20
234.5549463148973928
 30
0.0
 40
23.5083642328926885
 50
271.5295094545841721
 51
273.029305606642879
  0
ARC
  5
C91D
  8
0
 10
4704.3391889691001779
 20
211.8940459585707003
 30
0.0
 40
0.8291385498968054
 50
280.7401327873752166
 51
357.0702798922756074
  0
ARC
  5
C91E
  8
0
 10
4705.6380909812878599
 20
211.8416437759478868
 30
0.0
 40
0.4709538551824414
 50
162.8526942767360026
 51
178.7803862432159008
  0
ARC
  5
C91F
  8
0
 10
4705.355317646633921
 20
211.9012783314204
 30
0.0
 40
0.1850585549802326
 50
87.7312626797333053
 51
154.6553893554990111
  0
ARC
  5
C920
  8
0
 10
4705.3623287759855884
 20
212.1000716035379128
 30
0.0
 40
0.0138833437976652
 50
271.2988921988522861
 51
354.7916965316316009
  0
LINE
  5
C921
  8
0
 10
4705.1672438179748497
 20
213.010834189296105
 30
0.0
 11
4705.1672438179748497
 21
211.8516678724961935
 31
0.0
  0
ENDSEC
  0
EOF
