  0
SECTION
  2
HEADER
  9
$ACADVER
  1
AC1009
  9
$INSBASE
 10
2792.0717771605500275
 20
153.9413021224198133
 30
0.0
  9
$EXTMIN
 10
2787.4545037562220386
 20
149.509213030822707
 30
-0.0000000000000058
  9
$EXTMAX
 10
2796.6289523308719254
 20
158.3780757557078971
 30
0.0000000000000104
  9
$LIMMIN
 10
0.0
 20
0.0
  9
$LIMMAX
 10
11.6929133858000007
 20
8.2677165353999982
  9
$ORTHOMODE
 70
     1
  9
$REGENMODE
 70
     1
  9
$FILLMODE
 70
     1
  9
$QTEXTMODE
 70
     0
  9
$MIRRTEXT
 70
     0
  9
$DRAGMODE
 70
     2
  9
$LTSCALE
 40
0.6431102362
  9
$OSMODE
 70
  2039
  9
$ATTMODE
 70
     1
  9
$TEXTSIZE
 40
0.2
  9
$TRACEWID
 40
0.05
  9
$TEXTSTYLE
  7
STANDARD
  9
$CLAYER
  8
0
  9
$CELTYPE
  6
BYLAYER
  9
$CECOLOR
 62
   256
  9
$DIMSCALE
 40
1.0
  9
$DIMASZ
 40
0.1875
  9
$DIMEXO
 40
0.0625
  9
$DIMDLI
 40
0.4443307087
  9
$DIMRND
 40
0.0
  9
$DIMDLE
 40
0.0
  9
$DIMEXE
 40
0.125
  9
$DIMTP
 40
0.01
  9
$DIMTM
 40
0.01
  9
$DIMTXT
 40
2.0
  9
$DIMCEN
 40
0.1052362205
  9
$DIMTSZ
 40
0.0
  9
$DIMTOL
 70
     1
  9
$DIMLIM
 70
     0
  9
$DIMTIH
 70
     1
  9
$DIMTOH
 70
     1
  9
$DIMSE1
 70
     0
  9
$DIMSE2
 70
     0
  9
$DIMTAD
 70
     0
  9
$DIMZIN
 70
     0
  9
$DIMBLK
  1

  9
$DIMASO
 70
     1
  9
$DIMSHO
 70
     1
  9
$DIMPOST
  1
\X
  9
$DIMAPOST
  1

  9
$DIMALT
 70
     1
  9
$DIMALTD
 70
     2
  9
$DIMALTF
 40
25.3999999999999986
  9
$DIMLFAC
 40
1.0
  9
$DIMTOFL
 70
     0
  9
$DIMTVP
 40
0.0
  9
$DIMTIX
 70
     0
  9
$DIMSOXD
 70
     0
  9
$DIMSAH
 70
     0
  9
$DIMBLK1
  1

  9
$DIMBLK2
  1

  9
$DIMSTYLE
  2
STANDARD
  9
$DIMCLRD
 70
     0
  9
$DIMCLRE
 70
     0
  9
$DIMCLRT
 70
     0
  9
$DIMTFAC
 40
1.0
  9
$DIMGAP
 40
0.09
  9
$LUNITS
 70
     2
  9
$LUPREC
 70
     4
  9
$SKETCHINC
 40
0.1
  9
$FILLETRAD
 40
0.0
  9
$AUNITS
 70
     0
  9
$AUPREC
 70
     0
  9
$MENU
  1
.
  9
$ELEVATION
 40
0.0
  9
$PELEVATION
 40
0.0
  9
$THICKNESS
 40
0.0
  9
$LIMCHECK
 70
     0
  9
$BLIPMODE
 70
     0
  9
$CHAMFERA
 40
0.0
  9
$CHAMFERB
 40
0.0
  9
$SKPOLY
 70
     0
  9
$TDCREATE
 40
2458060.468368056230247
  9
$TDUPDATE
 40
2459319.4031365751288831
  9
$TDINDWG
 40
0.6900417824
  9
$TDUSRTIMER
 40
0.6900417824
  9
$USRTIMER
 70
     1
  9
$ANGBASE
 50
0.0
  9
$ANGDIR
 70
     0
  9
$PDMODE
 70
     0
  9
$PDSIZE
 40
0.3125
  9
$PLINEWID
 40
0.0
  9
$COORDS
 70
     1
  9
$SPLFRAME
 70
     0
  9
$SPLINETYPE
 70
     6
  9
$SPLINESEGS
 70
     8
  9
$ATTDIA
 70
     1
  9
$ATTREQ
 70
     1
  9
$HANDLING
 70
     1
  9
$HANDSEED
  5
34FA0
  9
$SURFTAB1
 70
     6
  9
$SURFTAB2
 70
     6
  9
$SURFTYPE
 70
     6
  9
$SURFU
 70
     6
  9
$SURFV
 70
     6
  9
$UCSNAME
  2

  9
$UCSORG
 10
0.0
 20
0.0
 30
0.0
  9
$UCSXDIR
 10
1.0
 20
0.0
 30
0.0
  9
$UCSYDIR
 10
0.0
 20
1.0
 30
0.0
  9
$PUCSNAME
  2

  9
$PUCSORG
 10
0.0
 20
0.0
 30
0.0
  9
$PUCSXDIR
 10
1.0
 20
0.0
 30
0.0
  9
$PUCSYDIR
 10
0.0
 20
1.0
 30
0.0
  9
$USERI1
 70
     0
  9
$USERI2
 70
     0
  9
$USERI3
 70
     0
  9
$USERI4
 70
     0
  9
$USERI5
 70
     0
  9
$USERR1
 40
0.0
  9
$USERR2
 40
0.0
  9
$USERR3
 40
0.0
  9
$USERR4
 40
0.0
  9
$USERR5
 40
0.0
  9
$WORLDVIEW
 70
     1
  9
$SHADEDGE
 70
     3
  9
$SHADEDIF
 70
    70
  9
$TILEMODE
 70
     1
  9
$MAXACTVP
 70
    64
  9
$PLIMCHECK
 70
     0
  9
$PEXTMIN
 10
1.0000000000000000E+20
 20
1.0000000000000000E+20
 30
1.0000000000000000E+20
  9
$PEXTMAX
 10
-1.0000000000000000E+20
 20
-1.0000000000000000E+20
 30
-1.0000000000000000E+20
  9
$PLIMMIN
 10
0.0
 20
0.0
  9
$PLIMMAX
 10
12.0
 20
9.0
  9
$UNITMODE
 70
     0
  9
$VISRETAIN
 70
     1
  9
$PLINEGEN
 70
     0
  9
$PSLTSCALE
 70
     1
  0
ENDSEC
  0
SECTION
  2
TABLES
  0
TABLE
  2
VPORT
 70
     1
  0
VPORT
  2
*ACTIVE
 70
     0
 10
0.0
 20
0.0
 11
1.0
 21
1.0
 12
-511.6513871908281885
 22
-41.3178671826224502
 13
0.0
 23
0.0
 14
1.0
 24
1.0
 15
0.0
 25
0.0
 16
0.0
 26
0.0
 36
96.5995694866707311
 17
3303.693115234375
 27
195.2615115758877096
 37
0.0
 40
8.9426674077551667
 41
2.6486111111111108
 42
50.0
 43
0.0
 44
0.0
 50
0.0
 51
0.0
 71
     0
 72
   100
 73
     1
 74
     1
 75
     0
 76
     0
 77
     0
 78
     0
  0
ENDTAB
  0
TABLE
  2
LTYPE
 70
     2
  0
LTYPE
  2
CONTINUOUS
 70
     0
  3
Solid line
 72
    65
 73
     0
 40
0.0
  0
LTYPE
  2
PHANTOM2
 70
     0
  3
___ _ _ ___ _ _ ___ _ _ ___ _ _
 72
    65
 73
     6
 40
1.25
 49
0.625
 49
-0.125
 49
0.125
 49
-0.125
 49
0.125
 49
-0.125
  0
ENDTAB
  0
TABLE
  2
LAYER
 70
     2
  0
LAYER
  2
0
 70
     0
 62
   255
  6
CONTINUOUS
  0
LAYER
  2
DEFPOINTS
 70
     0
 62
     7
  6
CONTINUOUS
  0
ENDTAB
  0
TABLE
  2
STYLE
 70
     1
  0
STYLE
  2
STANDARD
 70
     0
 40
0.0
 41
0.8
 50
0.0
 71
     0
 42
0.2
  3
txt
  4

  0
ENDTAB
  0
TABLE
  2
VIEW
 70
     0
  0
ENDTAB
  0
TABLE
  2
UCS
 70
     0
  0
ENDTAB
  0
TABLE
  2
APPID
 70
    10
  0
APPID
  2
ACAD
 70
     0
  0
APPID
  2
ACAD_MLEADERVER
 70
     0
  0
APPID
  2
ACAD_EXEMPT_FROM_CAD_STANDARDS
 70
     0
  0
APPID
  2
ACAD_NAV_VCDISPLAY
 70
     0
  0
APPID
  2
ACAECLAYERSTANDARD
 70
     0
  0
APPID
  2
ACCMTRANSPARENCY
 70
     0
  0
APPID
  2
ACAD_DSTYLE_DIMJAG
 70
     0
  0
APPID
  2
ACAD_DSTYLE_DIMTALN
 70
     0
  0
APPID
  2
ACDBATTR
 70
     0
  0
APPID
  2
ACAD_DSTYLE_DIMRADIAL_EXTENSION
 70
     0
  0
ENDTAB
  0
TABLE
  2
DIMSTYLE
 70
     1
  0
DIMSTYLE
  2
STANDARD
 70
     0
  3

  4

  5

  6

  7

 40
1.0
 41
0.1875
 42
0.0625
 43
0.38
 44
0.125
 45
0.0
 46
0.0
 47
0.01
 48
0.01
140
0.15625
141
0.09
142
0.0
143
25.3999999999999986
144
1.0
145
0.0
146
1.0
147
0.09
 71
     1
 72
     0
 73
     1
 74
     1
 75
     0
 76
     0
 77
     0
 78
     4
170
     0
171
     2
172
     0
173
     0
174
     0
175
     0
176
     0
177
     0
178
     0
  0
ENDTAB
  0
ENDSEC
  0
SECTION
  2
BLOCKS
  0
BLOCK
  8
0
  2
$MODEL_SPACE
 70
     0
 10
0.0
 20
0.0
 30
0.0
  3
$MODEL_SPACE
  1

  0
ENDBLK
  5
21
  8
0
  0
BLOCK
 67
     1
  8
0
  2
$PAPER_SPACE
 70
     0
 10
0.0
 20
0.0
 30
0.0
  3
$PAPER_SPACE
  1

  0
ENDBLK
  5
1D
 67
     1
  8
0
  0
BLOCK
  8
0
  2
_FILLED
 70
     0
 10
0.0
 20
0.0
 30
0.0
  3
_FILLED
  1

  0
SOLID
  5
27E58
  8
0
  6
BYBLOCK
 62
     0
 10
0.0
 20
0.0
 30
0.0
 11
-1.0
 21
0.1666666667
 31
0.0
 12
-1.0
 22
-0.1666666667
 32
0.0
 13
-1.0
 23
-0.1666666667
 33
0.0
  0
ENDBLK
  5
27E59
  8
0
  6
BYBLOCK
 62
     0
  0
ENDSEC
  0
SECTION
  2
ENTITIES
  0
ATTDEF
  5
344C2
  8
DEFPOINTS
 10
2792.0723504130191941
 20
153.9461449302721974
 30
0.0
 40
0.001
  1
K-26301W-G
  3

  2
MODELNUMBER
 70
     0
1001
ACDBATTR
1070
     0
1070
     1
  0
ATTDEF
  5
344C3
  8
DEFPOINTS
 10
2792.0723504130191941
 20
153.9444782636055038
 30
0.0
 40
0.001
  1

  3

  2
TRADENAME
 70
     0
1001
ACDBATTR
1070
     0
1070
     1
  0
ATTDEF
  5
344C4
  8
DEFPOINTS
 10
2792.0723504130191941
 20
153.9428115969388102
 30
0.0
 40
0.001
  1
SHOWERHEAD
  3

  2
PRODUCT
 70
     0
1001
ACDBATTR
1070
     0
1070
     1
  0
CIRCLE
  5
34C0C
  8
0
 10
2792.0717771605500275
 20
153.9413021224198133
 30
0.0
 40
4.4291349999999987
  0
CIRCLE
  5
34C0D
  8
0
 10
2792.0717771605500275
 20
153.9413021224198133
 30
0.0
 40
4.3701349999999994
  0
CIRCLE
  5
34C0E
  8
0
 10
2792.0717771605500275
 20
153.9413021224198133
 30
0.0
 40
4.2960312047585214
  0
ARC
  5
34C0F
  8
0
 10
2791.6194605923269592
 20
150.4253486553168955
 30
0.0
 40
0.2145304197760323
 50
309.8969241758845214
 51
356.2380878227909875
  0
ARC
  5
34C10
  8
0
 10
2791.5329707599257745
 20
150.5288006194035972
 30
0.0
 40
0.3493740328322433
 50
261.0243162471271035
 51
309.8969241758845214
  0
ARC
  5
34C11
  8
0
 10
2792.0717780647719337
 20
153.9413020514500943
 30
0.0
 40
3.8041503399166081
 50
278.9727420357326082
 51
261.0278127074769259
  0
ARC
  5
34C12
  8
0
 10
2792.5240933429818142
 20
150.4253483730431924
 30
0.0
 40
0.2145304197760323
 50
183.7618764210619986
 51
230.1030400679734953
  0
ARC
  5
34C13
  8
0
 10
2792.610583239943935
 20
150.5288002831547942
 30
0.0
 40
0.3493740328322433
 50
230.1030400679734953
 51
278.9756479967352902
  0
CIRCLE
  5
34C14
  8
0
 10
2792.0717771605500275
 20
153.9413021224198133
 30
0.0
 40
0.7480314958000013
  0
ARC
  5
34C15
  8
0
 10
2791.7408144285391245
 20
153.1597270588856077
 30
0.0
 40
0.1011945472119441
 50
17.5473379827576892
 51
61.8940301596720417
  0
ARC
  5
34C16
  8
0
 10
2791.7134745307748744
 20
153.1567535736747914
 30
0.0
 40
0.1282727950839371
 50
359.2436449225530168
 51
15.1311652811723008
  0
ARC
  5
34C17
  8
0
 10
2711.6709319165202032
 20
151.6467621759784095
 30
0.0
 40
80.1721171381344959
 50
359.1170108848526183
 51
359.3715695564417274
  0
ARC
  5
34C18
  8
0
 10
2597.991453257062858
 20
152.2461764863757026
 30
0.0
 40
193.8524135708366032
 50
359.5629338873383176
 51
0.2686342506314651
  0
ARC
  5
34C19
  8
0
 10
2793.6124311528510589
 20
150.3285565186731958
 30
0.0
 40
1.85660715409917
 50
182.092666988961895
 51
189.3160739868318103
  0
ARC
  5
34C1A
  8
0
 10
2792.4364243504578553
 20
150.1356392349175053
 30
0.0
 40
0.6648819015154338
 50
189.3160739868301903
 51
206.6398858918362862
  0
ARC
  5
34C1B
  8
0
 10
2792.179509972843789
 20
150.0067623230260097
 30
0.0
 40
0.3774549441099787
 50
206.6398858918362862
 51
229.556873658682008
  0
ARC
  5
34C1C
  8
0
 10
2792.0783003371761879
 20
149.8880225988638131
 30
0.0
 40
0.2214340722815308
 50
229.556873658682008
 51
253.5629182694669908
  0
ARC
  5
34C1D
  8
0
 10
2792.0732024389499202
 20
150.320039868055602
 30
0.0
 40
0.6469671391116345
 50
264.8957411383531735
 51
269.873779687394574
  0
ARC
  5
34C1E
  8
0
 10
2790.5311083986957783
 20
150.3285583948292867
 30
0.0
 40
1.8566215013071441
 50
350.6839399726782744
 51
357.9072851871952139
  0
ARC
  5
34C1F
  8
0
 10
2791.707129432288184
 20
150.1356392349175053
 30
0.0
 40
0.6648819015154338
 50
333.360114108162179
 51
350.6839260131682181
  0
ARC
  5
34C20
  8
0
 10
2791.9640438099008861
 20
150.0067623230260097
 30
0.0
 40
0.3774549441099787
 50
310.4431263413180204
 51
333.3601141081637138
  0
ARC
  5
34C21
  8
0
 10
2792.0652534455680325
 20
149.8880225988638131
 30
0.0
 40
0.2214340722815308
 50
286.4370817305326113
 51
310.4431263413180204
  0
ARC
  5
34C22
  8
0
 10
2792.0703512956779377
 20
150.3200405812484917
 30
0.0
 40
0.6469678537572408
 50
270.1262786295671958
 51
275.10425748673822
  0
ARC
  5
34C23
  8
0
 10
2792.5864415784908488
 20
150.501245424323713
 30
0.0
 40
0.2827475739572125
 50
191.6320082306783945
 51
230.8662097696494868
  0
ARC
  5
34C24
  8
0
 10
2792.6115257439118977
 20
150.5321861013968885
 30
0.0
 40
0.3225789245474659
 50
230.87874082058309
 51
278.7168396828570849
  0
ARC
  5
34C25
  8
0
 10
2792.0717771172248831
 20
153.9412998197271065
 30
0.0
 40
3.7741525704435208
 50
278.9727702760185934
 51
261.0272292077132761
  0
ARC
  5
34C26
  8
0
 10
2791.5573860168638021
 20
150.5010072827232932
 30
0.0
 40
0.2823903100339041
 50
309.1212586631261274
 51
348.402331202359278
  0
ARC
  5
34C27
  8
0
 10
2791.532028459817866
 20
150.5321861062604967
 30
0.0
 40
0.3225789245474659
 50
261.2831598008642118
 51
309.1212586631270938
  0
ARC
  5
34C28
  8
0
 10
2986.1521009607699852
 20
152.2461764863757026
 30
0.0
 40
193.8524135708366032
 50
179.7313657493685071
 51
180.4370661126600055
  0
ARC
  5
34C29
  8
0
 10
2851.5767192125608744
 20
151.3711410323591053
 30
0.0
 40
59.274466034477463
 50
180.5835324208042891
 51
180.9278741144198932
  0
ARC
  5
34C2A
  8
0
 10
2792.4091411846748088
 20
153.1594151090367859
 30
0.0
 40
0.1074114312746127
 50
161.9842078509398959
 51
182.3235898521332956
  0
ARC
  5
34C2B
  8
0
 10
2792.3956602824141555
 20
153.1637994280202122
 30
0.0
 40
0.0932355017206622
 50
137.9873363180589081
 51
161.9842078509383043
  0
ARC
  5
34C2C
  8
0
 10
2792.4036491530159765
 20
153.1566030187393039
 30
0.0
 40
0.1039877275387859
 50
114.1355764046573
 51
137.9873363180589081
  0
CIRCLE
  5
34C2D
  8
0
 10
2792.0717771605500275
 20
153.9413021224198133
 30
0.0
 40
0.2300000000000004
  0
CIRCLE
  5
34C2E
  8
0
 10
2792.0717771605500275
 20
153.9413021224198133
 30
0.0
 40
0.4749999777999996
  0
CIRCLE
  5
34C2F
  8
0
 10
2790.7117758032500205
 20
150.2047291027197957
 30
0.0
 40
0.1712598425
  0
CIRCLE
  5
34C30
  8
0
 10
2790.7117758032500205
 20
150.2047291027197957
 30
0.0
 40
0.056825813899998
  0
CIRCLE
  5
34C31
  8
0
 10
2788.6281328384498011
 20
151.9531131460198026
 30
0.0
 40
0.1712598425
  0
CIRCLE
  5
34C32
  8
0
 10
2788.6281328384498011
 20
151.9531131460198026
 30
0.0
 40
0.056825813899998
  0
CIRCLE
  5
34C33
  8
0
 10
2788.1558093237490539
 20
154.631792907619797
 30
0.0
 40
0.1712598425
  0
CIRCLE
  5
34C34
  8
0
 10
2788.1558093237490539
 20
154.631792907619797
 30
0.0
 40
0.056825813899998
  0
CIRCLE
  5
34C35
  8
0
 10
2789.5158106810499703
 20
156.9873843568198026
 30
0.0
 40
0.1712598425
  0
CIRCLE
  5
34C36
  8
0
 10
2789.5158106810499703
 20
156.9873843568198026
 30
0.0
 40
0.056825813899998
  0
CIRCLE
  5
34C37
  8
0
 10
2794.6277436400500847
 20
156.9873843568198026
 30
0.0
 40
0.1712598425
  0
CIRCLE
  5
34C38
  8
0
 10
2794.6277436400500847
 20
156.9873843568198026
 30
0.0
 40
0.056825813899998
  0
CIRCLE
  5
34C39
  8
0
 10
2795.5154214826497991
 20
151.9531131460198026
 30
0.0
 40
0.1712598425
  0
CIRCLE
  5
34C3A
  8
0
 10
2795.5154214826497991
 20
151.9531131460198026
 30
0.0
 40
0.056825813899998
  0
CIRCLE
  5
34C3B
  8
0
 10
2795.9877449973500916
 20
154.631792907619797
 30
0.0
 40
0.1712598425
  0
CIRCLE
  5
34C3C
  8
0
 10
2795.9877449973500916
 20
154.631792907619797
 30
0.0
 40
0.056825813899998
  0
CIRCLE
  5
34C3D
  8
0
 10
2793.4317785178500344
 20
150.2047291027197957
 30
0.0
 40
0.1712598425
  0
CIRCLE
  5
34C3E
  8
0
 10
2793.4317785178500344
 20
150.2047291027197957
 30
0.0
 40
0.056825813899998
  0
CIRCLE
  5
34C3F
  8
0
 10
2793.4278159031500763
 20
150.6675349989197912
 30
0.0
 40
0.0589999999999975
  0
CIRCLE
  5
34C40
  8
0
 10
2792.7630797166498269
 20
150.46588948121979
 30
0.0
 40
0.0589999999999975
  0
CIRCLE
  5
34C41
  8
0
 10
2792.9538661709489134
 20
151.2265112966198046
 30
0.0
 40
0.0589999999999975
  0
CIRCLE
  5
34C42
  8
0
 10
2794.0404402812500848
 20
150.9949895512197884
 30
0.0
 40
0.0589999999999975
  0
CIRCLE
  5
34C43
  8
0
 10
2793.749610163250054
 20
151.6319631119197879
 30
0.0
 40
0.0589999999999975
  0
CIRCLE
  5
34C44
  8
0
 10
2792.9004781333501342
 20
151.9406409947197858
 30
0.0
 40
0.0589999999999975
  0
CIRCLE
  5
34C45
  8
0
 10
2793.1158203229501851
 20
152.8972589599198102
 30
0.0
 40
0.0589999999999975
  0
CIRCLE
  5
34C46
  8
0
 10
2793.6030168952502208
 20
152.4100623877197904
 30
0.0
 40
0.0589999999999975
  0
CIRCLE
  5
34C47
  8
0
 10
2794.0724382882499413
 20
153.1126011496197918
 30
0.0
 40
0.0589999999999975
  0
CIRCLE
  5
34C48
  8
0
 10
2793.5482771605497874
 20
153.9413021224198133
 30
0.0
 40
0.0589999999999975
  0
CIRCLE
  5
34C49
  8
0
 10
2794.3811161709500084
 20
152.2634691197197867
 30
0.0
 40
0.0589999999999975
  0
CIRCLE
  5
34C4A
  8
0
 10
2794.5774100396502035
 20
151.4356692432197917
 30
0.0
 40
0.0589999999999975
  0
CIRCLE
  5
34C4B
  8
0
 10
2794.7865679863498372
 20
153.0592131119198029
 30
0.0
 40
0.0589999999999975
  0
CIRCLE
  5
34C4C
  8
0
 10
2795.3455442840499927
 20
152.5852633798197928
 30
0.0
 40
0.0589999999999975
  0
CIRCLE
  5
34C4D
  8
0
 10
2795.0180897317500239
 20
151.9726390016197968
 30
0.0
 40
0.0589999999999975
  0
CIRCLE
  5
34C4E
  8
0
 10
2795.5471898016489831
 20
153.2499995663197865
 30
0.0
 40
0.0589999999999975
  0
CIRCLE
  5
34C4F
  8
0
 10
2795.6152771605497946
 20
153.9413021224198133
 30
0.0
 40
0.0589999999999975
  0
CIRCLE
  5
34C50
  8
0
 10
2794.9262771605499438
 20
153.9413021224198133
 30
0.0
 40
0.0589999999999975
  0
CIRCLE
  5
34C51
  8
0
 10
2794.237277160550093
 20
153.9413021224198133
 30
0.0
 40
0.0589999999999975
  0
CIRCLE
  5
34C52
  8
0
 10
2794.0724382882499413
 20
154.7700030951197903
 30
0.0
 40
0.0589999999999975
  0
CIRCLE
  5
34C53
  8
0
 10
2794.7865679863498372
 20
154.8233911328198076
 30
0.0
 40
0.0589999999999975
  0
CIRCLE
  5
34C54
  8
0
 10
2795.3455442840499927
 20
155.2973408649197893
 30
0.0
 40
0.0589999999999975
  0
CIRCLE
  5
34C55
  8
0
 10
2795.5471898016489831
 20
154.6326046784197956
 30
0.0
 40
0.0589999999999975
  0
CIRCLE
  5
34C56
  8
0
 10
2795.0180897317500239
 20
155.9099652431198137
 30
0.0
 40
0.0589999999999975
  0
CIRCLE
  5
34C57
  8
0
 10
2794.3811161709500084
 20
155.6191351250197954
 30
0.0
 40
0.0589999999999975
  0
CIRCLE
  5
34C58
  8
0
 10
2794.5774100396502035
 20
156.4469350015197904
 30
0.0
 40
0.0589999999999975
  0
CIRCLE
  5
34C59
  8
0
 10
2792.0717771605500275
 20
155.4178021224198005
 30
0.0
 40
0.0589999999999975
  0
CIRCLE
  5
34C5A
  8
0
 10
2792.0717771605500275
 20
156.1068021224197935
 30
0.0
 40
0.0589999999999975
  0
CIRCLE
  5
34C5B
  8
0
 10
2792.0717771605500275
 20
156.7958021224197864
 30
0.0
 40
0.0589999999999975
  0
CIRCLE
  5
34C5C
  8
0
 10
2792.0717771605500275
 20
157.4848021224198078
 30
0.0
 40
0.0589999999999975
  0
CIRCLE
  5
34C5D
  8
0
 10
2792.7630797166498269
 20
157.4167147635197921
 30
0.0
 40
0.0589999999999975
  0
CIRCLE
  5
34C5E
  8
0
 10
2792.9538661709489134
 20
156.6560929481198059
 30
0.0
 40
0.0589999999999975
  0
CIRCLE
  5
34C5F
  8
0
 10
2792.9004781333501342
 20
155.9419632500197963
 30
0.0
 40
0.0589999999999975
  0
CIRCLE
  5
34C60
  8
0
 10
2793.1158203229501851
 20
154.9853452848198003
 30
0.0
 40
0.0589999999999975
  0
CIRCLE
  5
34C61
  8
0
 10
2793.6030168952502208
 20
155.4725418570197917
 30
0.0
 40
0.0589999999999975
  0
CIRCLE
  5
34C62
  8
0
 10
2793.749610163250054
 20
156.2506411328197942
 30
0.0
 40
0.0589999999999975
  0
CIRCLE
  5
34C63
  8
0
 10
2794.0404402812500848
 20
156.8876146935197937
 30
0.0
 40
0.0589999999999975
  0
CIRCLE
  5
34C64
  8
0
 10
2793.4278159031500763
 20
157.2150692458197909
 30
0.0
 40
0.0589999999999975
  0
CIRCLE
  5
34C65
  8
0
 10
2791.3804746044497733
 20
157.4167147635197921
 30
0.0
 40
0.0589999999999975
  0
CIRCLE
  5
34C66
  8
0
 10
2790.7157384179490691
 20
157.2150692458197909
 30
0.0
 40
0.0589999999999975
  0
CIRCLE
  5
34C67
  8
0
 10
2791.1896881501497774
 20
156.6560929481198059
 30
0.0
 40
0.0589999999999975
  0
CIRCLE
  5
34C68
  8
0
 10
2791.2430761877499208
 20
155.9419632500197963
 30
0.0
 40
0.0589999999999975
  0
CIRCLE
  5
34C69
  8
0
 10
2791.0277339981489604
 20
154.9853452848198003
 30
0.0
 40
0.0589999999999975
  0
CIRCLE
  5
34C6A
  8
0
 10
2790.5405374258498341
 20
155.4725418570197917
 30
0.0
 40
0.0589999999999975
  0
CIRCLE
  5
34C6B
  8
0
 10
2790.3939441578500009
 20
156.2506411328197942
 30
0.0
 40
0.0589999999999975
  0
CIRCLE
  5
34C6C
  8
0
 10
2790.1031140398499701
 20
156.8876146935197937
 30
0.0
 40
0.0589999999999975
  0
CIRCLE
  5
34C6D
  8
0
 10
2789.5661442814498514
 20
156.4469350015197904
 30
0.0
 40
0.0589999999999975
  0
CIRCLE
  5
34C6E
  8
0
 10
2789.7624381501500466
 20
155.6191351250197954
 30
0.0
 40
0.0589999999999975
  0
CIRCLE
  5
34C6F
  8
0
 10
2790.0711160329501581
 20
154.7700030951197903
 30
0.0
 40
0.0589999999999975
  0
CIRCLE
  5
34C70
  8
0
 10
2790.5952771605498128
 20
153.9413021224198133
 30
0.0
 40
0.0589999999999975
  0
CIRCLE
  5
34C71
  8
0
 10
2789.906277160549962
 20
153.9413021224198133
 30
0.0
 40
0.0589999999999975
  0
CIRCLE
  5
34C72
  8
0
 10
2789.3569863347502178
 20
154.8233911328198076
 30
0.0
 40
0.0589999999999975
  0
CIRCLE
  5
34C73
  8
0
 10
2788.7980100371501067
 20
155.2973408649197893
 30
0.0
 40
0.0589999999999975
  0
CIRCLE
  5
34C74
  8
0
 10
2789.125464589350031
 20
155.9099652431198137
 30
0.0
 40
0.0589999999999975
  0
CIRCLE
  5
34C75
  8
0
 10
2788.5963645194501623
 20
154.6326046784197956
 30
0.0
 40
0.0589999999999975
  0
CIRCLE
  5
34C76
  8
0
 10
2788.5282771605488961
 20
153.9413021224198133
 30
0.0
 40
0.0589999999999975
  0
CIRCLE
  5
34C77
  8
0
 10
2788.5963645194501623
 20
153.2499995663197865
 30
0.0
 40
0.0589999999999975
  0
CIRCLE
  5
34C78
  8
0
 10
2789.3569863347502178
 20
153.0592131119198029
 30
0.0
 40
0.0589999999999975
  0
CIRCLE
  5
34C79
  8
0
 10
2789.2172771605501111
 20
153.9413021224198133
 30
0.0
 40
0.0589999999999975
  0
CIRCLE
  5
34C7A
  8
0
 10
2790.0711160329501581
 20
153.1126011496197918
 30
0.0
 40
0.0589999999999975
  0
CIRCLE
  5
34C7B
  8
0
 10
2789.125464589350031
 20
151.9726390016197968
 30
0.0
 40
0.0589999999999975
  0
CIRCLE
  5
34C7C
  8
0
 10
2788.7980100371501067
 20
152.5852633798197928
 30
0.0
 40
0.0589999999999975
  0
CIRCLE
  5
34C7D
  8
0
 10
2789.7624381501500466
 20
152.2634691197197867
 30
0.0
 40
0.0589999999999975
  0
CIRCLE
  5
34C7E
  8
0
 10
2789.5661442814498514
 20
151.4356692432197917
 30
0.0
 40
0.0589999999999975
  0
CIRCLE
  5
34C7F
  8
0
 10
2790.1031140398499701
 20
150.9949895512197884
 30
0.0
 40
0.0589999999999975
  0
CIRCLE
  5
34C80
  8
0
 10
2790.3939441578500009
 20
151.6319631119197879
 30
0.0
 40
0.0589999999999975
  0
CIRCLE
  5
34C81
  8
0
 10
2790.5405374258498341
 20
152.4100623877197904
 30
0.0
 40
0.0589999999999975
  0
CIRCLE
  5
34C82
  8
0
 10
2791.0277339981489604
 20
152.8972589599198102
 30
0.0
 40
0.0589999999999975
  0
CIRCLE
  5
34C83
  8
0
 10
2791.2430761877499208
 20
151.9406409947197858
 30
0.0
 40
0.0589999999999975
  0
CIRCLE
  5
34C84
  8
0
 10
2791.1896881501497774
 20
151.2265112966198046
 30
0.0
 40
0.0589999999999975
  0
CIRCLE
  5
34C85
  8
0
 10
2790.7157384179490691
 20
150.6675349989197912
 30
0.0
 40
0.0589999999999975
  0
CIRCLE
  5
34C86
  8
0
 10
2791.3804746044497733
 20
150.46588948121979
 30
0.0
 40
0.0589999999999975
  0
CIRCLE
  5
34C87
  8
0
 10
2792.0717771605500275
 20
153.9413021224198133
 30
0.0
 40
0.4950171877343941
  0
ENDSEC
  0
EOF
