  0
SECTION
  2
HEADER
  9
$ACADVER
  1
AC1009
  9
$INSBASE
 10
2792.071835505485069
 20
143.8398180112953071
 30
0.0
  9
$EXTMIN
 10
2787.5823375049931201
 20
138.6124298638191874
 30
-0.0000000000112498
  9
$EXTMAX
 10
2796.5438376937931935
 20
143.8476017433893901
 30
0.0000000000002956
  9
$LIMMIN
 10
0.0
 20
0.0
  9
$LIMMAX
 10
11.6929133858000007
 20
8.2677165353999982
  9
$ORTHOMODE
 70
     1
  9
$REGENMODE
 70
     1
  9
$FILLMODE
 70
     1
  9
$QTEXTMODE
 70
     0
  9
$MIRRTEXT
 70
     0
  9
$DRAGMODE
 70
     2
  9
$LTSCALE
 40
0.6431102362
  9
$OSMODE
 70
  2039
  9
$ATTMODE
 70
     1
  9
$TEXTSIZE
 40
0.2
  9
$TRACEWID
 40
0.05
  9
$TEXTSTYLE
  7
STANDARD
  9
$CLAYER
  8
0
  9
$CELTYPE
  6
BYLAYER
  9
$CECOLOR
 62
   256
  9
$DIMSCALE
 40
1.0
  9
$DIMASZ
 40
0.1875
  9
$DIMEXO
 40
0.0625
  9
$DIMDLI
 40
0.4443307087
  9
$DIMRND
 40
0.0
  9
$DIMDLE
 40
0.0
  9
$DIMEXE
 40
0.125
  9
$DIMTP
 40
0.01
  9
$DIMTM
 40
0.01
  9
$DIMTXT
 40
2.0
  9
$DIMCEN
 40
0.1052362205
  9
$DIMTSZ
 40
0.0
  9
$DIMTOL
 70
     1
  9
$DIMLIM
 70
     0
  9
$DIMTIH
 70
     1
  9
$DIMTOH
 70
     1
  9
$DIMSE1
 70
     0
  9
$DIMSE2
 70
     0
  9
$DIMTAD
 70
     0
  9
$DIMZIN
 70
     0
  9
$DIMBLK
  1

  9
$DIMASO
 70
     1
  9
$DIMSHO
 70
     1
  9
$DIMPOST
  1
\X
  9
$DIMAPOST
  1

  9
$DIMALT
 70
     1
  9
$DIMALTD
 70
     2
  9
$DIMALTF
 40
25.3999999999999986
  9
$DIMLFAC
 40
1.0
  9
$DIMTOFL
 70
     0
  9
$DIMTVP
 40
0.0
  9
$DIMTIX
 70
     0
  9
$DIMSOXD
 70
     0
  9
$DIMSAH
 70
     0
  9
$DIMBLK1
  1

  9
$DIMBLK2
  1

  9
$DIMSTYLE
  2
STANDARD
  9
$DIMCLRD
 70
     0
  9
$DIMCLRE
 70
     0
  9
$DIMCLRT
 70
     0
  9
$DIMTFAC
 40
1.0
  9
$DIMGAP
 40
0.09
  9
$LUNITS
 70
     2
  9
$LUPREC
 70
     4
  9
$SKETCHINC
 40
0.1
  9
$FILLETRAD
 40
0.0
  9
$AUNITS
 70
     0
  9
$AUPREC
 70
     0
  9
$MENU
  1
.
  9
$ELEVATION
 40
0.0
  9
$PELEVATION
 40
0.0
  9
$THICKNESS
 40
0.0
  9
$LIMCHECK
 70
     0
  9
$BLIPMODE
 70
     0
  9
$CHAMFERA
 40
0.0
  9
$CHAMFERB
 40
0.0
  9
$SKPOLY
 70
     0
  9
$TDCREATE
 40
2458060.468368056230247
  9
$TDUPDATE
 40
2459319.4013194451108575
  9
$TDINDWG
 40
0.6914885417
  9
$TDUSRTIMER
 40
0.6914885417
  9
$USRTIMER
 70
     1
  9
$ANGBASE
 50
0.0
  9
$ANGDIR
 70
     0
  9
$PDMODE
 70
     0
  9
$PDSIZE
 40
0.3125
  9
$PLINEWID
 40
0.0
  9
$COORDS
 70
     1
  9
$SPLFRAME
 70
     0
  9
$SPLINETYPE
 70
     6
  9
$SPLINESEGS
 70
     8
  9
$ATTDIA
 70
     1
  9
$ATTREQ
 70
     1
  9
$HANDLING
 70
     1
  9
$HANDSEED
  5
35034
  9
$SURFTAB1
 70
     6
  9
$SURFTAB2
 70
     6
  9
$SURFTYPE
 70
     6
  9
$SURFU
 70
     6
  9
$SURFV
 70
     6
  9
$UCSNAME
  2

  9
$UCSORG
 10
0.0
 20
0.0
 30
0.0
  9
$UCSXDIR
 10
1.0
 20
0.0
 30
0.0
  9
$UCSYDIR
 10
0.0
 20
1.0
 30
0.0
  9
$PUCSNAME
  2

  9
$PUCSORG
 10
0.0
 20
0.0
 30
0.0
  9
$PUCSXDIR
 10
1.0
 20
0.0
 30
0.0
  9
$PUCSYDIR
 10
0.0
 20
1.0
 30
0.0
  9
$USERI1
 70
     0
  9
$USERI2
 70
     0
  9
$USERI3
 70
     0
  9
$USERI4
 70
     0
  9
$USERI5
 70
     0
  9
$USERR1
 40
0.0
  9
$USERR2
 40
0.0
  9
$USERR3
 40
0.0
  9
$USERR4
 40
0.0
  9
$USERR5
 40
0.0
  9
$WORLDVIEW
 70
     1
  9
$SHADEDGE
 70
     3
  9
$SHADEDIF
 70
    70
  9
$TILEMODE
 70
     1
  9
$MAXACTVP
 70
    64
  9
$PLIMCHECK
 70
     0
  9
$PEXTMIN
 10
1.0000000000000000E+20
 20
1.0000000000000000E+20
 30
1.0000000000000000E+20
  9
$PEXTMAX
 10
-1.0000000000000000E+20
 20
-1.0000000000000000E+20
 30
-1.0000000000000000E+20
  9
$PLIMMIN
 10
0.0
 20
0.0
  9
$PLIMMAX
 10
12.0
 20
9.0
  9
$UNITMODE
 70
     0
  9
$VISRETAIN
 70
     1
  9
$PLINEGEN
 70
     0
  9
$PSLTSCALE
 70
     1
  0
ENDSEC
  0
SECTION
  2
TABLES
  0
TABLE
  2
VPORT
 70
     1
  0
VPORT
  2
*ACTIVE
 70
     0
 10
0.0
 20
0.0
 11
1.0
 21
1.0
 12
-511.6300276349821274
 22
-54.0314957722834492
 13
0.0
 23
0.0
 14
1.0
 24
1.0
 15
0.0
 25
0.0
 16
0.0
 26
0.0
 36
96.5995694866707311
 17
3303.693115234375
 27
195.2615115758877096
 37
0.0
 40
5.2787378036720289
 41
2.6486111111111108
 42
50.0
 43
0.0
 44
0.0
 50
0.0
 51
0.0
 71
     0
 72
   100
 73
     1
 74
     1
 75
     0
 76
     0
 77
     0
 78
     0
  0
ENDTAB
  0
TABLE
  2
LTYPE
 70
     2
  0
LTYPE
  2
CONTINUOUS
 70
     0
  3
Solid line
 72
    65
 73
     0
 40
0.0
  0
LTYPE
  2
PHANTOM2
 70
     0
  3
___ _ _ ___ _ _ ___ _ _ ___ _ _
 72
    65
 73
     6
 40
1.25
 49
0.625
 49
-0.125
 49
0.125
 49
-0.125
 49
0.125
 49
-0.125
  0
ENDTAB
  0
TABLE
  2
LAYER
 70
     2
  0
LAYER
  2
0
 70
     0
 62
   255
  6
CONTINUOUS
  0
LAYER
  2
DEFPOINTS
 70
     0
 62
     7
  6
CONTINUOUS
  0
ENDTAB
  0
TABLE
  2
STYLE
 70
     1
  0
STYLE
  2
STANDARD
 70
     0
 40
0.0
 41
0.8
 50
0.0
 71
     0
 42
0.2
  3
txt
  4

  0
ENDTAB
  0
TABLE
  2
VIEW
 70
     0
  0
ENDTAB
  0
TABLE
  2
UCS
 70
     0
  0
ENDTAB
  0
TABLE
  2
APPID
 70
    10
  0
APPID
  2
ACAD
 70
     0
  0
APPID
  2
ACAD_MLEADERVER
 70
     0
  0
APPID
  2
ACAD_EXEMPT_FROM_CAD_STANDARDS
 70
     0
  0
APPID
  2
ACAD_NAV_VCDISPLAY
 70
     0
  0
APPID
  2
ACAECLAYERSTANDARD
 70
     0
  0
APPID
  2
ACCMTRANSPARENCY
 70
     0
  0
APPID
  2
ACAD_DSTYLE_DIMJAG
 70
     0
  0
APPID
  2
ACAD_DSTYLE_DIMTALN
 70
     0
  0
APPID
  2
ACDBATTR
 70
     0
  0
APPID
  2
ACAD_DSTYLE_DIMRADIAL_EXTENSION
 70
     0
  0
ENDTAB
  0
TABLE
  2
DIMSTYLE
 70
     1
  0
DIMSTYLE
  2
STANDARD
 70
     0
  3

  4

  5

  6

  7

 40
1.0
 41
0.1875
 42
0.0625
 43
0.38
 44
0.125
 45
0.0
 46
0.0
 47
0.01
 48
0.01
140
0.15625
141
0.09
142
0.0
143
25.3999999999999986
144
1.0
145
0.0
146
1.0
147
0.09
 71
     1
 72
     0
 73
     1
 74
     1
 75
     0
 76
     0
 77
     0
 78
     4
170
     0
171
     2
172
     0
173
     0
174
     0
175
     0
176
     0
177
     0
178
     0
  0
ENDTAB
  0
ENDSEC
  0
SECTION
  2
BLOCKS
  0
BLOCK
  8
0
  2
$MODEL_SPACE
 70
     0
 10
0.0
 20
0.0
 30
0.0
  3
$MODEL_SPACE
  1

  0
ENDBLK
  5
21
  8
0
  0
BLOCK
 67
     1
  8
0
  2
$PAPER_SPACE
 70
     0
 10
0.0
 20
0.0
 30
0.0
  3
$PAPER_SPACE
  1

  0
ENDBLK
  5
1D
 67
     1
  8
0
  0
BLOCK
  8
0
  2
_FILLED
 70
     0
 10
0.0
 20
0.0
 30
0.0
  3
_FILLED
  1

  0
SOLID
  5
27E58
  8
0
  6
BYBLOCK
 62
     0
 10
0.0
 20
0.0
 30
0.0
 11
-1.0
 21
0.1666666667
 31
0.0
 12
-1.0
 22
-0.1666666667
 32
0.0
 13
-1.0
 23
-0.1666666667
 33
0.0
  0
ENDBLK
  5
27E59
  8
0
  6
BYBLOCK
 62
     0
  0
ENDSEC
  0
SECTION
  2
ENTITIES
  0
ATTDEF
  5
344BF
  8
DEFPOINTS
 10
2792.0723504130191941
 20
143.8444060998577072
 30
0.0
 40
0.001
  1
K-26301W
  3

  2
MODELNUMBER
 70
     0
1001
ACDBATTR
1070
     0
1070
     1
  0
ATTDEF
  5
344C0
  8
DEFPOINTS
 10
2792.0723504130191941
 20
143.8427394331910989
 30
0.0
 40
0.001
  1

  3

  2
TRADENAME
 70
     0
1001
ACDBATTR
1070
     0
1070
     1
  0
ATTDEF
  5
344C1
  8
DEFPOINTS
 10
2792.0723504130191941
 20
143.8410727665244053
 30
0.0
 40
0.001
  1
SHOWERHEAD
  3

  2
PRODUCT
 70
     0
1001
ACDBATTR
1070
     0
1070
     1
  0
LINE
  5
34C71
  8
0
 10
2787.6427005054861183
 20
139.4026762789953011
 30
0.0
 11
2787.6427005054861183
 21
139.0814172457820064
 31
0.0
  0
ARC
  5
34C72
  8
0
 10
2791.650811636789058
 20
139.3377223093148132
 30
0.0
 40
4.0162976889750981
 50
183.6588882274712944
 51
186.4437549148038897
  0
ARC
  5
34C73
  8
0
 10
2787.9244851780399586
 20
138.9342025426788894
 30
0.0
 40
0.2687787762202713
 50
190.1185490646892902
 51
233.3100556473708878
  0
ARC
  5
34C74
  8
0
 10
2787.9500139235751703
 20
138.9684645299398937
 30
0.0
 40
0.3115058240900317
 50
233.3100556473708878
 51
262.7587661391625034
  0
ARC
  5
34C75
  8
0
 10
2788.0495161379831188
 20
139.4636439912935941
 30
0.0
 40
0.8160852261114435
 50
260.209889644772602
 51
270.9873488013445808
  0
ARC
  5
34C76
  8
0
 10
2792.0761027449311769
 20
390.0894689676579787
 30
0.0
 40
251.4738030537546933
 50
269.0857478945360981
 51
270.914141062584406
  0
ARC
  5
34C77
  8
0
 10
2796.0905082107410635
 20
139.577558669611193
 30
0.0
 40
0.9298895284770921
 50
269.8540537583652963
 51
275.9393542693683798
  0
ARC
  5
34C78
  8
0
 10
2796.1756348991420964
 20
138.9905183938562914
 30
0.0
 40
0.3380396898226117
 50
271.8807601354654935
 51
318.0240640546986128
  0
ARC
  5
34C79
  8
0
 10
2796.0983874290459426
 20
138.9929978899475884
 30
0.0
 40
0.4002387305888942
 50
325.1747183514665949
 51
358.6653684041381212
  0
ARC
  5
34C7A
  8
0
 10
2799.5467413018668594
 20
138.9834058907734118
 30
0.0
 40
3.048223733467788
 50
177.7012775223346921
 51
179.9949288107613086
  0
LINE
  5
34C7B
  8
0
 10
2796.5009705054849292
 20
139.1056686618049127
 30
0.0
 11
2796.5009705054849292
 21
139.4026762789953011
 31
0.0
  0
LINE
  5
34C7C
  8
0
 10
2796.5009705054849292
 20
139.4026762789953011
 30
0.0
 11
2787.6427005054861183
 21
139.4026762789953011
 31
0.0
  0
LINE
  5
34C7D
  8
0
 10
2792.5468345651861455
 20
143.8398180112953071
 30
0.0
 11
2791.596836445784902
 21
143.8398180112953071
 31
0.0
  0
ARC
  5
34C7E
  8
0
 10
2791.5968486122501417
 20
143.8197876975530107
 30
0.0
 40
0.02003031743726
 50
90.0348016008660466
 51
179.9132889350024129
  0
LINE
  5
34C7F
  8
0
 10
2791.5768183177501669
 20
143.8198180112952969
 30
0.0
 11
2791.5768183177501669
 21
143.7139570857885076
 31
0.0
  0
ARC
  5
34C80
  8
0
 10
2791.8067635831798725
 20
143.0886304073727899
 30
0.0
 40
0.229962453417976
 50
214.3192337115904991
 51
247.4752077902332132
  0
ARC
  5
34C81
  8
0
 10
2791.6918573779607868
 20
142.8115614473323092
 30
0.0
 40
0.06998861695154
 50
309.4370906747706158
 51
67.4752077902332132
  0
ARC
  5
34C82
  8
0
 10
2792.0708949170098094
 20
142.3507221552733029
 30
0.0
 40
0.5267041927201485
 50
129.4370906747705874
 51
142.8476521894222913
  0
LINE
  5
34C83
  8
0
 10
2791.3603186935852136
 20
142.6688180112952864
 30
0.0
 11
2792.7833523174849688
 21
142.6688180112952864
 31
0.0
  0
ARC
  5
34C84
  8
0
 10
2792.7772866775358125
 20
142.624083420704892
 30
0.0
 40
0.0451439429301675
 50
19.4017808474599001
 51
82.2782587779549459
  0
ARC
  5
34C85
  8
0
 10
2792.5468233409360437
 20
143.8197886406215105
 30
0.0
 40
0.0200293738187175
 50
0.0840174168640621
 51
89.967892049089869
  0
ARC
  5
34C86
  8
0
 10
2792.3368355052898551
 20
143.0886412181750984
 30
0.0
 40
0.2300000001945577
 50
292.5403105099708227
 51
325.698847280266591
  0
ARC
  5
34C87
  8
0
 10
2792.4518355056188739
 20
142.8115581979685942
 30
0.0
 40
0.0700000000758993
 50
112.5403105099707943
 51
230.5465201103502011
  0
ARC
  5
34C88
  8
0
 10
2792.0718355003141369
 20
142.3498180063251937
 30
0.0
 40
0.5280000071235696
 50
37.1688997467116025
 51
50.5465201103502082
  0
LINE
  5
34C89
  8
0
 10
2792.5668526932199711
 20
143.7139601470721004
 30
0.0
 11
2792.5668526932199711
 21
143.8198180112952969
 31
0.0
  0
ARC
  5
34C8A
  8
0
 10
2791.366384333653059
 20
142.6240834204153884
 30
0.0
 40
0.0451439432330252
 50
97.7217413225127558
 51
160.5982188984025072
  0
ARC
  5
34C8B
  8
0
 10
2791.360407431754993
 20
141.4855990770452081
 30
0.0
 40
0.0373669678019585
 50
191.6025522998029089
 51
265.1613626586224086
  0
LINE
  5
34C8C
  8
0
 10
2791.3572555351947813
 20
141.4483652774704012
 30
0.0
 11
2791.8425693854242127
 21
141.4483652774704012
 31
0.0
  0
LINE
  5
34C8D
  8
0
 10
2792.2994708603728213
 20
141.4483652774704012
 30
0.0
 11
2792.7875203451771995
 21
141.4483652774704012
 31
0.0
  0
ARC
  5
34C8E
  8
0
 10
2795.3590175220338097
 20
137.5748538878563068
 30
0.0
 40
1.0694072632529681
 50
87.5569425054645762
 51
93.882751911709093
  0
ARC
  5
34C8F
  8
0
 10
2795.3303765187160934
 20
139.8542997308946099
 30
0.0
 40
1.213283093234151
 50
267.932385625410916
 51
273.507423699475396
  0
ARC
  5
34C90
  8
0
 10
2795.0279701260060392
 20
137.5748538878563068
 30
0.0
 40
1.0694072632529681
 50
87.5569425054645762
 51
93.882751911709093
  0
ARC
  5
34C91
  8
0
 10
2794.9993291226878682
 20
139.8542997308946099
 30
0.0
 40
1.213283093234151
 50
267.932385625410916
 51
273.507423699475396
  0
ARC
  5
34C92
  8
0
 10
2794.5969935058110423
 20
137.5748538878563068
 30
0.0
 40
1.0694072632529681
 50
87.5569425054645762
 51
93.882751911709093
  0
ARC
  5
34C93
  8
0
 10
2794.5683525024928713
 20
139.8542997308946099
 30
0.0
 40
1.213283093234151
 50
267.932385625410916
 51
273.507423699475396
  0
ARC
  5
34C94
  8
0
 10
2794.4067314384110432
 20
137.567727208678491
 30
0.0
 40
1.0694072632529681
 50
87.5569425054645762
 51
93.882751911709093
  0
ARC
  5
34C95
  8
0
 10
2794.3780904350928722
 20
139.8471730517167089
 30
0.0
 40
1.213283093234151
 50
267.932385625410916
 51
273.507423699475396
  0
ARC
  5
34C96
  8
0
 10
2794.057255621395143
 20
137.575650498989603
 30
0.0
 40
1.0694072632529681
 50
87.5569425054645762
 51
93.882751911709093
  0
ARC
  5
34C97
  8
0
 10
2794.028614618076972
 20
139.8550963420279061
 30
0.0
 40
1.213283093234151
 50
267.932385625410916
 51
273.507423699475396
  0
ARC
  5
34C98
  8
0
 10
2793.7595907143031582
 20
137.5677497935677138
 30
0.0
 40
1.0694072632529681
 50
87.5569425054645762
 51
93.882751911709093
  0
ARC
  5
34C99
  8
0
 10
2793.7309497109849872
 20
139.8471956366059885
 30
0.0
 40
1.213283093234151
 50
267.932385625410916
 51
273.507423699475396
  0
ARC
  5
34C9A
  8
0
 10
2793.615980630751892
 20
137.5541256577257911
 30
0.0
 40
1.0694072632529681
 50
87.5569425054645762
 51
93.882751911709093
  0
ARC
  5
34C9B
  8
0
 10
2793.5873396274341758
 20
139.833571500764009
 30
0.0
 40
1.213283093234151
 50
267.932385625410916
 51
273.507423699475396
  0
ARC
  5
34C9C
  8
0
 10
2793.4413216979351091
 20
137.5755482954492095
 30
0.0
 40
1.0694072632529681
 50
87.5569425054645762
 51
93.882751911709093
  0
ARC
  5
34C9D
  8
0
 10
2793.4126806946169381
 20
139.8549941384873989
 30
0.0
 40
1.213283093234151
 50
267.932385625410916
 51
273.507423699475396
  0
ARC
  5
34C9E
  8
0
 10
2793.1379173560781055
 20
137.5540791973141097
 30
0.0
 40
1.0694072632529681
 50
87.5569425054645762
 51
93.882751911709093
  0
ARC
  5
34C9F
  8
0
 10
2793.1092763527599345
 20
139.8335250403524128
 30
0.0
 40
1.213283093234151
 50
267.932385625410916
 51
273.507423699475396
  0
ARC
  5
34CA0
  8
0
 10
2792.9656897465320071
 20
137.5664846243865895
 30
0.0
 40
1.0694072632529681
 50
87.5569425054645762
 51
93.882751911709093
  0
ARC
  5
34CA1
  8
0
 10
2792.9370487432138361
 20
139.8459304674248926
 30
0.0
 40
1.213283093234151
 50
267.932385625410916
 51
273.507423699475396
  0
ARC
  5
34CA2
  8
0
 10
2792.9143736601949968
 20
137.5600373519417872
 30
0.0
 40
1.0694072632529681
 50
87.5569425054645762
 51
93.882751911709093
  0
ARC
  5
34CA3
  8
0
 10
2792.8857326568768258
 20
139.8394831949800903
 30
0.0
 40
1.213283093234151
 50
267.932385625410916
 51
273.507423699475396
  0
ARC
  5
34CA4
  8
0
 10
2792.7771056709048025
 20
137.5770767522174935
 30
0.0
 40
1.0694072632529681
 50
87.5569425054645762
 51
93.882751911709093
  0
ARC
  5
34CA5
  8
0
 10
2792.7484646675870863
 20
139.8565225952557967
 30
0.0
 40
1.213283093234151
 50
267.932385625410916
 51
273.507423699475396
  0
ARC
  5
34CA6
  8
0
 10
2792.0891005850021429
 20
137.5541560589257983
 30
0.0
 40
1.0694072632529681
 50
87.5569425054645762
 51
93.882751911709093
  0
ARC
  5
34CA7
  8
0
 10
2792.0604595816839719
 20
139.8336019019639878
 30
0.0
 40
1.213283093234151
 50
267.932385625410916
 51
273.507423699475396
  0
ARC
  5
34CA8
  8
0
 10
2792.086535217151777
 20
137.5664544118257879
 30
0.0
 40
1.0694072632529681
 50
87.5569425054645762
 51
93.882751911709093
  0
ARC
  5
34CA9
  8
0
 10
2792.0578942138340608
 20
139.8459002548640058
 30
0.0
 40
1.213283093234151
 50
267.932385625410916
 51
273.507423699475396
  0
ARC
  5
34CAA
  8
0
 10
2791.3933592386179043
 20
137.5770767824492964
 30
0.0
 40
1.0694072632529681
 50
87.5569425054645762
 51
93.882751911709093
  0
ARC
  5
34CAB
  8
0
 10
2791.3647182353001881
 20
139.8565226254874858
 30
0.0
 40
1.213283093234151
 50
267.932385625410916
 51
273.507423699475396
  0
ARC
  5
34CAC
  8
0
 10
2791.2663598669450948
 20
137.5599915341101962
 30
0.0
 40
1.0694072632529681
 50
87.5569425054645762
 51
93.882751911709093
  0
ARC
  5
34CAD
  8
0
 10
2791.2377188636269238
 20
139.8394373771484993
 30
0.0
 40
1.213283093234151
 50
267.932385625410916
 51
273.507423699475396
  0
ARC
  5
34CAE
  8
0
 10
2791.1867797317208897
 20
137.5665828677107925
 30
0.0
 40
1.0694072632529681
 50
87.5569425054645762
 51
93.882751911709093
  0
ARC
  5
34CAF
  8
0
 10
2791.1581387284018092
 20
139.8460287107490956
 30
0.0
 40
1.213283093234151
 50
267.932385625410916
 51
273.507423699475396
  0
ARC
  5
34CB0
  8
0
 10
2791.0531099039872061
 20
137.5539781760280107
 30
0.0
 40
1.0694072632529681
 50
87.5569425054645762
 51
93.882751911709093
  0
ARC
  5
34CB1
  8
0
 10
2791.0244689006681256
 20
139.8334240190663138
 30
0.0
 40
1.213283093234151
 50
267.932385625410916
 51
273.507423699475396
  0
ARC
  5
34CB2
  8
0
 10
2790.7294715686111886
 20
137.5755465632367986
 30
0.0
 40
1.0694072632529681
 50
87.5569425054645762
 51
93.882751911709093
  0
ARC
  5
34CB3
  8
0
 10
2790.7008305652930176
 20
139.8549924062749881
 30
0.0
 40
1.213283093234151
 50
267.932385625410916
 51
273.507423699475396
  0
ARC
  5
34CB4
  8
0
 10
2790.5556063236617774
 20
137.5598988247780881
 30
0.0
 40
1.0694072632529681
 50
87.5569425054645762
 51
93.882751911709093
  0
ARC
  5
34CB5
  8
0
 10
2790.5269653203440612
 20
139.8393446678163059
 30
0.0
 40
1.213283093234151
 50
267.932385625410916
 51
273.507423699475396
  0
ARC
  5
34CB6
  8
0
 10
2790.407545190610108
 20
137.5677748735857051
 30
0.0
 40
1.0694072632529681
 50
87.5569425054645762
 51
93.882751911709093
  0
ARC
  5
34CB7
  8
0
 10
2790.378904187291937
 20
139.8472207166240082
 30
0.0
 40
1.213283093234151
 50
267.932385625410916
 51
273.507423699475396
  0
ARC
  5
34CB8
  8
0
 10
2790.1099204302240651
 20
137.5756787851443903
 30
0.0
 40
1.0694072632529681
 50
87.5569425054645762
 51
93.882751911709093
  0
ARC
  5
34CB9
  8
0
 10
2790.0812794269049846
 20
139.8551246281826934
 30
0.0
 40
1.213283093234151
 50
267.932385625410916
 51
273.507423699475396
  0
ARC
  5
34CBA
  8
0
 10
2789.7834195775371882
 20
137.5675365253063944
 30
0.0
 40
1.0694072632529681
 50
87.5569425054645762
 51
93.882751911709093
  0
ARC
  5
34CBB
  8
0
 10
2789.7547785742190172
 20
139.8469823683446975
 30
0.0
 40
1.213283093234151
 50
267.932385625410916
 51
273.507423699475396
  0
ARC
  5
34CBC
  8
0
 10
2789.5794895180088133
 20
137.5768607474084035
 30
0.0
 40
1.0694072632529681
 50
87.5569425054645762
 51
93.882751911709093
  0
ARC
  5
34CBD
  8
0
 10
2789.5508485146901876
 20
139.8563065904467067
 30
0.0
 40
1.213283093234151
 50
267.932385625410916
 51
273.507423699475396
  0
ARC
  5
34CBE
  8
0
 10
2789.140421377283019
 20
137.5767227980479959
 30
0.0
 40
1.0694072632529681
 50
87.5569425054645762
 51
93.882751911709093
  0
ARC
  5
34CBF
  8
0
 10
2789.111780373964848
 20
139.8561686410862137
 30
0.0
 40
1.213283093234151
 50
267.932385625410916
 51
273.507423699475396
  0
ARC
  5
34CC0
  8
0
 10
2788.7961295200398126
 20
137.5767826086120067
 30
0.0
 40
1.0694072632529681
 50
87.5569425054645762
 51
93.882751911709093
  0
ARC
  5
34CC1
  8
0
 10
2788.7674885167220964
 20
139.8562284516503098
 30
0.0
 40
1.213283093234151
 50
267.932385625410916
 51
273.507423699475396
  0
ARC
  5
34CC2
  8
0
 10
2792.7830233882777975
 20
141.4857227902789134
 30
0.0
 40
0.0376272027207004
 50
276.8640233722358062
 51
348.2864750755970249
  0
LINE
  5
34CC3
  8
0
 10
2791.7186688386959759
 20
142.8762109026953055
 30
0.0
 11
2792.4250021723742066
 21
142.8762109026953055
 31
0.0
  0
ARC
  5
34CC4
  8
0
 10
2902.9779834844980542
 20
141.0598068111605983
 30
0.0
 40
110.6791946704640992
 50
179.5731036324741012
 51
180.817042766030994
  0
ARC
  5
34CC5
  8
0
 10
2792.3903284018820159
 20
139.4827769799784107
 30
0.0
 40
0.0802956088116066
 50
180.8645518382847968
 51
266.0070464032870063
  0
LINE
  5
34CC6
  8
0
 10
2791.8450126152979465
 20
141.9833816414850958
 30
0.0
 11
2791.8335876510159324
 21
139.481504611637007
 31
0.0
  0
ARC
  5
34CC7
  8
0
 10
2791.7542284349888178
 20
139.4818670100274005
 30
0.0
 40
0.0793600434792689
 50
273.7433321849098888
 51
359.7383573707070923
  0
ARC
  5
34CC8
  8
0
 10
2792.5567216454169284
 20
143.7140319140289932
 30
0.0
 40
0.0101313019940315
 50
315.1683265906663109
 51
359.5941313235039729
  0
LINE
  5
34CC9
  8
0
 10
2792.5639065733348616
 20
143.7068890790953049
 30
0.0
 11
2792.5297869227051706
 21
143.6727254028322136
 31
0.0
  0
ARC
  5
34CCA
  8
0
 10
2792.5369287691592035
 20
143.6655927598461915
 30
0.0
 40
0.0100935903791033
 50
135.0369414132399015
 51
179.5389720616076943
  0
LINE
  5
34CCB
  8
0
 10
2792.5268355055350185
 20
143.6656739765952864
 30
0.0
 11
2792.5268355055350185
 21
142.9590264042201966
 31
0.0
  0
ARC
  5
34CCC
  8
0
 10
2791.587000385140982
 20
143.7140534931984064
 30
0.0
 40
0.0101825237888416
 50
180.5424804658414075
 51
224.7153824933990052
  0
LINE
  5
34CCD
  8
0
 10
2791.579764575757963
 20
143.7068892170107972
 30
0.0
 11
2791.6140030666188068
 21
143.6726491151227947
 31
0.0
  0
ARC
  5
34CCE
  8
0
 10
2791.6068355055349457
 20
143.6656758756953138
 30
0.0
 40
0.0099999999999768
 50
359.9999999999186002
 51
44.2126959163292383
  0
LINE
  5
34CCF
  8
0
 10
2791.616835505535164
 20
143.6656758756953138
 30
0.0
 11
2791.6168355055337997
 21
142.9589768100308902
 31
0.0
  0
ARC
  5
34CD0
  8
0
 10
2793.0465395662640731
 20
141.9031277019329877
 30
0.0
 40
1.2042041806563839
 50
168.763144733305495
 51
176.1787022756059002
  0
ARC
  5
34CD1
  8
0
 10
2792.1139519398370794
 20
142.0884085061352096
 30
0.0
 40
0.2533894471941239
 50
132.0765837301971999
 51
168.763144733305495
  0
ARC
  5
34CD2
  8
0
 10
2792.0679670535018886
 20
142.139342819818097
 30
0.0
 40
0.1847679193647684
 50
99.7171732570474347
 51
132.0765837301971999
  0
ARC
  5
34CD3
  8
0
 10
2792.0749832951109966
 20
142.0983700641756116
 30
0.0
 40
0.2263370708024929
 50
90.7973476671788262
 51
99.7171732570474347
  0
ARC
  5
34CD4
  8
0
 10
2792.0742497370451929
 20
142.1510786499628978
 30
0.0
 40
0.1736233807103724
 50
74.6313674085655947
 51
90.7973476671788262
  0
ARC
  5
34CD5
  8
0
 10
2792.0651357673928032
 20
142.1179196969121108
 30
0.0
 40
0.2080120505047103
 50
53.3544008903597629
 51
74.6313674085655947
  0
ARC
  5
34CD6
  8
0
 10
2792.0628951995709031
 20
142.1149077805741001
 30
0.0
 40
0.2117659530334056
 50
22.1369217603387014
 51
53.3544008903597629
  0
ARC
  5
34CD7
  8
0
 10
2791.8545890380241872
 20
142.0301670120128108
 30
0.0
 40
0.4366491555959317
 50
6.7306001303752767
 51
22.1369217603387014
  0
ARC
  5
34CD8
  8
0
 10
2787.6918107076030537
 20
141.5388988978073996
 30
0.0
 40
4.6283156247056541
 50
5.5599971574949478
 51
6.7306001303752767
  0
ARC
  5
34CD9
  8
0
 10
2790.8676455175118463
 20
141.8869032225721867
 30
0.0
 40
1.43422607196463
 50
0.2211911600160593
 51
4.0151172999180069
  0
ARC
  5
34CDA
  8
0
 10
2792.4749304545748601
 20
141.8884409687034065
 30
0.0
 40
0.1731157496234241
 50
178.6763113024371989
 51
181.3236886975612094
  0
LINE
  5
34CDB
  8
0
 10
2792.8198670012861839
 20
142.6390798073603037
 30
0.0
 11
2792.8198670012861839
 21
141.4780837742952997
 31
0.0
  0
LINE
  5
34CDC
  8
0
 10
2791.3238040096848636
 20
142.6390798073603037
 30
0.0
 11
2791.3238040096848636
 21
141.4780837742952997
 31
0.0
  0
ENDSEC
  0
EOF
