  0
SECTION
  2
HEADER
  9
$ACADVER
  1
AC1009
  9
$INSBASE
 10
2808.6991313135640667
 20
143.8399428200663976
 30
0.0
  9
$EXTMIN
 10
2804.1566302010519394
 20
138.6124298638191874
 30
-0.0000000000112498
  9
$EXTMAX
 10
2813.1714133100108484
 20
143.8476017433893901
 30
0.0000000000002956
  9
$LIMMIN
 10
0.0
 20
0.0
  9
$LIMMAX
 10
11.6929133858000007
 20
8.2677165353999982
  9
$ORTHOMODE
 70
     1
  9
$REGENMODE
 70
     1
  9
$FILLMODE
 70
     1
  9
$QTEXTMODE
 70
     0
  9
$MIRRTEXT
 70
     0
  9
$DRAGMODE
 70
     2
  9
$LTSCALE
 40
0.6431102362
  9
$OSMODE
 70
  2039
  9
$ATTMODE
 70
     1
  9
$TEXTSIZE
 40
0.2
  9
$TRACEWID
 40
0.05
  9
$TEXTSTYLE
  7
STANDARD
  9
$CLAYER
  8
0
  9
$CELTYPE
  6
BYLAYER
  9
$CECOLOR
 62
   256
  9
$DIMSCALE
 40
1.0
  9
$DIMASZ
 40
0.1875
  9
$DIMEXO
 40
0.0625
  9
$DIMDLI
 40
0.4443307087
  9
$DIMRND
 40
0.0
  9
$DIMDLE
 40
0.0
  9
$DIMEXE
 40
0.125
  9
$DIMTP
 40
0.01
  9
$DIMTM
 40
0.01
  9
$DIMTXT
 40
2.0
  9
$DIMCEN
 40
0.1052362205
  9
$DIMTSZ
 40
0.0
  9
$DIMTOL
 70
     1
  9
$DIMLIM
 70
     0
  9
$DIMTIH
 70
     1
  9
$DIMTOH
 70
     1
  9
$DIMSE1
 70
     0
  9
$DIMSE2
 70
     0
  9
$DIMTAD
 70
     0
  9
$DIMZIN
 70
     0
  9
$DIMBLK
  1

  9
$DIMASO
 70
     1
  9
$DIMSHO
 70
     1
  9
$DIMPOST
  1
\X
  9
$DIMAPOST
  1

  9
$DIMALT
 70
     1
  9
$DIMALTD
 70
     2
  9
$DIMALTF
 40
25.3999999999999986
  9
$DIMLFAC
 40
1.0
  9
$DIMTOFL
 70
     0
  9
$DIMTVP
 40
0.0
  9
$DIMTIX
 70
     0
  9
$DIMSOXD
 70
     0
  9
$DIMSAH
 70
     0
  9
$DIMBLK1
  1

  9
$DIMBLK2
  1

  9
$DIMSTYLE
  2
STANDARD
  9
$DIMCLRD
 70
     0
  9
$DIMCLRE
 70
     0
  9
$DIMCLRT
 70
     0
  9
$DIMTFAC
 40
1.0
  9
$DIMGAP
 40
0.09
  9
$LUNITS
 70
     2
  9
$LUPREC
 70
     4
  9
$SKETCHINC
 40
0.1
  9
$FILLETRAD
 40
0.0
  9
$AUNITS
 70
     0
  9
$AUPREC
 70
     0
  9
$MENU
  1
.
  9
$ELEVATION
 40
0.0
  9
$PELEVATION
 40
0.0
  9
$THICKNESS
 40
0.0
  9
$LIMCHECK
 70
     0
  9
$BLIPMODE
 70
     0
  9
$CHAMFERA
 40
0.0
  9
$CHAMFERB
 40
0.0
  9
$SKPOLY
 70
     0
  9
$TDCREATE
 40
2458060.468368056230247
  9
$TDUPDATE
 40
2459319.4009722229093313
  9
$TDINDWG
 40
0.6878658565
  9
$TDUSRTIMER
 40
0.6878658565
  9
$USRTIMER
 70
     1
  9
$ANGBASE
 50
0.0
  9
$ANGDIR
 70
     0
  9
$PDMODE
 70
     0
  9
$PDSIZE
 40
0.3125
  9
$PLINEWID
 40
0.0
  9
$COORDS
 70
     1
  9
$SPLFRAME
 70
     0
  9
$SPLINETYPE
 70
     6
  9
$SPLINESEGS
 70
     8
  9
$ATTDIA
 70
     1
  9
$ATTREQ
 70
     1
  9
$HANDLING
 70
     1
  9
$HANDSEED
  5
34E27
  9
$SURFTAB1
 70
     6
  9
$SURFTAB2
 70
     6
  9
$SURFTYPE
 70
     6
  9
$SURFU
 70
     6
  9
$SURFV
 70
     6
  9
$UCSNAME
  2

  9
$UCSORG
 10
0.0
 20
0.0
 30
0.0
  9
$UCSXDIR
 10
1.0
 20
0.0
 30
0.0
  9
$UCSYDIR
 10
0.0
 20
1.0
 30
0.0
  9
$PUCSNAME
  2

  9
$PUCSORG
 10
0.0
 20
0.0
 30
0.0
  9
$PUCSXDIR
 10
1.0
 20
0.0
 30
0.0
  9
$PUCSYDIR
 10
0.0
 20
1.0
 30
0.0
  9
$USERI1
 70
     0
  9
$USERI2
 70
     0
  9
$USERI3
 70
     0
  9
$USERI4
 70
     0
  9
$USERI5
 70
     0
  9
$USERR1
 40
0.0
  9
$USERR2
 40
0.0
  9
$USERR3
 40
0.0
  9
$USERR4
 40
0.0
  9
$USERR5
 40
0.0
  9
$WORLDVIEW
 70
     1
  9
$SHADEDGE
 70
     3
  9
$SHADEDIF
 70
    70
  9
$TILEMODE
 70
     1
  9
$MAXACTVP
 70
    64
  9
$PLIMCHECK
 70
     0
  9
$PEXTMIN
 10
1.0000000000000000E+20
 20
1.0000000000000000E+20
 30
1.0000000000000000E+20
  9
$PEXTMAX
 10
-1.0000000000000000E+20
 20
-1.0000000000000000E+20
 30
-1.0000000000000000E+20
  9
$PLIMMIN
 10
0.0
 20
0.0
  9
$PLIMMAX
 10
12.0
 20
9.0
  9
$UNITMODE
 70
     0
  9
$VISRETAIN
 70
     1
  9
$PLINEGEN
 70
     0
  9
$PSLTSCALE
 70
     1
  0
ENDSEC
  0
SECTION
  2
TABLES
  0
TABLE
  2
VPORT
 70
     1
  0
VPORT
  2
*ACTIVE
 70
     0
 10
0.0
 20
0.0
 11
1.0
 21
1.0
 12
-495.0290934788434924
 22
-54.0314957722834492
 13
0.0
 23
0.0
 14
1.0
 24
1.0
 15
0.0
 25
0.0
 16
0.0
 26
0.0
 36
96.5995694866707311
 17
3303.693115234375
 27
195.2615115758877096
 37
0.0
 40
5.2787378036720289
 41
2.6486111111111108
 42
50.0
 43
0.0
 44
0.0
 50
0.0
 51
0.0
 71
     0
 72
   100
 73
     1
 74
     1
 75
     0
 76
     0
 77
     0
 78
     0
  0
ENDTAB
  0
TABLE
  2
LTYPE
 70
     2
  0
LTYPE
  2
CONTINUOUS
 70
     0
  3
Solid line
 72
    65
 73
     0
 40
0.0
  0
LTYPE
  2
PHANTOM2
 70
     0
  3
___ _ _ ___ _ _ ___ _ _ ___ _ _
 72
    65
 73
     6
 40
1.25
 49
0.625
 49
-0.125
 49
0.125
 49
-0.125
 49
0.125
 49
-0.125
  0
ENDTAB
  0
TABLE
  2
LAYER
 70
     2
  0
LAYER
  2
0
 70
     0
 62
   255
  6
CONTINUOUS
  0
LAYER
  2
DEFPOINTS
 70
     0
 62
     7
  6
CONTINUOUS
  0
ENDTAB
  0
TABLE
  2
STYLE
 70
     1
  0
STYLE
  2
STANDARD
 70
     0
 40
0.0
 41
0.8
 50
0.0
 71
     0
 42
0.2
  3
txt
  4

  0
ENDTAB
  0
TABLE
  2
VIEW
 70
     0
  0
ENDTAB
  0
TABLE
  2
UCS
 70
     0
  0
ENDTAB
  0
TABLE
  2
APPID
 70
    10
  0
APPID
  2
ACAD
 70
     0
  0
APPID
  2
ACAD_MLEADERVER
 70
     0
  0
APPID
  2
ACAD_EXEMPT_FROM_CAD_STANDARDS
 70
     0
  0
APPID
  2
ACAD_NAV_VCDISPLAY
 70
     0
  0
APPID
  2
ACAECLAYERSTANDARD
 70
     0
  0
APPID
  2
ACCMTRANSPARENCY
 70
     0
  0
APPID
  2
ACAD_DSTYLE_DIMJAG
 70
     0
  0
APPID
  2
ACAD_DSTYLE_DIMTALN
 70
     0
  0
APPID
  2
ACDBATTR
 70
     0
  0
APPID
  2
ACAD_DSTYLE_DIMRADIAL_EXTENSION
 70
     0
  0
ENDTAB
  0
TABLE
  2
DIMSTYLE
 70
     1
  0
DIMSTYLE
  2
STANDARD
 70
     0
  3

  4

  5

  6

  7

 40
1.0
 41
0.1875
 42
0.0625
 43
0.38
 44
0.125
 45
0.0
 46
0.0
 47
0.01
 48
0.01
140
0.15625
141
0.09
142
0.0
143
25.3999999999999986
144
1.0
145
0.0
146
1.0
147
0.09
 71
     1
 72
     0
 73
     1
 74
     1
 75
     0
 76
     0
 77
     0
 78
     4
170
     0
171
     2
172
     0
173
     0
174
     0
175
     0
176
     0
177
     0
178
     0
  0
ENDTAB
  0
ENDSEC
  0
SECTION
  2
BLOCKS
  0
BLOCK
  8
0
  2
$MODEL_SPACE
 70
     0
 10
0.0
 20
0.0
 30
0.0
  3
$MODEL_SPACE
  1

  0
ENDBLK
  5
21
  8
0
  0
BLOCK
 67
     1
  8
0
  2
$PAPER_SPACE
 70
     0
 10
0.0
 20
0.0
 30
0.0
  3
$PAPER_SPACE
  1

  0
ENDBLK
  5
1D
 67
     1
  8
0
  0
BLOCK
  8
0
  2
_FILLED
 70
     0
 10
0.0
 20
0.0
 30
0.0
  3
_FILLED
  1

  0
SOLID
  5
27E58
  8
0
  6
BYBLOCK
 62
     0
 10
0.0
 20
0.0
 30
0.0
 11
-1.0
 21
0.1666666667
 31
0.0
 12
-1.0
 22
-0.1666666667
 32
0.0
 13
-1.0
 23
-0.1666666667
 33
0.0
  0
ENDBLK
  5
27E59
  8
0
  6
BYBLOCK
 62
     0
  0
ENDSEC
  0
SECTION
  2
ENTITIES
  0
ATTDEF
  5
338D9
  8
DEFPOINTS
 10
2808.6995900389688359
 20
143.8444060998577072
 30
0.0
 40
0.001
  1
K-26301W
  3

  2
MODELNUMBER
 70
     0
1001
ACDBATTR
1070
     0
1070
     1
  0
ATTDEF
  5
338DA
  8
DEFPOINTS
 10
2808.6995900389688359
 20
143.8427394331910989
 30
0.0
 40
0.001
  1

  3

  2
TRADENAME
 70
     0
1001
ACDBATTR
1070
     0
1070
     1
  0
ATTDEF
  5
338DB
  8
DEFPOINTS
 10
2808.6995900389688359
 20
143.8410727665244053
 30
0.0
 40
0.001
  1
SHOWERHEAD
  3

  2
PRODUCT
 70
     0
1001
ACDBATTR
1070
     0
1070
     1
  0
LINE
  5
34B1E
  8
0
 10
2813.1282663135639268
 20
139.4028010877663917
 30
0.0
 11
2813.12828715659316
 21
139.0815420545530969
 31
0.0
  0
ARC
  5
34B1F
  8
0
 10
2812.0219721335402028
 20
139.0814702777198022
 30
0.0
 40
1.106315025380914
 50
349.8814509353089761
 51
0.0037173043169755
  0
ARC
  5
34B20
  8
0
 10
2812.8464816410091771
 20
138.9343273514500083
 30
0.0
 40
0.2687787762202713
 50
306.689944352629027
 51
349.8814509353089761
  0
ARC
  5
34B21
  8
0
 10
2812.8209528954739653
 20
138.9685893387110127
 30
0.0
 40
0.3115058240900317
 50
277.2412338608374966
 51
306.689944352629027
  0
ARC
  5
34B22
  8
0
 10
2812.7214506810660168
 20
139.4637688000647984
 30
0.0
 40
0.8160852261114435
 50
269.0126511986554192
 51
279.7901103552272843
  0
ARC
  5
34B23
  8
0
 10
2808.6948640741179588
 20
390.089593776429183
 30
0.0
 40
251.4738030537546933
 50
269.085858937415594
 51
270.9142521054637882
  0
ARC
  5
34B24
  8
0
 10
2804.6804586083080721
 20
139.5776834783823119
 30
0.0
 40
0.9298895284770921
 50
264.0606457306315065
 51
270.14594624163459
  0
ARC
  5
34B25
  8
0
 10
2804.5953319199070393
 20
138.9906432026274103
 30
0.0
 40
0.3380396898226117
 50
221.9759359453001935
 51
268.1192398645343928
  0
ARC
  5
34B26
  8
0
 10
2804.6725793900031931
 20
138.9931226987187074
 30
0.0
 40
0.4002387305888942
 50
181.3346315958617936
 51
214.8252816485332914
  0
ARC
  5
34B27
  8
0
 10
2800.6906420486070601
 20
138.9728018824467028
 30
0.0
 40
3.5818240767147498
 50
0.1759369067468983
 51
2.1278567628247731
  0
LINE
  5
34B28
  8
0
 10
2804.2699963135642065
 20
139.1057934704348042
 30
0.0
 11
2804.2699963135642065
 21
139.4028010877663917
 31
0.0
  0
LINE
  5
34B29
  8
0
 10
2804.2699963135642065
 20
139.4028010877663917
 30
0.0
 11
2813.1282663135639268
 21
139.4028010877663917
 31
0.0
  0
LINE
  5
34B2A
  8
0
 10
2808.2241322538638997
 20
143.8399428200663976
 30
0.0
 11
2809.1741303732637789
 21
143.8399428200663976
 31
0.0
  0
ARC
  5
34B2B
  8
0
 10
2809.1741303732637789
 20
143.8199418797443059
 30
0.0
 40
0.020000940322106
 50
0.002693697748266
 51
90.0
  0
LINE
  5
34B2C
  8
0
 10
2809.1941313135639575
 20
143.8199428200663874
 30
0.0
 11
2809.1941656890330705
 21
143.088766027574394
 31
0.0
  0
ARC
  5
34B2D
  8
0
 10
2808.9642032358678989
 20
143.0887552161439089
 30
0.0
 40
0.229962453417976
 50
292.5247922097668152
 51
0.002693697748266
  0
ARC
  5
34B2E
  8
0
 10
2809.0791094410878941
 20
142.8116862561033997
 30
0.0
 40
0.06998861695154
 50
112.524792209766801
 51
230.5629093252294126
  0
ARC
  5
34B2F
  8
0
 10
2808.7000719020388715
 20
142.3508469640443934
 30
0.0
 40
0.5267041927201485
 50
37.1523478105776306
 51
50.5629093252294268
  0
LINE
  5
34B30
  8
0
 10
2809.410648125463922
 20
142.6689428200664054
 30
0.0
 11
2807.9876145015641669
 21
142.6689428200664054
 31
0.0
  0
ARC
  5
34B31
  8
0
 10
2807.9936801415119589
 20
142.624208229476011
 30
0.0
 40
0.0451439429301901
 50
97.7217412220715573
 51
160.5982191525216933
  0
ARC
  5
34B32
  8
0
 10
2807.0504519329620052
 20
142.5346075249861997
 30
0.0
 40
0.9067012539277671
 50
353.3756080798004859
 51
6.6243919202010986
  0
ARC
  5
34B33
  8
0
 10
2807.7735516117741099
 20
142.4442335807063102
 30
0.0
 40
0.1781169934539706
 50
317.8960201494437001
 51
355.4198932675697051
  0
LINE
  5
34B34
  8
0
 10
2807.9057018227640583
 20
142.3248100273663965
 30
0.0
 11
2804.4761812005640422
 21
139.4215057210664099
 31
0.0
  0
ARC
  5
34B35
  8
0
 10
2804.4239692960759385
 20
139.4841209592590019
 30
0.0
 40
0.0815276089688155
 50
274.0910516596397883
 51
309.823138707480723
  0
ARC
  5
34B36
  8
0
 10
2808.2241313136019016
 20
143.8199428200508123
 30
0.0
 40
0.0200000000377445
 50
89.9973063470371955
 51
179.9999999551966141
  0
ARC
  5
34B37
  8
0
 10
2808.4341313137588259
 20
143.088766026946189
 30
0.0
 40
0.2300000001945577
 50
180.000000044801709
 51
247.4596894900292057
  0
ARC
  5
34B38
  8
0
 10
2808.3191313134298071
 20
142.8116830067397132
 30
0.0
 40
0.0700000000758993
 50
309.4534798896486905
 51
67.459689490029163
  0
ARC
  5
34B39
  8
0
 10
2808.6991313187349988
 20
142.3499428150963126
 30
0.0
 40
0.5280000071235696
 50
129.4534798896497989
 51
142.8311002532871044
  0
LINE
  5
34B3A
  8
0
 10
2808.2041313135641758
 20
143.088765481980289
 30
0.0
 11
2808.2041313135641758
 21
143.8199428200663874
 31
0.0
  0
ARC
  5
34B3B
  8
0
 10
2808.6986809957270452
 20
143.2565274970656048
 30
0.0
 40
0.3000025772720716
 50
258.684113843283626
 51
269.9139965067471962
  0
ARC
  5
34B3C
  8
0
 10
2808.6881779889658901
 20
143.2040408244508001
 30
0.0
 40
0.2464753509923702
 50
242.1429287096723897
 51
258.684113843283626
  0
ARC
  5
34B3D
  8
0
 10
2808.6440993691358017
 20
143.1206397532330072
 30
0.0
 40
0.1521426238699461
 50
216.8370813143743874
 51
242.1429287097016072
  0
ARC
  5
34B3E
  8
0
 10
2808.6030476187311251
 20
143.0898876629622976
 30
0.0
 40
0.1008499609702096
 50
187.7481908909701076
 51
216.8370813143743874
  0
ARC
  5
34B3F
  8
0
 10
2808.5961509732828745
 20
143.0887976320721009
 30
0.0
 40
0.0938694435400455
 50
180.0192911622139036
 51
187.6564659146434906
  0
LINE
  5
34B40
  8
0
 10
2808.5022815350639576
 20
143.0887660267663932
 30
0.0
 11
2808.5022815355641796
 21
143.6658006835664025
 31
0.0
  0
ARC
  5
34B41
  8
0
 10
2808.5137226170500071
 20
143.6651083446215011
 30
0.0
 40
0.0114620102416411
 50
130.1376736580928934
 51
176.53705938281459
  0
ARC
  5
34B42
  8
0
 10
2808.5291558224071196
 20
143.6468052636598998
 30
0.0
 40
0.035403326000632
 50
110.6095252338556065
 51
130.1376736580928934
  0
ARC
  5
34B43
  8
0
 10
2808.6987412073958694
 20
143.211162640068892
 30
0.0
 40
0.5028877163011022
 50
99.7295472708856749
 51
111.2233066655595053
  0
ARC
  5
34B44
  8
0
 10
2808.699107697349973
 20
143.2091079210283908
 30
0.0
 40
0.5049748173305916
 50
92.5369696581940389
 51
99.7311329990853324
  0
ARC
  5
34B45
  8
0
 10
2808.7097884578088269
 20
142.7306476039445897
 30
0.0
 40
0.983495093777851
 50
90.6471046296145033
 51
91.9247739546746061
  0
LINE
  5
34B46
  8
0
 10
2808.5022815355641796
 20
143.6658004841085017
 30
0.0
 11
2808.8950804558899108
 21
143.6658004841085017
 31
0.0
  0
ARC
  5
34B47
  8
0
 10
2808.6986809957270452
 20
143.2565274970654059
 30
0.0
 40
0.3000025772718078
 50
269.9139965067471962
 51
281.315886156716374
  0
ARC
  5
34B48
  8
0
 10
2808.7091840024882003
 20
143.2040408244508001
 30
0.0
 40
0.2464753509923702
 50
281.315886156716374
 51
297.8570712903274966
  0
ARC
  5
34B49
  8
0
 10
2808.7532626223169245
 20
143.1206397532330072
 30
0.0
 40
0.1521426238699461
 50
297.8570712902985065
 51
323.1629186856242768
  0
ARC
  5
34B4A
  8
0
 10
2808.7943143727229653
 20
143.0898876629622976
 30
0.0
 40
0.1008499609702096
 50
323.1629186856242768
 51
352.2518091090299208
  0
ARC
  5
34B4B
  8
0
 10
2808.8012110181698517
 20
143.0887976320721009
 30
0.0
 40
0.0938694435400455
 50
352.3435340853565094
 51
359.9807088377859827
  0
LINE
  5
34B4C
  8
0
 10
2808.8950804563901329
 20
143.0887660267663932
 30
0.0
 11
2808.8950804558899108
 21
143.6658006835664025
 31
0.0
  0
ARC
  5
34B4D
  8
0
 10
2808.8836393744040834
 20
143.6651083446215011
 30
0.0
 40
0.0114620102416411
 50
3.4629406171853838
 51
49.8623263419070994
  0
ARC
  5
34B4E
  8
0
 10
2808.8682061690469709
 20
143.6468052636598998
 30
0.0
 40
0.035403326000632
 50
49.8623263419070994
 51
69.3904747661444219
  0
ARC
  5
34B4F
  8
0
 10
2808.698620784058221
 20
143.211162640068892
 30
0.0
 40
0.5028877163011022
 50
68.7766933344405231
 51
80.2704527291143251
  0
ARC
  5
34B50
  8
0
 10
2808.6982542941041174
 20
143.2091079210283908
 30
0.0
 40
0.5049748173305916
 50
80.2688670009146819
 51
87.4630303418059754
  0
ARC
  5
34B51
  8
0
 10
2808.6875735336438993
 20
142.7306476039451013
 30
0.0
 40
0.9834950937773463
 50
88.0752260453254081
 51
89.3528953703854967
  0
ARC
  5
34B52
  8
0
 10
2809.410648125463922
 20
142.6389428200664042
 30
0.0
 40
0.0299999999999656
 50
0.5000000000614819
 51
90.0000000000781455
  0
ARC
  5
34B53
  8
0
 10
2809.413548481943053
 20
141.4784695657806139
 30
0.0
 40
0.0299991866195026
 50
269.9989255223746909
 51
359.5445589530012853
  0
LINE
  5
34B54
  8
0
 10
2809.4135479193641913
 20
141.4484703791663947
 30
0.0
 11
2807.9607394779250171
 21
141.4484976239334912
 31
0.0
  0
ARC
  5
34B55
  8
0
 10
2807.9607400296340529
 20
141.4779171414703001
 30
0.0
 40
0.0294195175420211
 50
251.9116635533320903
 51
269.9989255223746909
  0
ARC
  5
34B56
  8
0
 10
2807.9454180585298673
 20
141.4154924160393989
 30
0.0
 40
0.0350102969611747
 50
79.8200799594454367
 51
118.9925933461113061
  0
ARC
  5
34B57
  8
0
 10
2807.9824939851150702
 20
141.3331109310095997
 30
0.0
 40
0.1252632539573672
 50
115.5598522760160023
 51
124.2894812800619064
  0
LINE
  5
34B58
  8
0
 10
2807.9119238771909295
 20
141.4366036489155078
 30
0.0
 11
2805.5062825586978761
 21
139.4028010877663917
 31
0.0
  0
ARC
  5
34B59
  8
0
 10
2807.5346343685910142
 20
142.2322221085275089
 30
0.0
 40
0.4610463013461754
 50
8.7466965129054088
 51
25.4040403477860899
  0
ARC
  5
34B5A
  8
0
 10
2805.6342600348671112
 20
141.9734203967153974
 30
0.0
 40
2.378906415355901
 50
358.0522100551548874
 51
7.9472639279290433
  0
ARC
  5
34B5B
  8
0
 10
2805.2339625648810397
 20
141.8647244280676034
 30
0.0
 40
2.7779688897320391
 50
353.1892399173780746
 51
0.5742070804640653
  0
ARC
  5
34B5C
  8
0
 10
2807.624280441351857
 20
141.567946230876089
 30
0.0
 40
0.3694940614445656
 50
341.134368525248874
 51
354.9285744350116829
  0
ARC
  5
34B5D
  8
0
 10
2805.4119492970148713
 20
137.574978696627511
 30
0.0
 40
1.0694072632529681
 50
86.1172480882908928
 51
92.4430574945354522
  0
ARC
  5
34B5E
  8
0
 10
2805.4405903003330423
 20
139.8544245396657004
 30
0.0
 40
1.213283093234151
 50
266.492576300524604
 51
272.067614374589084
  0
ARC
  5
34B5F
  8
0
 10
2805.7429966930430965
 20
137.574978696627511
 30
0.0
 40
1.0694072632529681
 50
86.1172480882908928
 51
92.4430574945354522
  0
ARC
  5
34B60
  8
0
 10
2805.7716376963608127
 20
139.8544245396657004
 30
0.0
 40
1.213283093234151
 50
266.492576300524604
 51
272.067614374589084
  0
ARC
  5
34B61
  8
0
 10
2806.1739733132380934
 20
137.574978696627511
 30
0.0
 40
1.0694072632529681
 50
86.1172480882908928
 51
92.4430574945354522
  0
ARC
  5
34B62
  8
0
 10
2806.2026143165558096
 20
139.8544245396657004
 30
0.0
 40
1.213283093234151
 50
266.492576300524604
 51
272.067614374589084
  0
ARC
  5
34B63
  8
0
 10
2806.3642353806380925
 20
137.56785201744961
 30
0.0
 40
1.0694072632529681
 50
86.1172480882908928
 51
92.4430574945354522
  0
ARC
  5
34B64
  8
0
 10
2806.3928763839558087
 20
139.8472978604879131
 30
0.0
 40
1.213283093234151
 50
266.492576300524604
 51
272.067614374589084
  0
ARC
  5
34B65
  8
0
 10
2806.7137111976539927
 20
137.5757753077606935
 30
0.0
 40
1.0694072632529681
 50
86.1172480882908928
 51
92.4430574945354522
  0
ARC
  5
34B66
  8
0
 10
2806.7423522009721637
 20
139.8552211507991103
 30
0.0
 40
1.213283093234151
 50
266.492576300524604
 51
272.067614374589084
  0
ARC
  5
34B67
  8
0
 10
2807.0113761047459775
 20
137.5678746023388044
 30
0.0
 40
1.0694072632529681
 50
86.1172480882908928
 51
92.4430574945354522
  0
ARC
  5
34B68
  8
0
 10
2807.0400171080641485
 20
139.8473204453771075
 30
0.0
 40
1.213283093234151
 50
266.492576300524604
 51
272.067614374589084
  0
ARC
  5
34B69
  8
0
 10
2807.1549861882967889
 20
137.5542504664969101
 30
0.0
 40
1.0694072632529681
 50
86.1172480882908928
 51
92.4430574945354522
  0
ARC
  5
34B6A
  8
0
 10
2807.1836271916149599
 20
139.8336963095352132
 30
0.0
 40
1.213283093234151
 50
266.492576300524604
 51
272.067614374589084
  0
ARC
  5
34B6B
  8
0
 10
2807.329645121114936
 20
137.5756731042203
 30
0.0
 40
1.0694072632529681
 50
86.1172480882908928
 51
92.4430574945354522
  0
ARC
  5
34B6C
  8
0
 10
2807.3582861244321975
 20
139.8551189472586032
 30
0.0
 40
1.213283093234151
 50
266.492576300524604
 51
272.067614374589084
  0
ARC
  5
34B6D
  8
0
 10
2807.6330494629710302
 20
137.5542040060852003
 30
0.0
 40
1.0694072632529681
 50
86.1172480882908928
 51
92.4430574945354522
  0
ARC
  5
34B6E
  8
0
 10
2807.6616904662878369
 20
139.8336498491235034
 30
0.0
 40
1.213283093234151
 50
266.492576300524604
 51
272.067614374589084
  0
ARC
  5
34B6F
  8
0
 10
2807.8052770725171285
 20
137.5666094331577085
 30
0.0
 40
1.0694072632529681
 50
86.1172480882908928
 51
92.4430574945354522
  0
ARC
  5
34B70
  8
0
 10
2807.8339180758348448
 20
139.8460552761960116
 30
0.0
 40
1.213283093234151
 50
266.492576300524604
 51
272.067614374589084
  0
ARC
  5
34B71
  8
0
 10
2807.8565931588541389
 20
137.5601621607129914
 30
0.0
 40
1.0694072632529681
 50
86.1172480882908928
 51
92.4430574945354522
  0
ARC
  5
34B72
  8
0
 10
2807.8852341621718551
 20
139.8396080037512093
 30
0.0
 40
1.213283093234151
 50
266.492576300524604
 51
272.067614374589084
  0
ARC
  5
34B73
  8
0
 10
2807.9938611481438784
 20
137.5772015609886978
 30
0.0
 40
1.0694072632529681
 50
86.1172480882908928
 51
92.4430574945354522
  0
ARC
  5
34B74
  8
0
 10
2808.0225021514620494
 20
139.8566474040268872
 30
0.0
 40
1.213283093234151
 50
266.492576300524604
 51
272.067614374589084
  0
ARC
  5
34B75
  8
0
 10
2808.6818662340469928
 20
137.5542808676968889
 30
0.0
 40
1.0694072632529681
 50
86.1172480882908928
 51
92.4430574945354522
  0
ARC
  5
34B76
  8
0
 10
2808.7105072373637995
 20
139.833726710735192
 30
0.0
 40
1.213283093234151
 50
266.492576300524604
 51
272.067614374589084
  0
ARC
  5
34B77
  8
0
 10
2808.6844316018969039
 20
137.5665792205969069
 30
0.0
 40
1.0694072632529681
 50
86.1172480882908928
 51
92.4430574945354522
  0
ARC
  5
34B78
  8
0
 10
2808.7130726052150749
 20
139.84602506363521
 30
0.0
 40
1.213283093234151
 50
266.492576300524604
 51
272.067614374589084
  0
ARC
  5
34B79
  8
0
 10
2809.3776075804307766
 20
137.5772015912203869
 30
0.0
 40
1.0694072632529681
 50
86.1172480882908928
 51
92.4430574945354522
  0
ARC
  5
34B7A
  8
0
 10
2809.4062485837489476
 20
139.8566474342586901
 30
0.0
 40
1.213283093234151
 50
266.492576300524604
 51
272.067614374589084
  0
ARC
  5
34B7B
  8
0
 10
2809.5046069521040408
 20
137.5601163428812868
 30
0.0
 40
1.0694072632529681
 50
86.1172480882908928
 51
92.4430574945354522
  0
ARC
  5
34B7C
  8
0
 10
2809.5332479554231213
 20
139.8395621859195899
 30
0.0
 40
1.213283093234151
 50
266.492576300524604
 51
272.067614374589084
  0
ARC
  5
34B7D
  8
0
 10
2809.5841870873277912
 20
137.5667076764819114
 30
0.0
 40
1.0694072632529681
 50
86.1172480882908928
 51
92.4430574945354522
  0
ARC
  5
34B7E
  8
0
 10
2809.6128280906468717
 20
139.8461535195201861
 30
0.0
 40
1.213283093234151
 50
266.492576300524604
 51
272.067614374589084
  0
ARC
  5
34B7F
  8
0
 10
2809.7178569150619296
 20
137.5541029847991013
 30
0.0
 40
1.0694072632529681
 50
86.1172480882908928
 51
92.4430574945354522
  0
ARC
  5
34B80
  8
0
 10
2809.7464979183810101
 20
139.8335488278374044
 30
0.0
 40
1.213283093234151
 50
266.492576300524604
 51
272.067614374589084
  0
ARC
  5
34B81
  8
0
 10
2810.0414952504379471
 20
137.5756713720078892
 30
0.0
 40
1.0694072632529681
 50
86.1172480882908928
 51
92.4430574945354522
  0
ARC
  5
34B82
  8
0
 10
2810.0701362537561181
 20
139.855117215046107
 30
0.0
 40
1.213283093234151
 50
266.492576300524604
 51
272.067614374589084
  0
ARC
  5
34B83
  8
0
 10
2810.2153604953869035
 20
137.560023633549207
 30
0.0
 40
1.0694072632529681
 50
86.1172480882908928
 51
92.4430574945354522
  0
ARC
  5
34B84
  8
0
 10
2810.244001498705984
 20
139.8394694765873965
 30
0.0
 40
1.213283093234151
 50
266.492576300524604
 51
272.067614374589084
  0
ARC
  5
34B85
  8
0
 10
2810.3634216284390277
 20
137.5678996823567957
 30
0.0
 40
1.0694072632529681
 50
86.1172480882908928
 51
92.4430574945354522
  0
ARC
  5
34B86
  8
0
 10
2810.3920626317571987
 20
139.8473455253950988
 30
0.0
 40
1.213283093234151
 50
266.492576300524604
 51
272.067614374589084
  0
ARC
  5
34B87
  8
0
 10
2810.6610463888250706
 20
137.5758035939155093
 30
0.0
 40
1.0694072632529681
 50
86.1172480882908928
 51
92.4430574945354522
  0
ARC
  5
34B88
  8
0
 10
2810.6896873921427868
 20
139.8552494369538124
 30
0.0
 40
1.213283093234151
 50
266.492576300524604
 51
272.067614374589084
  0
ARC
  5
34B89
  8
0
 10
2810.9875472415119475
 20
137.5676613340775134
 30
0.0
 40
1.0694072632529681
 50
86.1172480882908928
 51
92.4430574945354522
  0
ARC
  5
34B8A
  8
0
 10
2811.0161882448301185
 20
139.8471071771157881
 30
0.0
 40
1.213283093234151
 50
266.492576300524604
 51
272.067614374589084
  0
ARC
  5
34B8B
  8
0
 10
2811.1914773010398676
 20
137.5769855561794941
 30
0.0
 40
1.0694072632529681
 50
86.1172480882908928
 51
92.4430574945354522
  0
ARC
  5
34B8C
  8
0
 10
2811.2201183043589481
 20
139.8564313992177972
 30
0.0
 40
1.213283093234151
 50
266.492576300524604
 51
272.067614374589084
  0
ARC
  5
34B8D
  8
0
 10
2811.6305454417652072
 20
137.5768476068190864
 30
0.0
 40
1.0694072632529681
 50
86.1172480882908928
 51
92.4430574945354522
  0
ARC
  5
34B8E
  8
0
 10
2811.659186445083833
 20
139.8562934498573043
 30
0.0
 40
1.213283093234151
 50
266.492576300524604
 51
272.067614374589084
  0
ARC
  5
34B8F
  8
0
 10
2811.9748372990088683
 20
137.5769074173830973
 30
0.0
 40
1.0694072632529681
 50
86.1172480882908928
 51
92.4430574945354522
  0
ARC
  5
34B90
  8
0
 10
2812.0034783023270393
 20
139.8563532604214004
 30
0.0
 40
1.213283093234151
 50
266.492576300524604
 51
272.067614374589084
  0
LINE
  5
34B91
  8
0
 10
2809.052297980403182
 20
142.8763357114663961
 30
0.0
 11
2808.3459646468450046
 21
142.8763357114663961
 31
0.0
  0
ARC
  5
34B92
  8
0
 10
-103332.1728091258992208
 20
1068.0316925402130437
 30
0.0
 40
106145.6604103558056522
 50
359.4998544629556818
 51
359.5000781345503924
  0
ARC
  5
34B93
  8
0
 10
2884.5508746573691496
 20
142.9213332880408984
 30
0.0
 40
75.1107575375172871
 50
180.2152131162193882
 51
180.7847868266601949
  0
ENDSEC
  0
EOF
