  0
SECTION
  2
HEADER
  9
$ACADVER
  1
AC1009
  9
$INSBASE
 10
3558.1835883552389532
 20
138.6569328622651085
 30
0.0
  9
$EXTMIN
 10
3546.5531909916430777
 20
137.5789352774283998
 30
-0.0000000349181948
  9
$EXTMAX
 10
3569.9760821566601408
 20
139.7431652183784081
 30
0.0000000814935746
  9
$LIMMIN
 10
0.0
 20
0.0
  9
$LIMMAX
 10
11.6929133858000007
 20
8.2677165353999982
  9
$ORTHOMODE
 70
     1
  9
$REGENMODE
 70
     1
  9
$FILLMODE
 70
     1
  9
$QTEXTMODE
 70
     0
  9
$MIRRTEXT
 70
     0
  9
$DRAGMODE
 70
     2
  9
$LTSCALE
 40
0.6431102362
  9
$OSMODE
 70
  4095
  9
$ATTMODE
 70
     1
  9
$TEXTSIZE
 40
0.2
  9
$TRACEWID
 40
0.05
  9
$TEXTSTYLE
  7
STANDARD
  9
$CLAYER
  8
0
  9
$CELTYPE
  6
BYLAYER
  9
$CECOLOR
 62
   256
  9
$DIMSCALE
 40
1.0
  9
$DIMASZ
 40
0.1875
  9
$DIMEXO
 40
0.0625
  9
$DIMDLI
 40
0.4443307087
  9
$DIMRND
 40
0.0
  9
$DIMDLE
 40
0.0
  9
$DIMEXE
 40
0.125
  9
$DIMTP
 40
0.01
  9
$DIMTM
 40
0.01
  9
$DIMTXT
 40
2.0
  9
$DIMCEN
 40
0.1052362205
  9
$DIMTSZ
 40
0.0
  9
$DIMTOL
 70
     1
  9
$DIMLIM
 70
     0
  9
$DIMTIH
 70
     1
  9
$DIMTOH
 70
     1
  9
$DIMSE1
 70
     0
  9
$DIMSE2
 70
     0
  9
$DIMTAD
 70
     0
  9
$DIMZIN
 70
     0
  9
$DIMBLK
  1

  9
$DIMASO
 70
     1
  9
$DIMSHO
 70
     1
  9
$DIMPOST
  1
\X
  9
$DIMAPOST
  1

  9
$DIMALT
 70
     1
  9
$DIMALTD
 70
     2
  9
$DIMALTF
 40
25.3999999999999986
  9
$DIMLFAC
 40
1.0
  9
$DIMTOFL
 70
     0
  9
$DIMTVP
 40
0.0
  9
$DIMTIX
 70
     0
  9
$DIMSOXD
 70
     0
  9
$DIMSAH
 70
     0
  9
$DIMBLK1
  1

  9
$DIMBLK2
  1

  9
$DIMSTYLE
  2
STANDARD
  9
$DIMCLRD
 70
     0
  9
$DIMCLRE
 70
     0
  9
$DIMCLRT
 70
     0
  9
$DIMTFAC
 40
1.0
  9
$DIMGAP
 40
0.09
  9
$LUNITS
 70
     2
  9
$LUPREC
 70
     4
  9
$SKETCHINC
 40
0.1
  9
$FILLETRAD
 40
0.0
  9
$AUNITS
 70
     0
  9
$AUPREC
 70
     0
  9
$MENU
  1
.
  9
$ELEVATION
 40
0.0
  9
$PELEVATION
 40
0.0
  9
$THICKNESS
 40
0.0
  9
$LIMCHECK
 70
     0
  9
$BLIPMODE
 70
     0
  9
$CHAMFERA
 40
0.0
  9
$CHAMFERB
 40
0.0
  9
$SKPOLY
 70
     0
  9
$TDCREATE
 40
2458060.468368056230247
  9
$TDUPDATE
 40
2459426.5687268520705402
  9
$TDINDWG
 40
0.360597338
  9
$TDUSRTIMER
 40
0.360597338
  9
$USRTIMER
 70
     1
  9
$ANGBASE
 50
0.0
  9
$ANGDIR
 70
     0
  9
$PDMODE
 70
     0
  9
$PDSIZE
 40
0.3125
  9
$PLINEWID
 40
0.0
  9
$COORDS
 70
     1
  9
$SPLFRAME
 70
     0
  9
$SPLINETYPE
 70
     6
  9
$SPLINESEGS
 70
     8
  9
$ATTDIA
 70
     1
  9
$ATTREQ
 70
     1
  9
$HANDLING
 70
     1
  9
$HANDSEED
  5
17876
  9
$SURFTAB1
 70
     6
  9
$SURFTAB2
 70
     6
  9
$SURFTYPE
 70
     6
  9
$SURFU
 70
     6
  9
$SURFV
 70
     6
  9
$UCSNAME
  2

  9
$UCSORG
 10
0.0
 20
0.0
 30
0.0
  9
$UCSXDIR
 10
1.0
 20
0.0
 30
0.0
  9
$UCSYDIR
 10
0.0
 20
1.0
 30
0.0
  9
$PUCSNAME
  2

  9
$PUCSORG
 10
0.0
 20
0.0
 30
0.0
  9
$PUCSXDIR
 10
1.0
 20
0.0
 30
0.0
  9
$PUCSYDIR
 10
0.0
 20
1.0
 30
0.0
  9
$USERI1
 70
     0
  9
$USERI2
 70
     0
  9
$USERI3
 70
     0
  9
$USERI4
 70
     0
  9
$USERI5
 70
     0
  9
$USERR1
 40
0.0
  9
$USERR2
 40
0.0
  9
$USERR3
 40
0.0
  9
$USERR4
 40
0.0
  9
$USERR5
 40
0.0
  9
$WORLDVIEW
 70
     1
  9
$SHADEDGE
 70
     3
  9
$SHADEDIF
 70
    70
  9
$TILEMODE
 70
     1
  9
$MAXACTVP
 70
    64
  9
$PLIMCHECK
 70
     0
  9
$PEXTMIN
 10
1.0000000000000000E+20
 20
1.0000000000000000E+20
 30
1.0000000000000000E+20
  9
$PEXTMAX
 10
-1.0000000000000000E+20
 20
-1.0000000000000000E+20
 30
-1.0000000000000000E+20
  9
$PLIMMIN
 10
0.0
 20
0.0
  9
$PLIMMAX
 10
12.0
 20
9.0
  9
$UNITMODE
 70
     0
  9
$VISRETAIN
 70
     1
  9
$PLINEGEN
 70
     0
  9
$PSLTSCALE
 70
     1
  0
ENDSEC
  0
SECTION
  2
TABLES
  0
TABLE
  2
VPORT
 70
     1
  0
VPORT
  2
*ACTIVE
 70
     0
 10
0.0
 20
0.0
 11
1.0
 21
1.0
 12
-245.2794308086612887
 22
12.6657880511535108
 13
0.0
 23
0.0
 14
1.0
 24
1.0
 15
0.0
 25
0.0
 16
0.0
 26
0.0
 36
17.1152628219792007
 17
3803.5440673828129547
 27
125.9952621967499056
 37
0.0
 40
9.3640966324554729
 41
2.5092105263157891
 42
50.0
 43
0.0
 44
0.0
 50
0.0
 51
0.0
 71
     0
 72
   100
 73
     1
 74
     1
 75
     0
 76
     0
 77
     0
 78
     0
  0
ENDTAB
  0
TABLE
  2
LTYPE
 70
     2
  0
LTYPE
  2
CONTINUOUS
 70
     0
  3
Solid line
 72
    65
 73
     0
 40
0.0
  0
LTYPE
  2
PHANTOM2
 70
     0
  3
___ _ _ ___ _ _ ___ _ _ ___ _ _
 72
    65
 73
     6
 40
1.25
 49
0.625
 49
-0.125
 49
0.125
 49
-0.125
 49
0.125
 49
-0.125
  0
ENDTAB
  0
TABLE
  2
LAYER
 70
     2
  0
LAYER
  2
0
 70
     0
 62
   255
  6
CONTINUOUS
  0
LAYER
  2
DEFPOINTS
 70
     0
 62
     7
  6
CONTINUOUS
  0
ENDTAB
  0
TABLE
  2
STYLE
 70
     1
  0
STYLE
  2
STANDARD
 70
     0
 40
0.0
 41
0.8
 50
0.0
 71
     0
 42
0.2
  3
txt
  4

  0
ENDTAB
  0
TABLE
  2
VIEW
 70
     0
  0
ENDTAB
  0
TABLE
  2
UCS
 70
     0
  0
ENDTAB
  0
TABLE
  2
APPID
 70
     9
  0
APPID
  2
ACAD
 70
     0
  0
APPID
  2
ACAD_MLEADERVER
 70
     0
  0
APPID
  2
ACAD_EXEMPT_FROM_CAD_STANDARDS
 70
     0
  0
APPID
  2
ACAD_NAV_VCDISPLAY
 70
     0
  0
APPID
  2
ACAECLAYERSTANDARD
 70
     0
  0
APPID
  2
ACCMTRANSPARENCY
 70
     0
  0
APPID
  2
ACAD_DSTYLE_DIMJAG
 70
     0
  0
APPID
  2
ACAD_DSTYLE_DIMTALN
 70
     0
  0
APPID
  2
ACDBATTR
 70
     0
  0
ENDTAB
  0
TABLE
  2
DIMSTYLE
 70
     1
  0
DIMSTYLE
  2
STANDARD
 70
     0
  3

  4

  5

  6

  7

 40
1.0
 41
0.1875
 42
0.0625
 43
0.38
 44
0.125
 45
0.0
 46
0.0
 47
0.01
 48
0.01
140
0.15625
141
0.09
142
0.0
143
25.3999999999999986
144
1.0
145
0.0
146
1.0
147
0.09
 71
     1
 72
     0
 73
     1
 74
     1
 75
     0
 76
     0
 77
     0
 78
     4
170
     0
171
     2
172
     0
173
     0
174
     0
175
     0
176
     0
177
     0
178
     0
  0
ENDTAB
  0
ENDSEC
  0
SECTION
  2
BLOCKS
  0
BLOCK
  8
0
  2
$MODEL_SPACE
 70
     0
 10
0.0
 20
0.0
 30
0.0
  3
$MODEL_SPACE
  1

  0
ENDBLK
  5
21
  8
0
  0
BLOCK
 67
     1
  8
0
  2
$PAPER_SPACE
 70
     0
 10
0.0
 20
0.0
 30
0.0
  3
$PAPER_SPACE
  1

  0
ENDBLK
  5
1D
 67
     1
  8
0
  0
BLOCK
  8
0
  2
_FILLED
 70
     0
 10
0.0
 20
0.0
 30
0.0
  3
_FILLED
  1

  0
SOLID
  5
124E8
  8
0
  6
BYBLOCK
 62
     0
 10
0.0
 20
0.0
 30
0.0
 11
-1.0
 21
0.1666666667
 31
0.0
 12
-1.0
 22
-0.1666666667
 32
0.0
 13
-1.0
 23
-0.1666666667
 33
0.0
  0
ENDBLK
  5
124E9
  8
0
  6
BYBLOCK
 62
     0
  0
ENDSEC
  0
SECTION
  2
ENTITIES
  0
ATTDEF
  5
16FAB
  8
DEFPOINTS
 10
3558.1840164776840538
 20
138.6612506939675882
 30
0.0
 40
0.001
  1
K-26305W
  3

  2
MODELNUMBER
 70
     0
1001
ACDBATTR
1070
     0
1070
     1
  0
ATTDEF
  5
16FAC
  8
DEFPOINTS
 10
3558.1840164776840538
 20
138.6595840273010083
 30
0.0
 40
0.001
  1

  3

  2
TRADENAME
 70
     0
1001
ACDBATTR
1070
     0
1070
     1
  0
ATTDEF
  5
16FAD
  8
DEFPOINTS
 10
3558.1840164776840538
 20
138.6579173606342863
 30
0.0
 40
0.001
  1
SHOWER ARM
  3

  2
PRODUCT
 70
     0
1001
ACDBATTR
1070
     0
1070
     1
  0
ARC
  5
173B3
  8
0
 10
3557.5930883552391606
 20
138.6569328622678938
 30
0.0
 40
1.0439999999999801
 50
142.4892467821273101
 51
180.0
  0
ARC
  5
173B4
  8
0
 10
3557.5930883552391606
 20
138.6569328622678086
 30
0.0
 40
1.0440000000001961
 50
95.7199710773953569
 51
142.4892467821273101
  0
ARC
  5
173B5
  8
0
 10
3558.1835883552389532
 20
133.5159749490516106
 30
0.0
 40
6.21866807201725
 50
83.5873573127254446
 51
96.4126426872745554
  0
ARC
  5
173B6
  8
0
 10
3558.7740883552392006
 20
138.6569328622678938
 30
0.0
 40
1.0439999999999801
 50
0.0
 51
37.510753217872697
  0
ARC
  5
173B7
  8
0
 10
3558.7740883552392006
 20
138.6569328622678086
 30
0.0
 40
1.0440000000001961
 50
37.510753217872697
 51
84.2800289226046289
  0
LINE
  5
173B8
  8
0
 10
3556.6722993888379278
 20
139.1489328626678912
 30
0.0
 11
3556.2035574860378802
 21
139.1489328625679036
 31
0.0
  0
ARC
  5
173B9
  8
0
 10
3556.2035574860428824
 20
139.1270739710205078
 30
0.0
 40
0.0218588915474065
 50
90.0000000122198429
 51
140.7125207138371934
  0
ARC
  5
173BA
  8
0
 10
3556.2259920514288751
 20
139.1121445528461038
 30
0.0
 40
0.0487483719714847
 50
143.8296189946576931
 51
170.3171043597903918
  0
ARC
  5
173BB
  8
0
 10
3556.8134604483270778
 20
139.0028274359808051
 30
0.0
 40
0.6462961161666281
 50
169.5235997639960033
 51
176.4422670765366092
  0
ARC
  5
173BC
  8
0
 10
3564.7945923110619333
 20
138.6022879030196009
 30
0.0
 40
8.6374296619444042
 50
177.0757434050790096
 51
179.6375141048459909
  0
LINE
  5
173BD
  8
0
 10
3547.0690859973869919
 20
139.1489328622679125
 30
0.0
 11
3556.105789199587889
 21
139.1489328622679125
 31
0.0
  0
ARC
  5
173BE
  8
0
 10
3556.1048850568640773
 20
139.1270495217640928
 30
0.0
 40
0.0219020105394768
 50
66.2747829552441772
 51
87.6340853824539039
  0
ARC
  5
173BF
  8
0
 10
3556.1044552514349562
 20
139.1260715673518007
 30
0.0
 40
0.0229702462529441
 50
33.1677251193148734
 51
66.2747829552448451
  0
LINE
  5
173C0
  8
0
 10
3556.1446486081390503
 20
139.1392156613678992
 30
0.0
 11
3556.1249939496387924
 21
139.1392163267678939
 31
0.0
  0
ARC
  5
173C1
  8
0
 10
3556.1249938954651952
 20
139.137616128483387
 30
0.0
 40
0.0016001982854274
 50
89.9980602760145416
 51
121.1679137215635933
  0
ARC
  5
173C2
  8
0
 10
3556.1261094939600298
 20
139.1357717261743119
 30
0.0
 40
0.0037557445925213
 50
121.1679137215660944
 51
130.2460337604076983
  0
ARC
  5
173C3
  8
0
 10
3556.1270441460010261
 20
139.1346675156019046
 30
0.0
 40
0.0052024150542657
 50
130.2460337603814935
 51
157.5557998711821028
  0
ARC
  5
173C4
  8
0
 10
3556.1893167541429648
 20
139.1089443802183894
 30
0.0
 40
0.0725786528443303
 50
157.5557998711821028
 51
167.1493308964921027
  0
ARC
  5
173C5
  8
0
 10
3556.7119323773940778
 20
139.0163219016982055
 30
0.0
 40
0.603262236559802
 50
169.6130965796818089
 51
176.0509702231121878
  0
ARC
  5
173C6
  8
0
 10
3561.1054922140660892
 20
138.7178615703392097
 30
0.0
 40
5.0069474885780147
 50
176.1062232856372987
 51
179.7618465864013046
  0
ARC
  5
173C7
  8
0
 10
3564.6422349149470392
 20
138.6571698773510946
 30
0.0
 40
8.5440356843118082
 50
179.4534354653725927
 51
180.0015894086180879
  0
ARC
  5
173C8
  8
0
 10
3547.1039506670149422
 20
138.6552035364647111
 30
0.0
 40
0.4949587784314558
 50
94.0392334351110151
 51
179.7998151041452957
  0
LINE
  5
173C9
  8
0
 10
3556.168409888638962
 20
139.0429328622678895
 30
0.0
 11
3556.1404132745387869
 21
139.0429328622678895
 31
0.0
  0
ARC
  5
173CA
  8
0
 10
3556.1291507872429065
 20
139.0385402366721053
 30
0.0
 40
0.0202404726264973
 50
12.5341741529750692
 51
32.441328323410751
  0
ARC
  5
173CB
  8
0
 10
3556.1441566050698384
 20
139.0480784083684114
 30
0.0
 40
0.0024598289952711
 50
32.4413283234384693
 51
66.415527645011295
  0
ARC
  5
173CC
  8
0
 10
3556.1446390471510313
 20
139.0490757860985127
 30
0.0
 40
0.0013534218413712
 50
68.2401257959760983
 51
129.3834176039044905
  0
ARC
  5
173CD
  8
0
 10
3556.1476782831527998
 20
139.045670486144104
 30
0.0
 40
0.0059168528837839
 50
131.2080157548375041
 51
146.5833855047607983
  0
ARC
  5
173CE
  8
0
 10
3556.1648557004091344
 20
139.0368521425961035
 30
0.0
 40
0.0251987123906183
 50
151.3625172489558963
 51
165.9808866231485922
  0
ARC
  5
173CF
  8
0
 10
3556.4421029399181862
 20
138.9757009075455869
 30
0.0
 40
0.3091009911013308
 50
167.4328153520247895
 51
175.3209385506555975
  0
ARC
  5
173D0
  8
0
 10
3558.4891247353898507
 20
138.794904229500105
 30
0.0
 40
2.3640858704373868
 50
175.0007855532105907
 51
178.3712070674170889
  0
ARC
  5
173D1
  8
0
 10
3553.5406699631871561
 20
138.7998986469928866
 30
0.0
 40
2.5860722713387738
 50
356.8309028623920085
 51
1.3782570853038201
  0
ARC
  5
173D2
  8
0
 10
3561.6292123150410589
 20
138.6859135123629017
 30
0.0
 40
5.5116282852665206
 50
175.9343541940303908
 51
180.3012678837280021
  0
ARC
  5
173D3
  8
0
 10
3556.4944141964551818
 20
139.0508859383361937
 30
0.0
 40
0.3638757086217164
 50
168.6632670311566073
 51
175.9343541940303908
  0
ARC
  5
173D4
  8
0
 10
3556.2260603059148707
 20
139.1046872740201081
 30
0.0
 40
0.0901817293506839
 50
160.2321070746814939
 51
168.6632670311566073
  0
ARC
  5
173D5
  8
0
 10
3556.1503617713701715
 20
139.1318925153260864
 30
0.0
 40
0.0097429744697644
 50
136.4660714128160919
 51
160.2321070746876046
  0
ARC
  5
173D6
  8
0
 10
3556.144728678411866
 20
139.1372444641648087
 30
0.0
 40
0.0019728333740964
 50
92.3336494928488776
 51
136.4660714128364134
  0
ARC
  5
173D7
  8
0
 10
3557.5930883552391606
 20
138.6569328622678938
 30
0.0
 40
0.9649999999999812
 50
149.3465235100476036
 51
180.0
  0
ARC
  5
173D8
  8
0
 10
3557.5930883552391606
 20
138.6569328622678086
 30
0.0
 40
0.9650000000001593
 50
95.7199710774214765
 51
149.3465235100476036
  0
ARC
  5
173D9
  8
0
 10
3558.1835883552389532
 20
132.7616786251068106
 30
0.0
 40
6.8897542371618226
 50
84.2800289225785662
 51
95.7199710774214765
  0
ARC
  5
173DA
  8
0
 10
3558.7740883552392006
 20
138.6569328622678086
 30
0.0
 40
0.965000000000158
 50
30.6534764899523609
 51
84.2800289225785662
  0
ARC
  5
173DB
  8
0
 10
3558.7740883552392006
 20
138.6569328622678938
 30
0.0
 40
0.9649999999999778
 50
0.0
 51
30.6534764899523609
  0
ARC
  5
173DC
  8
0
 10
3557.5930883552391606
 20
138.6569328622678938
 30
0.0
 40
1.0439999999999801
 50
180.0
 51
217.5107532178726899
  0
ARC
  5
173DD
  8
0
 10
3557.5930883552391606
 20
138.6569328622680075
 30
0.0
 40
1.0440000000001961
 50
217.5107532178726899
 51
264.2800289226046857
  0
ARC
  5
173DE
  8
0
 10
3558.1835883552389532
 20
143.7978907745738866
 30
0.0
 40
6.2186680711126847
 50
263.5873573117816022
 51
276.4126426882182841
  0
ARC
  5
173DF
  8
0
 10
3558.7740883552392006
 20
138.6569328622678938
 30
0.0
 40
1.0439999999999801
 50
322.4892467821272817
 51
0.0
  0
ARC
  5
173E0
  8
0
 10
3558.7740883552392006
 20
138.6569328622680075
 30
0.0
 40
1.0440000000001961
 50
275.7199710773953143
 51
322.4892467821272817
  0
LINE
  5
173E1
  8
0
 10
3556.6722993888379278
 20
138.1649328618678965
 30
0.0
 11
3556.2035574860378802
 21
138.1649328619679125
 31
0.0
  0
ARC
  5
173E2
  8
0
 10
3556.2035574860428824
 20
138.1867917535153083
 30
0.0
 40
0.0218588915474065
 50
219.2874792861628066
 51
269.999999987780086
  0
ARC
  5
173E3
  8
0
 10
3556.2259920514288751
 20
138.2017211716897123
 30
0.0
 40
0.0487483719714847
 50
189.6828956402096082
 51
216.1703810053423069
  0
ARC
  5
173E4
  8
0
 10
3556.8134604483270778
 20
138.3110382885550109
 30
0.0
 40
0.6462961161666281
 50
183.5577329234633908
 51
190.4764002360039967
  0
ARC
  5
173E5
  8
0
 10
3564.7945923110619333
 20
138.7115778215163004
 30
0.0
 40
8.6374296619444042
 50
180.3624858951540091
 51
182.9242565949209904
  0
LINE
  5
173E6
  8
0
 10
3547.0690859973869919
 20
138.1649328622679036
 30
0.0
 11
3556.6722887027631259
 21
138.1649328622679036
 31
0.0
  0
ARC
  5
173E7
  8
0
 10
3556.1048850568640773
 20
138.1868162027716949
 30
0.0
 40
0.0219020105394768
 50
272.3659146175460819
 51
293.7252170447558228
  0
ARC
  5
173E8
  8
0
 10
3556.1044552514349562
 20
138.187794157183987
 30
0.0
 40
0.0229702462529441
 50
293.7252170447551975
 51
326.8322748806851905
  0
LINE
  5
173E9
  8
0
 10
3556.1446486081390503
 20
138.1746500631678884
 30
0.0
 11
3556.1249939496387924
 21
138.1746493977678938
 31
0.0
  0
ARC
  5
173EA
  8
0
 10
3556.1249938954651952
 20
138.1762495960524006
 30
0.0
 40
0.0016001982854274
 50
238.832086278436492
 51
270.0019397239854015
  0
ARC
  5
173EB
  8
0
 10
3556.1261094939600298
 20
138.1780939983613905
 30
0.0
 40
0.0037557445925213
 50
229.7539662395923017
 51
238.8320862784339056
  0
ARC
  5
173EC
  8
0
 10
3556.1270441460010261
 20
138.1791982089339115
 30
0.0
 40
0.0052024150542657
 50
202.4442001288178119
 51
229.7539662396185065
  0
ARC
  5
173ED
  8
0
 10
3556.1893167541429648
 20
138.2049213443173983
 30
0.0
 40
0.0725786528443303
 50
192.8506691035078973
 51
202.4442001288178119
  0
ARC
  5
173EE
  8
0
 10
3556.7119323773940778
 20
138.2975438228376106
 30
0.0
 40
0.603262236559802
 50
183.9490297768876985
 51
190.3869034203181059
  0
ARC
  5
173EF
  8
0
 10
3561.1054922140660892
 20
138.5960041541966064
 30
0.0
 40
5.0069474885780147
 50
180.2381534135986954
 51
183.8937767143627013
  0
ARC
  5
173F0
  8
0
 10
3564.6422349149470392
 20
138.6566958471846931
 30
0.0
 40
8.5440356843118082
 50
179.9984105913817984
 51
180.5465645346272936
  0
ARC
  5
173F1
  8
0
 10
3547.1039506670149422
 20
138.658662188071105
 30
0.0
 40
0.4949587784314592
 50
180.200184895856296
 51
265.9607665648890134
  0
LINE
  5
173F2
  8
0
 10
3556.168409888638962
 20
138.2709328622678981
 30
0.0
 11
3556.1404132745387869
 21
138.2709328622678981
 31
0.0
  0
ARC
  5
173F3
  8
0
 10
3556.1291507872429065
 20
138.2753254878637108
 30
0.0
 40
0.0202404726264973
 50
327.5586716765878919
 51
347.4658258470249166
  0
ARC
  5
173F4
  8
0
 10
3556.1441566050698384
 20
138.2657873161674047
 30
0.0
 40
0.0024598289952711
 50
293.5844723549886908
 51
327.5586716765615165
  0
ARC
  5
173F5
  8
0
 10
3556.1446390471510313
 20
138.2647899384371897
 30
0.0
 40
0.0013534218413712
 50
230.6165823960955095
 51
291.7598742040239017
  0
ARC
  5
173F6
  8
0
 10
3556.1476782831527998
 20
138.2681952383917121
 30
0.0
 40
0.0059168528837839
 50
213.4166144952392017
 51
228.7919842451624959
  0
ARC
  5
173F7
  8
0
 10
3556.1648557004091344
 20
138.2770135819397126
 30
0.0
 40
0.0251987123906183
 50
194.0191133768512941
 51
208.63748275104399
  0
ARC
  5
173F8
  8
0
 10
3556.4421029399181862
 20
138.3381648169902007
 30
0.0
 40
0.3091009911013308
 50
184.6790614493444025
 51
192.5671846479750968
  0
ARC
  5
173F9
  8
0
 10
3558.4891247353898507
 20
138.5189614950357111
 30
0.0
 40
2.3640858704373868
 50
181.6287929325829111
 51
184.9992144467894093
  0
ARC
  5
173FA
  8
0
 10
3553.5406699631871561
 20
138.5139670775429011
 30
0.0
 40
2.5860722713387738
 50
358.621742914696199
 51
3.1690971376079902
  0
ARC
  5
173FB
  8
0
 10
3561.6292123150410589
 20
138.627952212172886
 30
0.0
 40
5.5116282852665206
 50
179.6987321162719979
 51
184.0656458059694955
  0
ARC
  5
173FC
  8
0
 10
3556.4944141964551818
 20
138.2629797861995939
 30
0.0
 40
0.3638757086217164
 50
184.0656458059694955
 51
191.3367329688433074
  0
ARC
  5
173FD
  8
0
 10
3556.2260603059148707
 20
138.2091784505157079
 30
0.0
 40
0.0901817293506839
 50
191.3367329688433074
 51
199.7678929253169997
  0
ARC
  5
173FE
  8
0
 10
3556.1503617713701715
 20
138.1819732092097013
 30
0.0
 40
0.0097429744697644
 50
199.7678929253123101
 51
223.5339285871839081
  0
ARC
  5
173FF
  8
0
 10
3556.144728635660158
 20
138.1766212002864904
 30
0.0
 40
0.0019727609953294
 50
223.5335187137536082
 51
267.6750869626063718
  0
ARC
  5
17400
  8
0
 10
3557.5930883552391606
 20
138.6569328622678938
 30
0.0
 40
0.9649999999999812
 50
180.0
 51
210.6534764899523964
  0
ARC
  5
17401
  8
0
 10
3557.5930883552391606
 20
138.6569328622680075
 30
0.0
 40
0.9650000000001593
 50
210.6534764899523964
 51
264.2800289225784809
  0
ARC
  5
17402
  8
0
 10
3558.1835883552389532
 20
144.5521870994290907
 30
0.0
 40
6.8897542371618226
 50
264.2800289225784809
 51
275.7199710774214054
  0
ARC
  5
17403
  8
0
 10
3558.7740883552392006
 20
138.6569328622680075
 30
0.0
 40
0.965000000000158
 50
275.7199710774214054
 51
329.3465235100475752
  0
ARC
  5
17404
  8
0
 10
3558.7740883552392006
 20
138.6569328622678938
 30
0.0
 40
0.9649999999999778
 50
329.3465235100475752
 51
0.0
  0
ARC
  5
17405
  8
0
 10
3558.7740883552392006
 20
138.6569328622678938
 30
0.0
 40
1.0439999999999801
 50
0.0
 51
37.510753217872697
  0
ARC
  5
17406
  8
0
 10
3558.7740883552392006
 20
138.6569328622678938
 30
0.0
 40
0.9649999999999812
 50
0.0
 51
30.6534764899523609
  0
ARC
  5
17407
  8
0
 10
3558.7740883552392006
 20
138.6569328622678938
 30
0.0
 40
1.0439999999999801
 50
322.4892467821272817
 51
0.0
  0
ARC
  5
17408
  8
0
 10
3558.7740883552392006
 20
138.6569328622678938
 30
0.0
 40
0.9649999999999812
 50
329.3465235100475752
 51
0.0
  0
LINE
  5
17409
  8
0
 10
3559.6932078625450231
 20
139.1489328626678912
 30
0.0
 11
3560.1619497653450708
 21
139.1489328625679036
 31
0.0
  0
LINE
  5
1740A
  8
0
 10
3569.2980903721718278
 20
139.1489328622679125
 30
0.0
 11
3560.2597180517959714
 21
139.1489328622679125
 31
0.0
  0
LINE
  5
1740B
  8
0
 10
3560.1636467932621599
 20
139.1489328622679125
 30
0.0
 11
3559.6932185486211893
 21
139.1489328622679125
 31
0.0
  0
ARC
  5
1740C
  8
0
 10
3569.2632257025438776
 20
138.6552035364647111
 30
0.0
 40
0.4949587784314558
 50
0.2001848958547189
 51
85.9607665648889991
  0
LINE
  5
1740D
  8
0
 10
3559.6932078625450231
 20
138.1649328618678965
 30
0.0
 11
3560.1619497653450708
 21
138.1649328619679125
 31
0.0
  0
LINE
  5
1740E
  8
0
 10
3569.2980903721718278
 20
138.1649328622679036
 30
0.0
 11
3560.2597180517959714
 21
138.1649328622679036
 31
0.0
  0
LINE
  5
1740F
  8
0
 10
3560.1619533868488361
 20
138.1649328622679036
 30
0.0
 11
3559.6932185486211893
 21
138.1649328622679036
 31
0.0
  0
ARC
  5
17410
  8
0
 10
3569.2632257025438776
 20
138.658662188071105
 30
0.0
 40
0.4949587784314592
 50
274.0392334351109866
 51
359.799815104143704
  0
ARC
  5
17411
  8
0
 10
3556.1445521135669878
 20
139.1372224366141097
 30
0.0
 40
0.0019955590999278
 50
45.6733713206725298
 51
87.2284015664216668
  0
ARC
  5
17412
  8
0
 10
3556.1407903937729316
 20
139.1333712415635091
 30
0.0
 40
0.0073790745990265
 50
28.65392157116014
 51
45.6733713206668384
  0
ARC
  5
17413
  8
0
 10
3556.1207545520728672
 20
139.1224228724202021
 30
0.0
 40
0.0302111077876147
 50
9.2519060966766205
 51
28.6539215711615789
  0
ARC
  5
17414
  8
0
 10
3555.7932668206522067
 20
139.0515624891413893
 30
0.0
 40
0.3652404746849443
 50
5.44718309355979
 51
11.9646909804380801
  0
ARC
  5
17415
  8
0
 10
3554.8214240456509287
 20
138.9452632106469991
 30
0.0
 40
1.3428538304962121
 50
4.170971112236864
 51
6.0259317931351761
  0
ARC
  5
17416
  8
0
 10
3556.1445521135669878
 20
138.1766432879215927
 30
0.0
 40
0.0019955590999278
 50
272.7715984335782764
 51
314.3266286793274844
  0
ARC
  5
17417
  8
0
 10
3556.1407903937729316
 20
138.180494482972307
 30
0.0
 40
0.0073790745990265
 50
314.3266286793331119
 51
331.3460784288399168
  0
ARC
  5
17418
  8
0
 10
3556.1207545520728672
 20
138.191442852115614
 30
0.0
 40
0.0302111077876147
 50
331.346078428838382
 51
350.7480939033233085
  0
ARC
  5
17419
  8
0
 10
3555.7932668206522067
 20
138.2623032353943984
 30
0.0
 40
0.3652404746849443
 50
348.0353090195619075
 51
354.5528169064402277
  0
ARC
  5
1741A
  8
0
 10
3554.8214240456509287
 20
138.3686025138887885
 30
0.0
 40
1.3428538304962121
 50
353.9740682068647857
 51
355.8290288877631156
  0
ARC
  5
1741B
  8
0
 10
3560.161949765340978
 20
139.1270739710205078
 30
0.0
 40
0.0218588915474065
 50
39.2874792861627782
 51
89.9999999877801571
  0
ARC
  5
1741C
  8
0
 10
3560.1395151999549853
 20
139.1121445528461038
 30
0.0
 40
0.0487483719714847
 50
9.6828956402096082
 51
36.1703810053423069
  0
ARC
  5
1741D
  8
0
 10
3559.5520468030567827
 20
139.0028274359808051
 30
0.0
 40
0.6462961161666281
 50
3.557732923463389
 51
10.4764002360040092
  0
ARC
  5
1741E
  8
0
 10
3546.403965828606033
 20
138.3962237924486089
 30
0.0
 40
13.8082841127728297
 50
1.0818445568978221
 51
2.6844218731858822
  0
ARC
  5
1741F
  8
0
 10
3560.2606221945197831
 20
139.1270495217640928
 30
0.0
 40
0.0219020105394768
 50
92.3659146175461245
 51
113.7252170447557944
  0
ARC
  5
17420
  8
0
 10
3560.2610519999489043
 20
139.1260715673518007
 30
0.0
 40
0.0229702462529441
 50
113.7252170447550981
 51
146.8322748806851052
  0
LINE
  5
17421
  8
0
 10
3560.2208586432461743
 20
139.1392156613678992
 30
0.0
 11
3560.240513301745068
 21
139.1392163267678939
 31
0.0
  0
ARC
  5
17422
  8
0
 10
3560.2405133559200294
 20
139.137616128483387
 30
0.0
 40
0.0016001982854274
 50
58.8320862784364422
 51
90.0019397239854584
  0
ARC
  5
17423
  8
0
 10
3560.2393977574229211
 20
139.1357717261743119
 30
0.0
 40
0.0037557445925213
 50
49.753966239591243
 51
58.8320862784339127
  0
ARC
  5
17424
  8
0
 10
3560.2384631053828343
 20
139.1346675156019046
 30
0.0
 40
0.0052024150542657
 50
22.4442001288178687
 51
49.7539662396184923
  0
ARC
  5
17425
  8
0
 10
3560.1761904972408956
 20
139.1089443802183894
 30
0.0
 40
0.0725786528443303
 50
12.8506691035079097
 51
22.4442001288178687
  0
ARC
  5
17426
  8
0
 10
3559.6535748739897826
 20
139.0163219016982055
 30
0.0
 40
0.603262236559802
 50
3.9490297768878042
 51
10.3869034203181201
  0
ARC
  5
17427
  8
0
 10
3555.260015037318226
 20
138.7178615703392097
 30
0.0
 40
5.0069474885780147
 50
0.2381534135987017
 51
3.8937767143627191
  0
ARC
  5
17428
  8
0
 10
3551.7232723364368212
 20
138.6571698773510946
 30
0.0
 40
8.5440356843118082
 50
359.9984105913817984
 51
0.5465645346273412
  0
LINE
  5
17429
  8
0
 10
3560.1970973627448984
 20
139.0429328622678895
 30
0.0
 11
3560.2250939768450735
 21
139.0429328622678895
 31
0.0
  0
ARC
  5
1742A
  8
0
 10
3560.2363564641400444
 20
139.0385402366721053
 30
0.0
 40
0.0202404726264973
 50
147.5586716765878919
 51
167.4658258470248882
  0
ARC
  5
1742B
  8
0
 10
3560.221350646314022
 20
139.0480784083684114
 30
0.0
 40
0.0024598289952711
 50
113.584472354988705
 51
147.5586716765614881
  0
ARC
  5
1742C
  8
0
 10
3560.2208682042328292
 20
139.0490757860985127
 30
0.0
 40
0.0013534218413712
 50
50.6165823960954526
 51
111.7598742040239017
  0
ARC
  5
1742D
  8
0
 10
3560.2178289682301511
 20
139.045670486144104
 30
0.0
 40
0.0059168528837839
 50
33.4166144952391519
 51
48.791984245162503
  0
ARC
  5
1742E
  8
0
 10
3560.2006515509751807
 20
139.0368521425961035
 30
0.0
 40
0.0251987123906183
 50
14.0191133768513208
 51
28.6374827510440113
  0
ARC
  5
1742F
  8
0
 10
3559.923404311466129
 20
138.9757009075455869
 30
0.0
 40
0.3091009911013308
 50
4.6790614493444149
 51
12.5671846479751892
  0
ARC
  5
17430
  8
0
 10
3557.8763825159949192
 20
138.794904229500105
 30
0.0
 40
2.3640858704373868
 50
1.6287929325829249
 51
4.999214446789372
  0
ARC
  5
17431
  8
0
 10
3562.8248372881957948
 20
138.7998986469928866
 30
0.0
 40
2.5860722713387738
 50
178.6217429146961138
 51
183.1690971376079915
  0
ARC
  5
17432
  8
0
 10
3553.4929620081297799
 20
138.6213207351285917
 30
0.0
 40
6.7564535618103161
 50
0.3019977883000016
 51
3.8644851021094881
  0
ARC
  5
17433
  8
0
 10
3559.8710930549291334
 20
139.0508859383361937
 30
0.0
 40
0.3638757086217164
 50
4.0656458059695266
 51
11.3367329688433305
  0
ARC
  5
17434
  8
0
 10
3560.1394469454689897
 20
139.1046872740201081
 30
0.0
 40
0.0901817293506839
 50
11.3367329688433305
 51
19.767892925318499
  0
ARC
  5
17435
  8
0
 10
3560.2151454800141437
 20
139.1318925153260864
 30
0.0
 40
0.0097429744697644
 50
19.7678929253123705
 51
43.5339285871838868
  0
ARC
  5
17436
  8
0
 10
3560.2207785729719944
 20
139.1372444641648087
 30
0.0
 40
0.0019728333740964
 50
43.5339285871635724
 51
87.6663505071511224
  0
ARC
  5
17437
  8
0
 10
3560.161949765340978
 20
138.1867917535153083
 30
0.0
 40
0.0218588915474065
 50
270.0000000122198003
 51
320.7125207138371934
  0
ARC
  5
17438
  8
0
 10
3560.1395151999549853
 20
138.2017211716897123
 30
0.0
 40
0.0487483719714847
 50
323.8296189946563004
 51
350.3171043597903918
  0
ARC
  5
17439
  8
0
 10
3559.5520468030567827
 20
138.3110382885550109
 30
0.0
 40
0.6462961161666281
 50
349.5235997639960033
 51
356.4422670765366092
  0
ARC
  5
1743A
  8
0
 10
3546.4039658285992118
 20
138.9176419320874061
 30
0.0
 40
13.8082841127798392
 50
357.3155781268156943
 51
358.9181554431021937
  0
ARC
  5
1743B
  8
0
 10
3560.2606221945197831
 20
138.1868162027716949
 30
0.0
 40
0.0219020105394768
 50
246.2747829552442056
 51
267.6340853824539181
  0
ARC
  5
1743C
  8
0
 10
3560.2610519999489043
 20
138.187794157183987
 30
0.0
 40
0.0229702462529441
 50
213.1677251193148948
 51
246.2747829552448877
  0
LINE
  5
1743D
  8
0
 10
3560.2208586432461743
 20
138.1746500631678884
 30
0.0
 11
3560.240513301745068
 21
138.1746493977678938
 31
0.0
  0
ARC
  5
1743E
  8
0
 10
3560.2405133559200294
 20
138.1762495960524006
 30
0.0
 40
0.0016001982854274
 50
269.9980602760144848
 51
301.1679137215634796
  0
ARC
  5
1743F
  8
0
 10
3560.2393977574229211
 20
138.1780939983613905
 30
0.0
 40
0.0037557445925213
 50
301.1679137215660944
 51
310.2460337604077267
  0
ARC
  5
17440
  8
0
 10
3560.2384631053828343
 20
138.1791982089339115
 30
0.0
 40
0.0052024150542657
 50
310.2460337603815219
 51
337.5557998711822165
  0
ARC
  5
17441
  8
0
 10
3560.1761904972408956
 20
138.2049213443173983
 30
0.0
 40
0.0725786528443303
 50
337.5557998711822165
 51
347.1493308964920743
  0
ARC
  5
17442
  8
0
 10
3559.6535748739897826
 20
138.2975438228376106
 30
0.0
 40
0.603262236559802
 50
349.6130965796818941
 51
356.0509702231121878
  0
ARC
  5
17443
  8
0
 10
3555.260015037318226
 20
138.5960041541966064
 30
0.0
 40
5.0069474885780147
 50
356.1062232856373271
 51
359.7618465864013046
  0
ARC
  5
17444
  8
0
 10
3551.7232723364368212
 20
138.6566958471846931
 30
0.0
 40
8.5440356843118082
 50
359.4534354653727064
 51
0.0015894086181734
  0
LINE
  5
17445
  8
0
 10
3560.1970973627448984
 20
138.2709328622678981
 30
0.0
 11
3560.2250939768450735
 21
138.2709328622678981
 31
0.0
  0
ARC
  5
17446
  8
0
 10
3560.2363564641400444
 20
138.2753254878637108
 30
0.0
 40
0.0202404726264973
 50
192.5341741529749982
 51
212.4413283234106871
  0
ARC
  5
17447
  8
0
 10
3560.221350646314022
 20
138.2657873161674047
 30
0.0
 40
0.0024598289952711
 50
212.4413283234383982
 51
246.4155276450113092
  0
ARC
  5
17448
  8
0
 10
3560.2208682042328292
 20
138.2647899384371897
 30
0.0
 40
0.0013534218413712
 50
248.2401257959760983
 51
309.3834176039046042
  0
ARC
  5
17449
  8
0
 10
3560.2178289682301511
 20
138.2681952383917121
 30
0.0
 40
0.0059168528837839
 50
311.2080157548373904
 51
326.5833855047608836
  0
ARC
  5
1744A
  8
0
 10
3560.2006515509751807
 20
138.2770135819397126
 30
0.0
 40
0.0251987123906183
 50
331.36251724895601
 51
345.9808866231487059
  0
ARC
  5
1744B
  8
0
 10
3559.923404311466129
 20
138.3381648169902007
 30
0.0
 40
0.3091009911013308
 50
347.4328153520247042
 51
355.3209385506556259
  0
ARC
  5
1744C
  8
0
 10
3557.8763825159949192
 20
138.5189614950357111
 30
0.0
 40
2.3640858704373868
 50
355.0007855532106191
 51
358.3712070674171173
  0
ARC
  5
1744D
  8
0
 10
3562.8248372881957948
 20
138.5139670775429011
 30
0.0
 40
2.5860722713387738
 50
176.8309028623920085
 51
181.378257085303801
  0
ARC
  5
1744E
  8
0
 10
3553.4929620081297799
 20
138.692544989407196
 30
0.0
 40
6.756453561810333
 50
356.1355148978905163
 51
359.6980022116999862
  0
ARC
  5
1744F
  8
0
 10
3559.8710930549291334
 20
138.2629797861995939
 30
0.0
 40
0.3638757086217164
 50
348.6632670311566926
 51
355.9343541940305045
  0
ARC
  5
17450
  8
0
 10
3560.1394469454689897
 20
138.2091784505157079
 30
0.0
 40
0.0901817293506839
 50
340.2321070746814939
 51
348.6632670311566926
  0
ARC
  5
17451
  8
0
 10
3560.2151454800141437
 20
138.1819732092097013
 30
0.0
 40
0.0097429744697644
 50
316.4660714128161203
 51
340.2321070746875762
  0
ARC
  5
17452
  8
0
 10
3560.2207786157241571
 20
138.1766212002864904
 30
0.0
 40
0.0019727609953294
 50
272.3249130373936282
 51
316.4664812862463918
  0
ARC
  5
17453
  8
0
 10
3560.2209551378168726
 20
139.1372224366141097
 30
0.0
 40
0.0019955590999278
 50
92.7715984335783332
 51
134.3266286793273991
  0
ARC
  5
17454
  8
0
 10
3560.2247168576109289
 20
139.1333712415635091
 30
0.0
 40
0.0073790745990265
 50
134.3266286793331972
 51
151.3460784288398031
  0
ARC
  5
17455
  8
0
 10
3560.2447526993100837
 20
139.1224228724202021
 30
0.0
 40
0.0302111077876147
 50
151.3460784288384104
 51
170.7480939033233938
  0
ARC
  5
17456
  8
0
 10
3560.5722404307321085
 20
139.0515624891413893
 30
0.0
 40
0.3652404746849443
 50
168.0353090195619075
 51
174.5528169064401993
  0
ARC
  5
17457
  8
0
 10
3561.5440832057338412
 20
138.9452632106469991
 30
0.0
 40
1.3428538304962121
 50
173.9740682068648141
 51
175.8290288877630871
  0
ARC
  5
17458
  8
0
 10
3560.2209551378168726
 20
138.1766432879215927
 30
0.0
 40
0.0019955590999278
 50
225.6733713206724872
 51
267.2284015664217236
  0
ARC
  5
17459
  8
0
 10
3560.2247168576109289
 20
138.180494482972307
 30
0.0
 40
0.0073790745990265
 50
208.6539215711601969
 51
225.6733713206668028
  0
ARC
  5
1745A
  8
0
 10
3560.2447526993100837
 20
138.191442852115614
 30
0.0
 40
0.0302111077876147
 50
189.2519060966766062
 51
208.6539215711615896
  0
ARC
  5
1745B
  8
0
 10
3560.5722404307321085
 20
138.2623032353943984
 30
0.0
 40
0.3652404746849443
 50
185.4471830935598007
 51
191.9646909804380925
  0
ARC
  5
1745C
  8
0
 10
3561.5440832057338412
 20
138.3686025138887885
 30
0.0
 40
1.3428538304962121
 50
184.1709711122367992
 51
186.0259317931351006
  0
ENDSEC
  0
EOF
