  0
SECTION
  2
HEADER
  9
$ACADVER
  1
AC1009
  9
$INSBASE
 10
4780.9875692008617989
 20
240.8801781499886943
 30
0.0
  9
$EXTMIN
 10
4775.0646911541298323
 20
235.8501781499886931
 30
0.0
  9
$EXTMAX
 10
4786.9104472475937655
 20
240.885109592719914
 30
0.0
  9
$LIMMIN
 10
0.0
 20
0.0
  9
$LIMMAX
 10
11.6929133858000007
 20
8.2677165353999982
  9
$ORTHOMODE
 70
     1
  9
$REGENMODE
 70
     1
  9
$FILLMODE
 70
     1
  9
$QTEXTMODE
 70
     0
  9
$MIRRTEXT
 70
     0
  9
$DRAGMODE
 70
     2
  9
$LTSCALE
 40
0.6431102362
  9
$OSMODE
 70
  4095
  9
$ATTMODE
 70
     1
  9
$TEXTSIZE
 40
0.2
  9
$TRACEWID
 40
0.05
  9
$TEXTSTYLE
  7
STANDARD
  9
$CLAYER
  8
0
  9
$CELTYPE
  6
BYLAYER
  9
$CECOLOR
 62
   256
  9
$DIMSCALE
 40
1.0
  9
$DIMASZ
 40
0.1875
  9
$DIMEXO
 40
0.0625
  9
$DIMDLI
 40
0.4443307087
  9
$DIMRND
 40
0.0
  9
$DIMDLE
 40
0.0
  9
$DIMEXE
 40
0.125
  9
$DIMTP
 40
0.01
  9
$DIMTM
 40
0.01
  9
$DIMTXT
 40
2.0
  9
$DIMCEN
 40
0.1052362205
  9
$DIMTSZ
 40
0.0
  9
$DIMTOL
 70
     1
  9
$DIMLIM
 70
     0
  9
$DIMTIH
 70
     1
  9
$DIMTOH
 70
     1
  9
$DIMSE1
 70
     0
  9
$DIMSE2
 70
     0
  9
$DIMTAD
 70
     0
  9
$DIMZIN
 70
     0
  9
$DIMBLK
  1

  9
$DIMASO
 70
     1
  9
$DIMSHO
 70
     1
  9
$DIMPOST
  1
\X
  9
$DIMAPOST
  1

  9
$DIMALT
 70
     1
  9
$DIMALTD
 70
     2
  9
$DIMALTF
 40
25.3999999999999986
  9
$DIMLFAC
 40
1.0
  9
$DIMTOFL
 70
     0
  9
$DIMTVP
 40
0.0
  9
$DIMTIX
 70
     0
  9
$DIMSOXD
 70
     0
  9
$DIMSAH
 70
     0
  9
$DIMBLK1
  1

  9
$DIMBLK2
  1

  9
$DIMSTYLE
  2
STANDARD
  9
$DIMCLRD
 70
     0
  9
$DIMCLRE
 70
     0
  9
$DIMCLRT
 70
     0
  9
$DIMTFAC
 40
1.0
  9
$DIMGAP
 40
0.09
  9
$LUNITS
 70
     2
  9
$LUPREC
 70
     4
  9
$SKETCHINC
 40
0.1
  9
$FILLETRAD
 40
0.0
  9
$AUNITS
 70
     0
  9
$AUPREC
 70
     0
  9
$MENU
  1
.
  9
$ELEVATION
 40
0.0
  9
$PELEVATION
 40
0.0
  9
$THICKNESS
 40
0.0
  9
$LIMCHECK
 70
     0
  9
$BLIPMODE
 70
     0
  9
$CHAMFERA
 40
0.0
  9
$CHAMFERB
 40
0.0
  9
$SKPOLY
 70
     0
  9
$TDCREATE
 40
2458060.468368056230247
  9
$TDUPDATE
 40
2459245.6856249999254942
  9
$TDINDWG
 40
0.3565001157
  9
$TDUSRTIMER
 40
0.3565001157
  9
$USRTIMER
 70
     1
  9
$ANGBASE
 50
0.0
  9
$ANGDIR
 70
     0
  9
$PDMODE
 70
     0
  9
$PDSIZE
 40
0.3125
  9
$PLINEWID
 40
0.0
  9
$COORDS
 70
     1
  9
$SPLFRAME
 70
     0
  9
$SPLINETYPE
 70
     6
  9
$SPLINESEGS
 70
     8
  9
$ATTDIA
 70
     1
  9
$ATTREQ
 70
     1
  9
$HANDLING
 70
     1
  9
$HANDSEED
  5
CBC7
  9
$SURFTAB1
 70
     6
  9
$SURFTAB2
 70
     6
  9
$SURFTYPE
 70
     6
  9
$SURFU
 70
     6
  9
$SURFV
 70
     6
  9
$UCSNAME
  2

  9
$UCSORG
 10
0.0
 20
0.0
 30
0.0
  9
$UCSXDIR
 10
1.0
 20
0.0
 30
0.0
  9
$UCSYDIR
 10
0.0
 20
1.0
 30
0.0
  9
$PUCSNAME
  2

  9
$PUCSORG
 10
0.0
 20
0.0
 30
0.0
  9
$PUCSXDIR
 10
1.0
 20
0.0
 30
0.0
  9
$PUCSYDIR
 10
0.0
 20
1.0
 30
0.0
  9
$USERI1
 70
     0
  9
$USERI2
 70
     0
  9
$USERI3
 70
     0
  9
$USERI4
 70
     0
  9
$USERI5
 70
     0
  9
$USERR1
 40
0.0
  9
$USERR2
 40
0.0
  9
$USERR3
 40
0.0
  9
$USERR4
 40
0.0
  9
$USERR5
 40
0.0
  9
$WORLDVIEW
 70
     1
  9
$SHADEDGE
 70
     3
  9
$SHADEDIF
 70
    70
  9
$TILEMODE
 70
     1
  9
$MAXACTVP
 70
    64
  9
$PLIMCHECK
 70
     0
  9
$PEXTMIN
 10
1.0000000000000000E+20
 20
1.0000000000000000E+20
 30
1.0000000000000000E+20
  9
$PEXTMAX
 10
-1.0000000000000000E+20
 20
-1.0000000000000000E+20
 30
-1.0000000000000000E+20
  9
$PLIMMIN
 10
0.0
 20
0.0
  9
$PLIMMAX
 10
12.0
 20
9.0
  9
$UNITMODE
 70
     0
  9
$VISRETAIN
 70
     1
  9
$PLINEGEN
 70
     0
  9
$PSLTSCALE
 70
     1
  0
ENDSEC
  0
SECTION
  2
TABLES
  0
TABLE
  2
VPORT
 70
     1
  0
VPORT
  2
*ACTIVE
 70
     0
 10
0.0
 20
0.0
 11
1.0
 21
1.0
 12
0.0
 22
0.0
 13
0.0
 23
0.0
 14
1.0
 24
1.0
 15
0.0
 25
0.0
 16
0.0
 26
0.0
 36
36.4718999362222789
 17
4780.9875488281240905
 27
238.3676417714576132
 37
0.0
 40
12.8757135254682407
 41
2.1186252771618621
 42
50.0
 43
0.0
 44
0.0
 50
0.0
 51
0.0
 71
     0
 72
   100
 73
     1
 74
     1
 75
     0
 76
     0
 77
     0
 78
     0
  0
ENDTAB
  0
TABLE
  2
LTYPE
 70
     2
  0
LTYPE
  2
CONTINUOUS
 70
     0
  3
Solid line
 72
    65
 73
     0
 40
0.0
  0
LTYPE
  2
PHANTOM2
 70
     0
  3
___ _ _ ___ _ _ ___ _ _ ___ _ _
 72
    65
 73
     6
 40
1.25
 49
0.625
 49
-0.125
 49
0.125
 49
-0.125
 49
0.125
 49
-0.125
  0
ENDTAB
  0
TABLE
  2
LAYER
 70
     2
  0
LAYER
  2
0
 70
     0
 62
   255
  6
CONTINUOUS
  0
LAYER
  2
DEFPOINTS
 70
     0
 62
     7
  6
CONTINUOUS
  0
ENDTAB
  0
TABLE
  2
STYLE
 70
     1
  0
STYLE
  2
STANDARD
 70
     0
 40
0.0
 41
0.8
 50
0.0
 71
     0
 42
0.2
  3
txt
  4

  0
ENDTAB
  0
TABLE
  2
VIEW
 70
     0
  0
ENDTAB
  0
TABLE
  2
UCS
 70
     0
  0
ENDTAB
  0
TABLE
  2
APPID
 70
     9
  0
APPID
  2
ACAD
 70
     0
  0
APPID
  2
ACAD_MLEADERVER
 70
     0
  0
APPID
  2
ACAD_EXEMPT_FROM_CAD_STANDARDS
 70
     0
  0
APPID
  2
ACAD_NAV_VCDISPLAY
 70
     0
  0
APPID
  2
ACAECLAYERSTANDARD
 70
     0
  0
APPID
  2
ACCMTRANSPARENCY
 70
     0
  0
APPID
  2
ACAD_DSTYLE_DIMJAG
 70
     0
  0
APPID
  2
ACAD_DSTYLE_DIMTALN
 70
     0
  0
APPID
  2
ACDBATTR
 70
     0
  0
ENDTAB
  0
TABLE
  2
DIMSTYLE
 70
     1
  0
DIMSTYLE
  2
STANDARD
 70
     0
  3

  4

  5

  6

  7

 40
1.0
 41
0.1875
 42
0.0625
 43
0.38
 44
0.125
 45
0.0
 46
0.0
 47
0.01
 48
0.01
140
0.15625
141
0.09
142
0.0
143
25.3999999999999986
144
1.0
145
0.0
146
1.0
147
0.09
 71
     1
 72
     0
 73
     1
 74
     1
 75
     0
 76
     0
 77
     0
 78
     4
170
     0
171
     2
172
     0
173
     0
174
     0
175
     0
176
     0
177
     0
178
     0
  0
ENDTAB
  0
ENDSEC
  0
SECTION
  2
BLOCKS
  0
BLOCK
  8
0
  2
$MODEL_SPACE
 70
     0
 10
0.0
 20
0.0
 30
0.0
  3
$MODEL_SPACE
  1

  0
ENDBLK
  5
21
  8
0
  0
BLOCK
 67
     1
  8
0
  2
$PAPER_SPACE
 70
     0
 10
0.0
 20
0.0
 30
0.0
  3
$PAPER_SPACE
  1

  0
ENDBLK
  5
1D
 67
     1
  8
0
  0
ENDSEC
  0
SECTION
  2
ENTITIES
  0
ATTDEF
  5
3930
  8
DEFPOINTS
 10
4780.9848189020140126
 20
240.8841095927197955
 30
0.0
 40
0.001
  1
K-26306T
  3

  2
MODELNUMBER
 70
     0
1001
ACDBATTR
1070
     0
1070
     1
  0
ATTDEF
  5
3931
  8
DEFPOINTS
 10
4780.9848189020140126
 20
240.8824429260531872
 30
0.0
 40
0.001
  1

  3

  2
TRADENAME
 70
     0
1001
ACDBATTR
1070
     0
1070
     1
  0
ATTDEF
  5
3932
  8
DEFPOINTS
 10
4780.9848189020140126
 20
240.8807762593864936
 30
0.0
 40
0.001
  1
FOOT LEDGE
  3

  2
PRODUCT
 70
     0
1001
ACDBATTR
1070
     0
1070
     1
  0
LINE
  5
CA8E
  8
0
 10
4775.0646911541298323
 20
240.8218240300886919
 30
0.0
 11
4775.0727639469623682
 21
240.4040057902886929
 31
0.0
  0
LINE
  5
CA8F
  8
0
 10
4775.0734360702608683
 20
240.3767561896887059
 30
0.0
 11
4775.0740252758623683
 21
239.4482862227883118
 31
0.0
  0
ARC
  5
CA90
  8
0
 10
4781.0200718318237705
 20
307.0721491730403727
 30
0.0
 40
71.2219784394496429
 50
268.4840354029660716
 51
269.9738526831065997
  0
ARC
  5
CA91
  8
0
 10
4779.3450475724666831
 20
247.0032363794578032
 30
0.0
 40
11.1301034026502492
 50
264.3096847504327798
 51
268.9230750648392814
  0
ARC
  5
CA92
  8
0
 10
4778.7669503516617624
 20
239.651317581077592
 30
0.0
 40
3.7602358886510419
 50
237.2922065139489121
 51
261.9669760805435885
  0
ARC
  5
CA93
  8
0
 10
4778.6460964935677111
 20
239.5105425315232139
 30
0.0
 40
3.5765703332677381
 50
203.0864629236330927
 51
237.7026757410451125
  0
ARC
  5
CA94
  8
0
 10
4778.5873969156564272
 20
239.4876407125669004
 30
0.0
 40
3.5135920445000721
 50
180.6417629850122921
 51
203.1182541645783033
  0
ARC
  5
CA95
  8
0
 10
4775.1677166331701301
 20
240.4091453047660991
 30
0.0
 40
0.0950916780124302
 50
183.0982316369390048
 51
191.531245205772592
  0
ARC
  5
CA96
  8
0
 10
4775.1600774048320091
 20
240.3763158812782024
 30
0.0
 40
0.0866424533791542
 50
170.8215160624939983
 51
179.7088272409698959
  0
ARC
  5
CA97
  8
0
 10
4775.1399010179402467
 20
240.4045108326949958
 30
0.0
 40
0.0669188221759213
 50
192.4041525704143112
 51
229.7534756418615984
  0
ARC
  5
CA98
  8
0
 10
4775.1990591335670615
 20
240.5023010550951028
 30
0.0
 40
0.1806815486100075
 50
235.4793281009607142
 51
266.7373491298972112
  0
ARC
  5
CA99
  8
0
 10
4775.2872375396837015
 20
241.8661070631943915
 30
0.0
 40
1.5473305847727681
 50
266.3516219491758079
 51
269.528181046956206
  0
ARC
  5
CA9A
  8
0
 10
4775.1173188432776442
 20
240.3774797496647864
 30
0.0
 40
0.043888737811091
 50
180.944634389571803
 51
231.1660545858584044
  0
ARC
  5
CA9B
  8
0
 10
4775.1792824020412809
 20
240.4801871528474067
 30
0.0
 40
0.1635476052368012
 50
236.8284588923004037
 51
265.468223178704875
  0
ARC
  5
CA9C
  8
0
 10
4775.2885248441507429
 20
241.8083659146377897
 30
0.0
 40
1.4962107364425701
 50
265.316622162003398
 51
269.4627906904298129
  0
LINE
  5
CA9D
  8
0
 10
4777.0650352711618325
 20
240.8801781499886943
 30
0.0
 11
4777.0647827821530882
 21
240.8524122061888022
 31
0.0
  0
ARC
  5
CA9E
  8
0
 10
4775.0965496918906865
 20
240.8205818008592871
 30
0.0
 40
0.0318827470851577
 50
93.283547772399146
 51
177.7670521256316079
  0
LINE
  5
CA9F
  8
0
 10
4775.2744957347622403
 20
240.3188289417886949
 30
0.0
 11
4786.700642666962267
 21
240.3188289417886949
 31
0.0
  0
LINE
  5
CAA0
  8
0
 10
4775.2744964712610454
 20
240.3122209441887946
 30
0.0
 11
4786.7006419304607334
 21
240.3122209441887946
 31
0.0
  0
LINE
  5
CAA1
  8
0
 10
4786.9104472475937655
 20
240.8218240300886919
 30
0.0
 11
4786.9023744547621391
 21
240.4040057902886929
 31
0.0
  0
LINE
  5
CAA2
  8
0
 10
4786.9017023314609105
 20
240.3767561896887059
 30
0.0
 11
4786.901113125862139
 21
239.4482862227883118
 31
0.0
  0
ARC
  5
CAA3
  8
0
 10
4782.6300908292569147
 20
247.0032363794578032
 30
0.0
 40
11.1301034026502492
 50
271.0769249351606049
 51
275.6903152495671065
  0
ARC
  5
CAA4
  8
0
 10
4783.2081880500600164
 20
239.651317581077592
 30
0.0
 40
3.7602358886510419
 50
278.0330239194565252
 51
302.7077934860511164
  0
ARC
  5
CAA5
  8
0
 10
4783.3290419081549771
 20
239.5105425315232139
 30
0.0
 40
3.5765703332677381
 50
302.2973242589549159
 51
336.9135370763668789
  0
ARC
  5
CAA6
  8
0
 10
4783.3877414860680801
 20
239.4876407125669004
 30
0.0
 40
3.5135920445000721
 50
336.881745835421782
 51
359.3582370149875942
  0
ARC
  5
CAA7
  8
0
 10
4786.8074217685525582
 20
240.4091453047660991
 30
0.0
 40
0.0950916780124302
 50
348.4687547942273227
 51
356.9017683630593183
  0
ARC
  5
CAA8
  8
0
 10
4786.8150609968915887
 20
240.3763158812782024
 30
0.0
 40
0.0866424533791542
 50
0.2911727590300579
 51
9.1784839375059715
  0
ARC
  5
CAA9
  8
0
 10
4786.8352373837842606
 20
240.4045108326949958
 30
0.0
 40
0.0669188221759213
 50
310.2465243581382879
 51
347.5958474295856035
  0
ARC
  5
CAAA
  8
0
 10
4786.7760792681574458
 20
240.5023010550951028
 30
0.0
 40
0.1806815486100075
 50
273.2626508701027888
 51
304.5206718990393142
  0
ARC
  5
CAAB
  8
0
 10
4786.6879008620398963
 20
241.8661070631943915
 30
0.0
 40
1.5473305847727681
 50
270.4718189530439076
 51
273.6483780508240784
  0
ARC
  5
CAAC
  8
0
 10
4786.8578195584459536
 20
240.3774797496647864
 30
0.0
 40
0.043888737811091
 50
308.8339454141415104
 51
359.0553656104282254
  0
ARC
  5
CAAD
  8
0
 10
4786.7958559996841359
 20
240.4801871528474067
 30
0.0
 40
0.1635476052368012
 50
274.531776821295125
 51
303.1715411076996247
  0
ARC
  5
CAAE
  8
0
 10
4786.6866135575737644
 20
241.8083659146377897
 30
0.0
 40
1.4962107364425701
 50
270.5372093095701871
 51
274.683377837996602
  0
LINE
  5
CAAF
  8
0
 10
4784.9101031305617653
 20
240.8801781499886943
 30
0.0
 11
4784.9103556195723286
 21
240.8524122061888022
 31
0.0
  0
ARC
  5
CAB0
  8
0
 10
4786.8785887098329113
 20
240.8205818008592871
 30
0.0
 40
0.0318827470851577
 50
2.2329478743683771
 51
86.7164522276008682
  0
LINE
  5
CAB1
  8
0
 10
4775.0947235324620124
 20
240.8524122061888022
 30
0.0
 11
4786.8804148692606759
 21
240.8524122061888022
 31
0.0
  0
LINE
  5
CAB2
  8
0
 10
4777.0650352711618325
 20
240.8801781499886943
 30
0.0
 11
4784.9101031305617653
 21
240.8801781499886943
 31
0.0
  0
ARC
  5
CAB3
  8
0
 10
4780.9550665698989178
 20
307.0721491730403727
 30
0.0
 40
71.2219784394496429
 50
270.0261473168934003
 51
271.5159645970339284
  0
ENDSEC
  0
EOF
