  0
SECTION
  2
HEADER
  9
$ACADVER
  1
AC1009
  9
$INSBASE
 10
4768.2688572827655662
 20
242.0970542595231052
 30
0.0
  9
$EXTMIN
 10
4762.3459792360363281
 20
238.809128518626494
 30
0.0
  9
$EXTMAX
 10
4774.1917353294966233
 20
242.0970542595231052
 30
0.0
  9
$LIMMIN
 10
0.0
 20
0.0
  9
$LIMMAX
 10
11.6929133858000007
 20
8.2677165353999982
  9
$ORTHOMODE
 70
     1
  9
$REGENMODE
 70
     1
  9
$FILLMODE
 70
     1
  9
$QTEXTMODE
 70
     0
  9
$MIRRTEXT
 70
     0
  9
$DRAGMODE
 70
     2
  9
$LTSCALE
 40
0.6431102362
  9
$OSMODE
 70
  4095
  9
$ATTMODE
 70
     1
  9
$TEXTSIZE
 40
0.2
  9
$TRACEWID
 40
0.05
  9
$TEXTSTYLE
  7
STANDARD
  9
$CLAYER
  8
0
  9
$CELTYPE
  6
BYLAYER
  9
$CECOLOR
 62
   256
  9
$DIMSCALE
 40
1.0
  9
$DIMASZ
 40
0.1875
  9
$DIMEXO
 40
0.0625
  9
$DIMDLI
 40
0.4443307087
  9
$DIMRND
 40
0.0
  9
$DIMDLE
 40
0.0
  9
$DIMEXE
 40
0.125
  9
$DIMTP
 40
0.01
  9
$DIMTM
 40
0.01
  9
$DIMTXT
 40
2.0
  9
$DIMCEN
 40
0.1052362205
  9
$DIMTSZ
 40
0.0
  9
$DIMTOL
 70
     1
  9
$DIMLIM
 70
     0
  9
$DIMTIH
 70
     1
  9
$DIMTOH
 70
     1
  9
$DIMSE1
 70
     0
  9
$DIMSE2
 70
     0
  9
$DIMTAD
 70
     0
  9
$DIMZIN
 70
     0
  9
$DIMBLK
  1

  9
$DIMASO
 70
     1
  9
$DIMSHO
 70
     1
  9
$DIMPOST
  1
\X
  9
$DIMAPOST
  1

  9
$DIMALT
 70
     1
  9
$DIMALTD
 70
     2
  9
$DIMALTF
 40
25.3999999999999986
  9
$DIMLFAC
 40
1.0
  9
$DIMTOFL
 70
     0
  9
$DIMTVP
 40
0.0
  9
$DIMTIX
 70
     0
  9
$DIMSOXD
 70
     0
  9
$DIMSAH
 70
     0
  9
$DIMBLK1
  1

  9
$DIMBLK2
  1

  9
$DIMSTYLE
  2
STANDARD
  9
$DIMCLRD
 70
     0
  9
$DIMCLRE
 70
     0
  9
$DIMCLRT
 70
     0
  9
$DIMTFAC
 40
1.0
  9
$DIMGAP
 40
0.09
  9
$LUNITS
 70
     2
  9
$LUPREC
 70
     4
  9
$SKETCHINC
 40
0.1
  9
$FILLETRAD
 40
0.0
  9
$AUNITS
 70
     0
  9
$AUPREC
 70
     0
  9
$MENU
  1
.
  9
$ELEVATION
 40
0.0
  9
$PELEVATION
 40
0.0
  9
$THICKNESS
 40
0.0
  9
$LIMCHECK
 70
     0
  9
$BLIPMODE
 70
     0
  9
$CHAMFERA
 40
0.0
  9
$CHAMFERB
 40
0.0
  9
$SKPOLY
 70
     0
  9
$TDCREATE
 40
2458060.468368056230247
  9
$TDUPDATE
 40
2459245.6917939819395542
  9
$TDINDWG
 40
0.3606204861
  9
$TDUSRTIMER
 40
0.3606204861
  9
$USRTIMER
 70
     1
  9
$ANGBASE
 50
0.0
  9
$ANGDIR
 70
     0
  9
$PDMODE
 70
     0
  9
$PDSIZE
 40
0.3125
  9
$PLINEWID
 40
0.0
  9
$COORDS
 70
     1
  9
$SPLFRAME
 70
     0
  9
$SPLINETYPE
 70
     6
  9
$SPLINESEGS
 70
     8
  9
$ATTDIA
 70
     1
  9
$ATTREQ
 70
     1
  9
$HANDLING
 70
     1
  9
$HANDSEED
  5
CBB0
  9
$SURFTAB1
 70
     6
  9
$SURFTAB2
 70
     6
  9
$SURFTYPE
 70
     6
  9
$SURFU
 70
     6
  9
$SURFV
 70
     6
  9
$UCSNAME
  2

  9
$UCSORG
 10
0.0
 20
0.0
 30
0.0
  9
$UCSXDIR
 10
1.0
 20
0.0
 30
0.0
  9
$UCSYDIR
 10
0.0
 20
1.0
 30
0.0
  9
$PUCSNAME
  2

  9
$PUCSORG
 10
0.0
 20
0.0
 30
0.0
  9
$PUCSXDIR
 10
1.0
 20
0.0
 30
0.0
  9
$PUCSYDIR
 10
0.0
 20
1.0
 30
0.0
  9
$USERI1
 70
     0
  9
$USERI2
 70
     0
  9
$USERI3
 70
     0
  9
$USERI4
 70
     0
  9
$USERI5
 70
     0
  9
$USERR1
 40
0.0
  9
$USERR2
 40
0.0
  9
$USERR3
 40
0.0
  9
$USERR4
 40
0.0
  9
$USERR5
 40
0.0
  9
$WORLDVIEW
 70
     1
  9
$SHADEDGE
 70
     3
  9
$SHADEDIF
 70
    70
  9
$TILEMODE
 70
     1
  9
$MAXACTVP
 70
    64
  9
$PLIMCHECK
 70
     0
  9
$PEXTMIN
 10
1.0000000000000000E+20
 20
1.0000000000000000E+20
 30
1.0000000000000000E+20
  9
$PEXTMAX
 10
-1.0000000000000000E+20
 20
-1.0000000000000000E+20
 30
-1.0000000000000000E+20
  9
$PLIMMIN
 10
0.0
 20
0.0
  9
$PLIMMAX
 10
12.0
 20
9.0
  9
$UNITMODE
 70
     0
  9
$VISRETAIN
 70
     1
  9
$PLINEGEN
 70
     0
  9
$PSLTSCALE
 70
     1
  0
ENDSEC
  0
SECTION
  2
TABLES
  0
TABLE
  2
VPORT
 70
     1
  0
VPORT
  2
*ACTIVE
 70
     0
 10
0.0
 20
0.0
 11
1.0
 21
1.0
 12
0.0
 22
0.0
 13
0.0
 23
0.0
 14
1.0
 24
1.0
 15
0.0
 25
0.0
 16
0.0
 26
0.0
 36
34.8334657796417915
 17
4768.26904296875
 27
240.4530944824219034
 37
0.0
 40
12.2937165486538298
 41
2.1186252771618621
 42
50.0
 43
0.0
 44
0.0
 50
0.0
 51
0.0
 71
     0
 72
   100
 73
     1
 74
     1
 75
     0
 76
     0
 77
     0
 78
     0
  0
ENDTAB
  0
TABLE
  2
LTYPE
 70
     2
  0
LTYPE
  2
CONTINUOUS
 70
     0
  3
Solid line
 72
    65
 73
     0
 40
0.0
  0
LTYPE
  2
PHANTOM2
 70
     0
  3
___ _ _ ___ _ _ ___ _ _ ___ _ _
 72
    65
 73
     6
 40
1.25
 49
0.625
 49
-0.125
 49
0.125
 49
-0.125
 49
0.125
 49
-0.125
  0
ENDTAB
  0
TABLE
  2
LAYER
 70
     2
  0
LAYER
  2
0
 70
     0
 62
   255
  6
CONTINUOUS
  0
LAYER
  2
DEFPOINTS
 70
     0
 62
     7
  6
CONTINUOUS
  0
ENDTAB
  0
TABLE
  2
STYLE
 70
     1
  0
STYLE
  2
STANDARD
 70
     0
 40
0.0
 41
0.8
 50
0.0
 71
     0
 42
0.2
  3
txt
  4

  0
ENDTAB
  0
TABLE
  2
VIEW
 70
     0
  0
ENDTAB
  0
TABLE
  2
UCS
 70
     0
  0
ENDTAB
  0
TABLE
  2
APPID
 70
     9
  0
APPID
  2
ACAD
 70
     0
  0
APPID
  2
ACAD_MLEADERVER
 70
     0
  0
APPID
  2
ACAD_EXEMPT_FROM_CAD_STANDARDS
 70
     0
  0
APPID
  2
ACAD_NAV_VCDISPLAY
 70
     0
  0
APPID
  2
ACAECLAYERSTANDARD
 70
     0
  0
APPID
  2
ACCMTRANSPARENCY
 70
     0
  0
APPID
  2
ACAD_DSTYLE_DIMJAG
 70
     0
  0
APPID
  2
ACAD_DSTYLE_DIMTALN
 70
     0
  0
APPID
  2
ACDBATTR
 70
     0
  0
ENDTAB
  0
TABLE
  2
DIMSTYLE
 70
     1
  0
DIMSTYLE
  2
STANDARD
 70
     0
  3

  4

  5

  6

  7

 40
1.0
 41
0.1875
 42
0.0625
 43
0.38
 44
0.125
 45
0.0
 46
0.0
 47
0.01
 48
0.01
140
0.15625
141
0.09
142
0.0
143
25.3999999999999986
144
1.0
145
0.0
146
1.0
147
0.09
 71
     1
 72
     0
 73
     1
 74
     1
 75
     0
 76
     0
 77
     0
 78
     4
170
     0
171
     2
172
     0
173
     0
174
     0
175
     0
176
     0
177
     0
178
     0
  0
ENDTAB
  0
ENDSEC
  0
SECTION
  2
BLOCKS
  0
BLOCK
  8
0
  2
$MODEL_SPACE
 70
     0
 10
0.0
 20
0.0
 30
0.0
  3
$MODEL_SPACE
  1

  0
ENDBLK
  5
21
  8
0
  0
BLOCK
 67
     1
  8
0
  2
$PAPER_SPACE
 70
     0
 10
0.0
 20
0.0
 30
0.0
  3
$PAPER_SPACE
  1

  0
ENDBLK
  5
1D
 67
     1
  8
0
  0
ENDSEC
  0
SECTION
  2
ENTITIES
  0
ATTDEF
  5
3930
  8
DEFPOINTS
 10
4768.2628910631083272
 20
242.0948451165099868
 30
0.0
 40
0.001
  1
K-26306W
  3

  2
MODELNUMBER
 70
     0
1001
ACDBATTR
1070
     0
1070
     1
  0
ATTDEF
  5
3931
  8
DEFPOINTS
 10
4768.2628910631083272
 20
242.093178449843407
 30
0.0
 40
0.001
  1

  3

  2
TRADENAME
 70
     0
1001
ACDBATTR
1070
     0
1070
     1
  0
ATTDEF
  5
3932
  8
DEFPOINTS
 10
4768.2628910631083272
 20
242.0915117831767134
 30
0.0
 40
0.001
  1
FOOT LEDGE
  3

  2
PRODUCT
 70
     0
1001
ACDBATTR
1070
     0
1070
     1
  0
LINE
  5
C9E8
  8
0
 10
4762.3547327912656328
 20
241.7029293383264985
 30
0.0
 11
4762.3557024910660402
 21
241.4795002536264121
 31
0.0
  0
LINE
  5
C9E9
  8
0
 10
4768.0188572827673852
 20
238.809128518626494
 30
0.0
 11
4765.5719986393660292
 21
238.809128518626494
 31
0.0
  0
LINE
  5
C9EA
  8
0
 10
4768.0188572827673852
 20
238.809128518626494
 30
0.0
 11
4768.0188572827673852
 21
238.8490001976263954
 31
0.0
  0
ARC
  5
C9EB
  8
0
 10
4768.0701476336653286
 20
238.8250493877694964
 30
0.0
 40
0.0566069023013875
 50
107.9105277573775936
 51
154.9690614816445873
  0
ARC
  5
C9EC
  8
0
 10
4768.1221257509732823
 20
238.6427102641833926
 30
0.0
 40
0.2461833104610755
 50
90.7607133698288635
 51
106.370590063345503
  0
LINE
  5
C9ED
  8
0
 10
4769.717787310562926
 20
240.3114652872440047
 30
0.0
 11
4766.8199272549691159
 21
240.3114652872440047
 31
0.0
  0
ARC
  5
C9EE
  8
0
 10
4769.0937521779169401
 20
385.6955000328024994
 30
0.0
 40
145.401815114798211
 50
268.5303056010304203
 51
269.1039597269099204
  0
ARC
  5
C9EF
  8
0
 10
4765.9360170443460447
 20
252.0269575618472118
 30
0.0
 40
11.6994096534580994
 50
261.4194812488605066
 51
267.1997780166810799
  0
ARC
  5
C9F0
  8
0
 10
4764.8508958207657997
 20
245.5290117907439083
 30
0.0
 40
5.1133424782256913
 50
246.8190275136107061
 51
262.5791556628882972
  0
ARC
  5
C9F1
  8
0
 10
4769.0855724945186012
 20
240.5041453893489916
 30
0.0
 40
4.8953102116403278
 50
180.5342813234724986
 51
188.0303538555253056
  0
ARC
  5
C9F2
  8
0
 10
4765.3814643457571947
 20
239.9675177256530958
 30
0.0
 40
1.152642096249572
 50
187.3388854091481903
 51
235.638661583307794
  0
ARC
  5
C9F3
  8
0
 10
4765.6144540955938282
 20
240.7948894141804885
 30
0.0
 40
1.9862146913350329
 50
243.5867409810740867
 51
268.7752060532980067
  0
ARC
  5
C9F4
  8
0
 10
4764.5673068065361804
 20
241.4825967807522034
 30
0.0
 40
2.2116064832341831
 50
180.0802213209109084
 51
183.5006272664151084
  0
ARC
  5
C9F5
  8
0
 10
4762.9138448164476358
 20
241.4377433573878875
 30
0.0
 40
0.5613104219174386
 50
189.2458231386198122
 51
230.6131059423985903
  0
ARC
  5
C9F6
  8
0
 10
4763.4163321580981574
 20
242.0646912153995061
 30
0.0
 40
1.364753174882716
 50
231.0106971850244975
 51
244.9320850564315037
  0
ARC
  5
C9F7
  8
0
 10
4762.5604268237320866
 20
241.523380395319009
 30
0.0
 40
0.4255622308012031
 50
90.6250267692673788
 51
102.5380646340108939
  0
ARC
  5
C9F8
  8
0
 10
4762.5166842076923785
 20
241.7997191292296009
 30
0.0
 40
0.1473356862601647
 50
109.2774820282900947
 51
156.5388833819922922
  0
ARC
  5
C9F9
  8
0
 10
4762.6868878836094154
 20
241.7257064848369907
 30
0.0
 40
0.332935134482441
 50
156.5162635483885936
 51
183.922849782408889
  0
ARC
  5
C9FA
  8
0
 10
4763.3318588776010074
 20
241.7885435371248093
 30
0.0
 40
0.9858796415665496
 50
170.2392432089133081
 51
187.7294305593553077
  0
ARC
  5
C9FB
  8
0
 10
4762.5400209068102413
 20
241.9167342117586941
 30
0.0
 40
0.1839414809553462
 50
122.2117455839741069
 51
167.7749591257395139
  0
ARC
  5
C9FC
  8
0
 10
4762.5757642365888387
 20
241.6537031470973034
 30
0.0
 40
0.4441842283323937
 50
93.5097540221637331
 51
101.839723346490203
  0
ARC
  5
C9FD
  8
0
 10
4762.5225044477110714
 20
241.9232750319654883
 30
0.0
 40
0.1694497158446982
 50
102.9159182907622068
 51
118.3765975370261003
  0
LINE
  5
C9FE
  8
0
 10
4774.182981774266409
 20
241.7029293383264985
 30
0.0
 11
4774.1820120744660016
 21
241.4795002536264121
 31
0.0
  0
LINE
  5
C9FF
  8
0
 10
4768.5188572827655662
 20
238.809128518626494
 30
0.0
 11
4770.9657159261651032
 21
238.809128518626494
 31
0.0
  0
LINE
  5
CA00
  8
0
 10
4768.5188572827655662
 20
238.809128518626494
 30
0.0
 11
4768.5188572827655662
 21
238.8490001976263954
 31
0.0
  0
ARC
  5
CA01
  8
0
 10
4768.4675669318667133
 20
238.8250493877694964
 30
0.0
 40
0.0566069023013875
 50
25.0309385183553808
 51
72.0894722426223353
  0
ARC
  5
CA02
  8
0
 10
4768.4155888145587596
 20
238.6427102641833926
 30
0.0
 40
0.2461833104610755
 50
73.6294099366545254
 51
89.2392866301711365
  0
ARC
  5
CA03
  8
0
 10
4767.4439623876141923
 20
385.6955000328201209
 30
0.0
 40
145.401815114815804
 50
270.8960402730900796
 51
271.4696943989696933
  0
ARC
  5
CA04
  8
0
 10
4770.6016975211859972
 20
252.0269575618472118
 30
0.0
 40
11.6994096534580994
 50
272.8002219833189201
 51
278.580518751139607
  0
ARC
  5
CA05
  8
0
 10
4771.6868187447653327
 20
245.5290117907439083
 30
0.0
 40
5.1133424782256913
 50
277.4208443371115891
 51
293.1809724863892939
  0
ARC
  5
CA06
  8
0
 10
4767.4521420710134407
 20
240.5041453893489916
 30
0.0
 40
4.8953102116403278
 50
351.9696461444746092
 51
359.4657186765275014
  0
ARC
  5
CA07
  8
0
 10
4771.1562502197748472
 20
239.9675177256530958
 30
0.0
 40
1.152642096249572
 50
304.3613384166920923
 51
352.6611145908518097
  0
ARC
  5
CA08
  8
0
 10
4770.9232604699373042
 20
240.7948894141804885
 30
0.0
 40
1.9862146913350329
 50
271.224793946702107
 51
296.4132590189258849
  0
ARC
  5
CA09
  8
0
 10
4771.9704077589958615
 20
241.4825967807522034
 30
0.0
 40
2.2116064832341831
 50
356.499372733584778
 51
359.9197786790890063
  0
ARC
  5
CA0A
  8
0
 10
4773.6238697490844061
 20
241.4377433573878875
 30
0.0
 40
0.5613104219174386
 50
309.3868940576015234
 51
350.7541768613800741
  0
ARC
  5
CA0B
  8
0
 10
4773.121382407434794
 20
242.0646912153995061
 30
0.0
 40
1.364753174882716
 50
295.0679149435686099
 51
308.9893028149754741
  0
ARC
  5
CA0C
  8
0
 10
4773.9772877417990458
 20
241.523380395319009
 30
0.0
 40
0.4255622308012031
 50
77.4619353659890919
 51
89.3749732307326354
  0
ARC
  5
CA0D
  8
0
 10
4774.0210303578396633
 20
241.7997191292296009
 30
0.0
 40
0.1473356862601647
 50
23.46111661800769
 51
70.7225179717099337
  0
ARC
  5
CA0E
  8
0
 10
4773.850826681921717
 20
241.7257064848369907
 30
0.0
 40
0.332935134482441
 50
356.0771502175909973
 51
23.4837364516113887
  0
ARC
  5
CA0F
  8
0
 10
4773.2058556879310345
 20
241.7885435371248093
 30
0.0
 40
0.9858796415665496
 50
352.2705694406446923
 51
9.7607567910867168
  0
ARC
  5
CA10
  8
0
 10
4773.9976936587218006
 20
241.9167342117586941
 30
0.0
 40
0.1839414809553462
 50
12.2250408742604506
 51
57.7882544160259215
  0
ARC
  5
CA11
  8
0
 10
4774.01521011782188
 20
241.9232750319654883
 30
0.0
 40
0.1694497158446982
 50
61.6234024629738713
 51
77.0840817092377648
  0
LINE
  5
CA12
  8
0
 10
4768.1188572827650205
 20
238.8888718766764043
 30
0.0
 11
4768.4188572827670214
 21
238.8888718766764043
 31
0.0
  0
LINE
  5
CA13
  8
0
 10
4762.5485719617663563
 20
242.0970542595231052
 30
0.0
 11
4773.9891426037656856
 21
242.0970542595231052
 31
0.0
  0
LINE
  5
CA14
  8
0
 10
4762.5557845531666317
 20
241.9489173051264004
 30
0.0
 11
4773.9819300123663197
 21
241.9489173051264004
 31
0.0
  0
ARC
  5
CA15
  8
0
 10
4773.9619503289432032
 20
241.6537031470973034
 30
0.0
 40
0.4441842283323937
 50
78.1602766535097544
 51
86.4902459778362669
  0
ENDSEC
  0
EOF
