  0
SECTION
  2
HEADER
  9
$ACADVER
  1
AC1009
  9
$INSBASE
 10
4781.447341119525845
 20
237.1433221333234087
 30
0.0
  9
$EXTMIN
 10
4763.0072080452573573
 20
234.6339133806829977
 30
-0.0015258207003583
  9
$EXTMAX
 10
4781.611844349105013
 20
238.2325927479230927
 30
0.0000000349246037
  9
$LIMMIN
 10
0.0
 20
0.0
  9
$LIMMAX
 10
11.6929133858000007
 20
8.2677165353999982
  9
$ORTHOMODE
 70
     1
  9
$REGENMODE
 70
     1
  9
$FILLMODE
 70
     1
  9
$QTEXTMODE
 70
     0
  9
$MIRRTEXT
 70
     0
  9
$DRAGMODE
 70
     2
  9
$LTSCALE
 40
0.6431102362
  9
$OSMODE
 70
  4095
  9
$ATTMODE
 70
     1
  9
$TEXTSIZE
 40
0.2
  9
$TRACEWID
 40
0.05
  9
$TEXTSTYLE
  7
STANDARD
  9
$CLAYER
  8
0
  9
$CELTYPE
  6
BYLAYER
  9
$CECOLOR
 62
   256
  9
$DIMSCALE
 40
1.0
  9
$DIMASZ
 40
0.1875
  9
$DIMEXO
 40
0.0625
  9
$DIMDLI
 40
0.4443307087
  9
$DIMRND
 40
0.0
  9
$DIMDLE
 40
0.0
  9
$DIMEXE
 40
0.125
  9
$DIMTP
 40
0.01
  9
$DIMTM
 40
0.01
  9
$DIMTXT
 40
2.0
  9
$DIMCEN
 40
0.1052362205
  9
$DIMTSZ
 40
0.0
  9
$DIMTOL
 70
     1
  9
$DIMLIM
 70
     0
  9
$DIMTIH
 70
     1
  9
$DIMTOH
 70
     1
  9
$DIMSE1
 70
     0
  9
$DIMSE2
 70
     0
  9
$DIMTAD
 70
     0
  9
$DIMZIN
 70
     0
  9
$DIMBLK
  1

  9
$DIMASO
 70
     1
  9
$DIMSHO
 70
     1
  9
$DIMPOST
  1
\X
  9
$DIMAPOST
  1

  9
$DIMALT
 70
     1
  9
$DIMALTD
 70
     2
  9
$DIMALTF
 40
25.3999999999999986
  9
$DIMLFAC
 40
1.0
  9
$DIMTOFL
 70
     0
  9
$DIMTVP
 40
0.0
  9
$DIMTIX
 70
     0
  9
$DIMSOXD
 70
     0
  9
$DIMSAH
 70
     0
  9
$DIMBLK1
  1

  9
$DIMBLK2
  1

  9
$DIMSTYLE
  2
STANDARD
  9
$DIMCLRD
 70
     0
  9
$DIMCLRE
 70
     0
  9
$DIMCLRT
 70
     0
  9
$DIMTFAC
 40
1.0
  9
$DIMGAP
 40
0.09
  9
$LUNITS
 70
     2
  9
$LUPREC
 70
     4
  9
$SKETCHINC
 40
0.1
  9
$FILLETRAD
 40
0.0
  9
$AUNITS
 70
     0
  9
$AUPREC
 70
     0
  9
$MENU
  1
.
  9
$ELEVATION
 40
0.0
  9
$PELEVATION
 40
0.0
  9
$THICKNESS
 40
0.0
  9
$LIMCHECK
 70
     0
  9
$BLIPMODE
 70
     0
  9
$CHAMFERA
 40
0.0
  9
$CHAMFERB
 40
0.0
  9
$SKPOLY
 70
     0
  9
$TDCREATE
 40
2458060.468368056230247
  9
$TDUPDATE
 40
2460154.8290740740485489
  9
$TDINDWG
 40
0.3615232639
  9
$TDUSRTIMER
 40
0.3615232639
  9
$USRTIMER
 70
     1
  9
$ANGBASE
 50
0.0
  9
$ANGDIR
 70
     0
  9
$PDMODE
 70
     0
  9
$PDSIZE
 40
0.3125
  9
$PLINEWID
 40
0.0
  9
$COORDS
 70
     1
  9
$SPLFRAME
 70
     0
  9
$SPLINETYPE
 70
     6
  9
$SPLINESEGS
 70
     8
  9
$ATTDIA
 70
     1
  9
$ATTREQ
 70
     1
  9
$HANDLING
 70
     1
  9
$HANDSEED
  5
CB79
  9
$SURFTAB1
 70
     6
  9
$SURFTAB2
 70
     6
  9
$SURFTYPE
 70
     6
  9
$SURFU
 70
     6
  9
$SURFV
 70
     6
  9
$UCSNAME
  2

  9
$UCSORG
 10
0.0
 20
0.0
 30
0.0
  9
$UCSXDIR
 10
1.0
 20
0.0
 30
0.0
  9
$UCSYDIR
 10
0.0
 20
1.0
 30
0.0
  9
$PUCSNAME
  2

  9
$PUCSORG
 10
0.0
 20
0.0
 30
0.0
  9
$PUCSXDIR
 10
1.0
 20
0.0
 30
0.0
  9
$PUCSYDIR
 10
0.0
 20
1.0
 30
0.0
  9
$USERI1
 70
     0
  9
$USERI2
 70
     0
  9
$USERI3
 70
     0
  9
$USERI4
 70
     0
  9
$USERI5
 70
     0
  9
$USERR1
 40
0.0
  9
$USERR2
 40
0.0
  9
$USERR3
 40
0.0
  9
$USERR4
 40
0.0
  9
$USERR5
 40
0.0
  9
$WORLDVIEW
 70
     1
  9
$SHADEDGE
 70
     3
  9
$SHADEDIF
 70
    70
  9
$TILEMODE
 70
     1
  9
$MAXACTVP
 70
    64
  9
$PLIMCHECK
 70
     0
  9
$PEXTMIN
 10
1.0000000000000000E+20
 20
1.0000000000000000E+20
 30
1.0000000000000000E+20
  9
$PEXTMAX
 10
-1.0000000000000000E+20
 20
-1.0000000000000000E+20
 30
-1.0000000000000000E+20
  9
$PLIMMIN
 10
0.0
 20
0.0
  9
$PLIMMAX
 10
12.0
 20
9.0
  9
$UNITMODE
 70
     0
  9
$VISRETAIN
 70
     1
  9
$PLINEGEN
 70
     0
  9
$PSLTSCALE
 70
     1
  0
ENDSEC
  0
SECTION
  2
TABLES
  0
TABLE
  2
VPORT
 70
     1
  0
VPORT
  2
*ACTIVE
 70
     0
 10
0.0
 20
0.0
 11
1.0
 21
1.0
 12
-0.020110718786782
 22
-0.0010731075719264
 13
0.0
 23
0.0
 14
1.0
 24
1.0
 15
0.0
 25
0.0
 16
0.0
 26
0.0
 36
52.7602938543032423
 17
4772.3296369159679671
 27
236.434326171875
 37
0.0
 40
13.0730608088819196
 41
1.4307692307692299
 42
50.0
 43
0.0
 44
0.0
 50
0.0
 51
0.0
 71
     0
 72
   100
 73
     1
 74
     1
 75
     0
 76
     0
 77
     0
 78
     0
  0
ENDTAB
  0
TABLE
  2
LTYPE
 70
     2
  0
LTYPE
  2
CONTINUOUS
 70
     0
  3
Solid line
 72
    65
 73
     0
 40
0.0
  0
LTYPE
  2
PHANTOM2
 70
     0
  3
___ _ _ ___ _ _ ___ _ _ ___ _ _
 72
    65
 73
     6
 40
1.25
 49
0.625
 49
-0.125
 49
0.125
 49
-0.125
 49
0.125
 49
-0.125
  0
ENDTAB
  0
TABLE
  2
LAYER
 70
     2
  0
LAYER
  2
0
 70
     0
 62
   255
  6
CONTINUOUS
  0
LAYER
  2
DEFPOINTS
 70
     0
 62
     7
  6
CONTINUOUS
  0
ENDTAB
  0
TABLE
  2
STYLE
 70
     1
  0
STYLE
  2
STANDARD
 70
     0
 40
0.0
 41
0.8
 50
0.0
 71
     0
 42
0.2
  3
txt
  4

  0
ENDTAB
  0
TABLE
  2
VIEW
 70
     0
  0
ENDTAB
  0
TABLE
  2
UCS
 70
     0
  0
ENDTAB
  0
TABLE
  2
APPID
 70
     9
  0
APPID
  2
ACAD
 70
     0
  0
APPID
  2
ACAD_MLEADERVER
 70
     0
  0
APPID
  2
ACAD_EXEMPT_FROM_CAD_STANDARDS
 70
     0
  0
APPID
  2
ACAD_NAV_VCDISPLAY
 70
     0
  0
APPID
  2
ACAECLAYERSTANDARD
 70
     0
  0
APPID
  2
ACCMTRANSPARENCY
 70
     0
  0
APPID
  2
ACAD_DSTYLE_DIMJAG
 70
     0
  0
APPID
  2
ACAD_DSTYLE_DIMTALN
 70
     0
  0
APPID
  2
ACDBATTR
 70
     0
  0
ENDTAB
  0
TABLE
  2
DIMSTYLE
 70
     1
  0
DIMSTYLE
  2
STANDARD
 70
     0
  3

  4

  5

  6

  7

 40
1.0
 41
0.1875
 42
0.0625
 43
0.38
 44
0.125
 45
0.0
 46
0.0
 47
0.01
 48
0.01
140
0.15625
141
0.09
142
0.0
143
25.3999999999999986
144
1.0
145
0.0
146
1.0
147
0.09
 71
     1
 72
     0
 73
     1
 74
     1
 75
     0
 76
     0
 77
     0
 78
     4
170
     0
171
     2
172
     0
173
     0
174
     0
175
     0
176
     0
177
     0
178
     0
  0
ENDTAB
  0
ENDSEC
  0
SECTION
  2
BLOCKS
  0
BLOCK
  8
0
  2
$MODEL_SPACE
 70
     0
 10
0.0
 20
0.0
 30
0.0
  3
$MODEL_SPACE
  1

  0
ENDBLK
  5
21
  8
0
  0
BLOCK
 67
     1
  8
0
  2
$PAPER_SPACE
 70
     0
 10
0.0
 20
0.0
 30
0.0
  3
$PAPER_SPACE
  1

  0
ENDBLK
  5
1D
 67
     1
  8
0
  0
ENDSEC
  0
SECTION
  2
ENTITIES
  0
ATTDEF
  5
3930
  8
DEFPOINTS
 10
4781.4552477899524092
 20
237.1444379199056982
 30
0.0
 40
0.001
  1
K-26307T
  3

  2
MODELNUMBER
 70
     0
1001
ACDBATTR
1070
     0
1070
     1
  0
ATTDEF
  5
3931
  8
DEFPOINTS
 10
4781.4552477899524092
 20
237.1427712532390899
 30
0.0
 40
0.001
  1
STATEMENT
  3

  2
TRADENAME
 70
     0
1001
ACDBATTR
1070
     0
1070
     1
  0
ATTDEF
  5
3932
  8
DEFPOINTS
 10
4781.4552477899524092
 20
237.1411045865723963
 30
0.0
 40
0.001
  1
SHOWER ARM
  3

  2
PRODUCT
 70
     0
1001
ACDBATTR
1070
     0
1070
     1
  0
LINE
  5
C9C9
  8
0
 10
4763.1932413286249357
 20
235.3933221333734025
 30
0.0
 11
4763.1932413286249357
 21
235.1252860258441046
 31
0.0
  0
LINE
  5
C9CA
  8
0
 10
4764.0052413286248338
 20
235.3933221333734025
 30
0.0
 11
4764.0052413286248338
 21
235.1607075197337053
 31
0.0
  0
ARC
  5
C9CB
  8
0
 10
4765.3492413286257943
 20
235.3933221333734025
 30
0.0
 40
2.1560000000000001
 50
90.0
 51
180.0
  0
ARC
  5
C9CC
  8
0
 10
4765.3492413286257943
 20
235.3933221333734025
 30
0.0
 40
1.3440000000000001
 50
90.0
 51
180.0
  0
LINE
  5
C9CD
  8
0
 10
4781.1136411195248002
 20
238.2253221333733109
 30
0.0
 11
4781.2132349202292971
 21
238.2253221333733109
 31
0.0
  0
LINE
  5
C9CE
  8
0
 10
4781.347741955809397
 20
238.2253221333733109
 30
0.0
 11
4781.447341119525845
 21
238.2253221333733109
 31
0.0
  0
LINE
  5
C9CF
  8
0
 10
4781.053641119526219
 20
237.5493221333734084
 30
0.0
 11
4765.3492413286257943
 21
237.5493221333734084
 31
0.0
  0
LINE
  5
C9D0
  8
0
 10
4781.053641119526219
 20
238.1653134413733994
 30
0.0
 11
4781.053641119526219
 21
236.1213308252735033
 31
0.0
  0
LINE
  5
C9D1
  8
0
 10
4781.447341119525845
 20
236.0613221332733929
 30
0.0
 11
4781.447341119525845
 21
238.2253221333733109
 31
0.0
  0
ARC
  5
C9D2
  8
0
 10
4781.1159348197970758
 20
238.1630287647055866
 30
0.0
 40
0.0623355824622389
 50
92.108731701163606
 51
177.8995679462518922
  0
LINE
  5
C9D3
  8
0
 10
4781.1136411195248002
 20
236.0613221332733929
 30
0.0
 11
4781.447341119525845
 21
236.0613221332733929
 31
0.0
  0
LINE
  5
C9D4
  8
0
 10
4781.053641119526219
 20
236.737322133273409
 30
0.0
 11
4765.3492413286257943
 21
236.737322133273409
 31
0.0
  0
ARC
  5
C9D5
  8
0
 10
4781.1159348197970758
 20
236.1236155019410887
 30
0.0
 40
0.0623355824622389
 50
182.1004320537464025
 51
267.891268298836394
  0
LINE
  5
C9D6
  8
0
 10
4763.214450458975989
 20
234.6433221333734025
 30
0.0
 11
4763.98403219827469
 21
234.6433221333734025
 31
0.0
  0
LINE
  5
C9D7
  8
0
 10
4763.193241328575823
 20
234.6968857799733996
 30
0.0
 11
4763.2389486166757706
 21
234.670481599373403
 31
0.0
  0
LINE
  5
C9D8
  8
0
 10
4763.193241328575823
 20
234.7682816088733944
 30
0.0
 11
4763.2389549560748492
 21
234.7415813057706089
 31
0.0
  0
LINE
  5
C9D9
  8
0
 10
4763.193241328575823
 20
234.8396721868734005
 30
0.0
 11
4763.2389628926757723
 21
234.8129681476823123
 31
0.0
  0
LINE
  5
C9DA
  8
0
 10
4763.193241328575823
 20
234.9133257707734117
 30
0.0
 11
4763.2389661385750514
 21
234.8846582607733922
 31
0.0
  0
LINE
  5
C9DB
  8
0
 10
4763.193241328575823
 20
234.9824721446734088
 30
0.0
 11
4763.2389413529153899
 21
234.9557802951779024
 31
0.0
  0
LINE
  5
C9DC
  8
0
 10
4763.193241328575823
 20
235.0538807345733971
 30
0.0
 11
4763.2389543881827194
 21
235.0271720042723018
 31
0.0
  0
LINE
  5
C9DD
  8
0
 10
4763.193241328575823
 20
235.1252860258734074
 30
0.0
 11
4763.2389627079746788
 21
235.0985763233915975
 31
0.0
  0
LINE
  5
C9DE
  8
0
 10
4764.0052413285748116
 20
234.6717354440733914
 30
0.0
 11
4763.9592986084762742
 21
234.6982781203734021
 31
0.0
  0
LINE
  5
C9DF
  8
0
 10
4764.0052413285748116
 20
234.7431838898733929
 30
0.0
 11
4763.9593033284745616
 21
234.7697212005734002
 31
0.0
  0
LINE
  5
C9E0
  8
0
 10
4764.0052413285748116
 20
234.8859987989733895
 30
0.0
 11
4763.9595360547764358
 21
234.9123914770734132
 31
0.0
  0
LINE
  5
C9E1
  8
0
 10
4764.0052413285748116
 20
234.814467881373389
 30
0.0
 11
4763.9593093417761338
 21
234.8410174305734017
 31
0.0
  0
LINE
  5
C9E2
  8
0
 10
4764.0052413285748116
 20
234.9573995846733965
 30
0.0
 11
4763.9595370617762455
 21
234.9837833167734118
 31
0.0
  0
LINE
  5
C9E3
  8
0
 10
4764.0052413285748116
 20
235.0287893586734072
 30
0.0
 11
4763.9595213499760575
 21
235.0551847552733875
 31
0.0
  0
LINE
  5
C9E4
  8
0
 10
4764.0052413285748116
 20
235.1001914318734123
 30
0.0
 11
4763.9595247299748735
 21
235.1265912101733875
 31
0.0
  0
LINE
  5
C9E5
  8
0
 10
4763.193241328575823
 20
235.0644883894734107
 30
0.0
 11
4763.193241328575823
 21
235.0538807345733971
 31
0.0
  0
LINE
  5
C9E6
  8
0
 10
4763.193241328575823
 20
234.99309387777339
 30
0.0
 11
4763.193241328575823
 21
234.9824721446734088
 31
0.0
  0
LINE
  5
C9E7
  8
0
 10
4763.193241328575823
 20
234.9217022980733987
 30
0.0
 11
4763.193241328575823
 21
234.9133257707734117
 31
0.0
  0
LINE
  5
C9E8
  8
0
 10
4763.193241328575823
 20
234.8502913339733027
 30
0.0
 11
4763.193241328575823
 21
234.8396721868734005
 31
0.0
  0
LINE
  5
C9E9
  8
0
 10
4763.193241328575823
 20
234.7788295112733863
 30
0.0
 11
4763.193241328575823
 21
234.7682816088733944
 31
0.0
  0
LINE
  5
C9EA
  8
0
 10
4763.193241328575823
 20
234.707365769073391
 30
0.0
 11
4763.193241328575823
 21
234.6968857799733996
 31
0.0
  0
LINE
  5
C9EB
  8
0
 10
4763.2389413529153899
 20
234.9557802951779024
 30
0.0
 11
4763.2389413538758163
 21
234.9480868315733915
 31
0.0
  0
LINE
  5
C9EC
  8
0
 10
4763.2389486166757706
 20
234.670481599373403
 30
0.0
 11
4763.2389486166757706
 21
234.6624575957733896
 31
0.0
  0
LINE
  5
C9ED
  8
0
 10
4763.2389543881827194
 20
235.0271720042723018
 30
0.0
 11
4763.2389543883746228
 21
235.0194825402734011
 31
0.0
  0
LINE
  5
C9EE
  8
0
 10
4763.2389549560748492
 20
234.7415813057706089
 30
0.0
 11
4763.2389549560748492
 21
234.7337560033734007
 31
0.0
  0
LINE
  5
C9EF
  8
0
 10
4763.2389627079746788
 20
235.0985763233915975
 30
0.0
 11
4763.2389627079746788
 21
235.0908882294733928
 31
0.0
  0
LINE
  5
C9F0
  8
0
 10
4763.2389628926757723
 20
234.8129681476823123
 30
0.0
 11
4763.2389628926757723
 21
234.8052116296734084
 31
0.0
  0
LINE
  5
C9F1
  8
0
 10
4763.2389661385750514
 20
234.8846582607733922
 30
0.0
 11
4763.2389661385750514
 21
234.8766698489733074
 31
0.0
  0
LINE
  5
C9F2
  8
0
 10
4763.9592986084762742
 20
234.6982781203734021
 30
0.0
 11
4763.9592986087745885
 21
234.7060693331733887
 31
0.0
  0
LINE
  5
C9F3
  8
0
 10
4763.9593033284745616
 20
234.7697212005734002
 30
0.0
 11
4763.9593033284745616
 21
234.7774666083734019
 31
0.0
  0
LINE
  5
C9F4
  8
0
 10
4763.9593093417761338
 20
234.8410174305734017
 30
0.0
 11
4763.9593093422754464
 21
234.8488724204734126
 31
0.0
  0
LINE
  5
C9F5
  8
0
 10
4763.9595213499760575
 20
235.0551847552733875
 30
0.0
 11
4763.959521350076102
 21
235.0631845694734068
 31
0.0
  0
LINE
  5
C9F6
  8
0
 10
4763.9595247299748735
 20
235.1265912101733875
 30
0.0
 11
4763.9595247300758274
 21
235.1345915361733887
 31
0.0
  0
LINE
  5
C9F7
  8
0
 10
4763.9595360547764358
 20
234.9123914770734132
 30
0.0
 11
4763.9595360553748833
 21
234.9203921111734132
 31
0.0
  0
LINE
  5
C9F8
  8
0
 10
4763.9595370617762455
 20
234.9837833167734118
 30
0.0
 11
4763.9595370624747375
 21
234.9917826244733021
 31
0.0
  0
LINE
  5
C9F9
  8
0
 10
4764.0052413285748116
 20
235.1001914318734123
 30
0.0
 11
4764.0052413285748116
 21
235.0895851832734138
 31
0.0
  0
LINE
  5
C9FA
  8
0
 10
4764.0052413285748116
 20
235.0287893586734072
 30
0.0
 11
4764.0052413285748116
 21
235.0181749898733869
 31
0.0
  0
LINE
  5
C9FB
  8
0
 10
4764.0052413285748116
 20
234.9573995846733965
 30
0.0
 11
4764.0052413285748116
 21
234.9467755196733947
 31
0.0
  0
LINE
  5
C9FC
  8
0
 10
4764.0052413285748116
 20
234.8859987989733895
 30
0.0
 11
4764.0052413285748116
 21
234.8753746737733934
 31
0.0
  0
LINE
  5
C9FD
  8
0
 10
4764.0052413285748116
 20
234.814467881373389
 30
0.0
 11
4764.0052413285748116
 21
234.8039758595733986
 31
0.0
  0
LINE
  5
C9FE
  8
0
 10
4764.0052413285748116
 20
234.7431838898733929
 30
0.0
 11
4764.0052413285748116
 21
234.7325855857733927
 31
0.0
  0
LINE
  5
C9FF
  8
0
 10
4764.0052413285748116
 20
234.6717354440733914
 30
0.0
 11
4764.0052413285748116
 21
234.6611820933734123
 31
0.0
  0
LINE
  5
CA00
  8
0
 10
4763.2389627079746788
 20
235.0908882294733928
 30
0.0
 11
4763.193241328575823
 21
235.0644883894734107
 31
0.0
  0
LINE
  5
CA01
  8
0
 10
4763.2389543883746228
 20
235.0194825402734011
 30
0.0
 11
4763.193241328575823
 21
234.99309387777339
 31
0.0
  0
LINE
  5
CA02
  8
0
 10
4763.2389413538758163
 20
234.9480868315733915
 30
0.0
 11
4763.193241328575823
 21
234.9217022980733987
 31
0.0
  0
LINE
  5
CA03
  8
0
 10
4763.2389628926757723
 20
234.8052116296734084
 30
0.0
 11
4763.193241328575823
 21
234.7788295112733863
 31
0.0
  0
LINE
  5
CA04
  8
0
 10
4763.2389661385750514
 20
234.8766698489733074
 30
0.0
 11
4763.193241328575823
 21
234.8502913339733027
 31
0.0
  0
LINE
  5
CA05
  8
0
 10
4763.2389549560748492
 20
234.7337560033734007
 30
0.0
 11
4763.193241328575823
 21
234.707365769073391
 31
0.0
  0
LINE
  5
CA06
  8
0
 10
4763.9595247300758274
 20
235.1345915361733887
 30
0.0
 11
4764.0052413286757655
 21
235.1607075197622976
 31
0.0
  0
LINE
  5
CA07
  8
0
 10
4763.2389486166757706
 20
234.6624575957733896
 30
0.0
 11
4763.214450458975989
 21
234.6433221333734025
 31
0.0
  0
LINE
  5
CA08
  8
0
 10
4763.959521350076102
 20
235.0631845694734068
 30
0.0
 11
4764.0052413285748116
 21
235.0895851832734138
 31
0.0
  0
LINE
  5
CA09
  8
0
 10
4763.9595370624747375
 20
234.9917826244733021
 30
0.0
 11
4764.0052413285748116
 21
235.0181749898733869
 31
0.0
  0
LINE
  5
CA0A
  8
0
 10
4763.9595360553748833
 20
234.9203921111734132
 30
0.0
 11
4764.0052413285748116
 21
234.9467755196733947
 31
0.0
  0
LINE
  5
CA0B
  8
0
 10
4763.9593093422754464
 20
234.8488724204734126
 30
0.0
 11
4764.0052413285748116
 21
234.8753746737733934
 31
0.0
  0
LINE
  5
CA0C
  8
0
 10
4763.9593033284745616
 20
234.7774666083734019
 30
0.0
 11
4764.0052413285748116
 21
234.8039758595733986
 31
0.0
  0
LINE
  5
CA0D
  8
0
 10
4763.9592986087745885
 20
234.7060693331733887
 30
0.0
 11
4764.0052413285748116
 21
234.7325855857733927
 31
0.0
  0
LINE
  5
CA0E
  8
0
 10
4763.98403219827469
 20
234.6433221333734025
 30
0.0
 11
4764.0052413285748116
 21
234.6611820933734123
 31
0.0
  0
LINE
  5
CA0F
  8
0
 10
4763.2389486166757706
 20
234.6664695975734105
 30
0.0
 11
4763.9592986086263409
 21
234.7021737267733954
 31
0.0
  0
LINE
  5
CA10
  8
0
 10
4763.2389549560748492
 20
234.7376686545719906
 30
0.0
 11
4763.9593033284745616
 21
234.7735939044733868
 31
0.0
  0
LINE
  5
CA11
  8
0
 10
4763.2389628926757723
 20
234.8090898886777893
 30
0.0
 11
4763.9593093420262448
 21
234.8449449255234072
 31
0.0
  0
LINE
  5
CA12
  8
0
 10
4763.2389661385750514
 20
234.8806640548733924
 30
0.0
 11
4763.95953605507475
 21
234.916391794123399
 31
0.0
  0
LINE
  5
CA13
  8
0
 10
4763.2389413533946936
 20
234.9519335633756043
 30
0.0
 11
4763.959537062126401
 21
234.9877829706234138
 31
0.0
  0
LINE
  5
CA14
  8
0
 10
4763.2389543882800353
 20
235.0233272722728088
 30
0.0
 11
4763.9595213500260797
 21
235.0591846623734114
 31
0.0
  0
LINE
  5
CA15
  8
0
 10
4763.2389627079746788
 20
235.0947322764324952
 30
0.0
 11
4763.9595247300248957
 21
235.1305913731733881
 31
0.0
  0
LINE
  5
CA16
  8
0
 10
4763.5384472780961005
 20
234.6433221333734025
 30
0.0
 11
4764.0052413285748116
 21
234.6664587687234018
 31
0.0
  0
LINE
  5
CA17
  8
0
 10
4763.193241328575823
 20
234.7021257745234095
 30
0.0
 11
4764.0052413285748116
 21
234.737884737823407
 31
0.0
  0
LINE
  5
CA18
  8
0
 10
4763.193241328575823
 20
234.7735555600733051
 30
0.0
 11
4764.0052413285748116
 21
234.809221870473408
 31
0.0
  0
LINE
  5
CA19
  8
0
 10
4763.193241328575823
 20
234.8449817604233942
 30
0.0
 11
4764.0052413285748116
 21
234.8806867363734057
 31
0.0
  0
LINE
  5
CA1A
  8
0
 10
4763.193241328575823
 20
234.917514034423391
 30
0.0
 11
4764.0052413285748116
 21
234.9520875521733956
 31
0.0
  0
LINE
  5
CA1B
  8
0
 10
4763.193241328575823
 20
234.9877830112233994
 30
0.0
 11
4764.0052413285748116
 21
235.023482174273397
 31
0.0
  0
LINE
  5
CA1C
  8
0
 10
4763.193241328575823
 20
235.0591845620234039
 30
0.0
 11
4764.0052413285748116
 21
235.0948883075733988
 31
0.0
  0
ARC
  5
CA1D
  8
0
 10
4781.2804884380193471
 20
239.2945744866931932
 30
0.0
 40
1.0713653115231969
 50
266.4009681041817998
 51
273.5990318958182002
  0
ENDSEC
  0
EOF
