  0
SECTION
  2
HEADER
  9
$ACADVER
  1
AC1009
  9
$INSBASE
 10
4770.4335638255543017
 20
236.9356597336818879
 30
0.0
  9
$EXTMIN
 10
4769.5480836295537301
 20
235.5773920171818929
 30
0.0
  9
$EXTMAX
 10
4771.3190440215548733
 20
237.8214865052819107
 30
0.0
  9
$LIMMIN
 10
0.0
 20
0.0
  9
$LIMMAX
 10
11.6929133858000007
 20
8.2677165353999982
  9
$ORTHOMODE
 70
     1
  9
$REGENMODE
 70
     1
  9
$FILLMODE
 70
     1
  9
$QTEXTMODE
 70
     0
  9
$MIRRTEXT
 70
     0
  9
$DRAGMODE
 70
     2
  9
$LTSCALE
 40
0.6431102362
  9
$OSMODE
 70
  4095
  9
$ATTMODE
 70
     1
  9
$TEXTSIZE
 40
0.2
  9
$TRACEWID
 40
0.05
  9
$TEXTSTYLE
  7
STANDARD
  9
$CLAYER
  8
0
  9
$CELTYPE
  6
BYLAYER
  9
$CECOLOR
 62
   256
  9
$DIMSCALE
 40
1.0
  9
$DIMASZ
 40
0.1875
  9
$DIMEXO
 40
0.0625
  9
$DIMDLI
 40
0.4443307087
  9
$DIMRND
 40
0.0
  9
$DIMDLE
 40
0.0
  9
$DIMEXE
 40
0.125
  9
$DIMTP
 40
0.01
  9
$DIMTM
 40
0.01
  9
$DIMTXT
 40
2.0
  9
$DIMCEN
 40
0.1052362205
  9
$DIMTSZ
 40
0.0
  9
$DIMTOL
 70
     1
  9
$DIMLIM
 70
     0
  9
$DIMTIH
 70
     1
  9
$DIMTOH
 70
     1
  9
$DIMSE1
 70
     0
  9
$DIMSE2
 70
     0
  9
$DIMTAD
 70
     0
  9
$DIMZIN
 70
     0
  9
$DIMBLK
  1

  9
$DIMASO
 70
     1
  9
$DIMSHO
 70
     1
  9
$DIMPOST
  1
\X
  9
$DIMAPOST
  1

  9
$DIMALT
 70
     1
  9
$DIMALTD
 70
     2
  9
$DIMALTF
 40
25.3999999999999986
  9
$DIMLFAC
 40
1.0
  9
$DIMTOFL
 70
     0
  9
$DIMTVP
 40
0.0
  9
$DIMTIX
 70
     0
  9
$DIMSOXD
 70
     0
  9
$DIMSAH
 70
     0
  9
$DIMBLK1
  1

  9
$DIMBLK2
  1

  9
$DIMSTYLE
  2
STANDARD
  9
$DIMCLRD
 70
     0
  9
$DIMCLRE
 70
     0
  9
$DIMCLRT
 70
     0
  9
$DIMTFAC
 40
1.0
  9
$DIMGAP
 40
0.09
  9
$LUNITS
 70
     2
  9
$LUPREC
 70
     4
  9
$SKETCHINC
 40
0.1
  9
$FILLETRAD
 40
0.0
  9
$AUNITS
 70
     0
  9
$AUPREC
 70
     0
  9
$MENU
  1
.
  9
$ELEVATION
 40
0.0
  9
$PELEVATION
 40
0.0
  9
$THICKNESS
 40
0.0
  9
$LIMCHECK
 70
     0
  9
$BLIPMODE
 70
     0
  9
$CHAMFERA
 40
0.0
  9
$CHAMFERB
 40
0.0
  9
$SKPOLY
 70
     0
  9
$TDCREATE
 40
2458060.468368056230247
  9
$TDUPDATE
 40
2459245.7306249998509884
  9
$TDINDWG
 40
0.3663380787
  9
$TDUSRTIMER
 40
0.3663380787
  9
$USRTIMER
 70
     1
  9
$ANGBASE
 50
0.0
  9
$ANGDIR
 70
     0
  9
$PDMODE
 70
     0
  9
$PDSIZE
 40
0.3125
  9
$PLINEWID
 40
0.0
  9
$COORDS
 70
     1
  9
$SPLFRAME
 70
     0
  9
$SPLINETYPE
 70
     6
  9
$SPLINESEGS
 70
     8
  9
$ATTDIA
 70
     1
  9
$ATTREQ
 70
     1
  9
$HANDLING
 70
     1
  9
$HANDSEED
  5
CCB7
  9
$SURFTAB1
 70
     6
  9
$SURFTAB2
 70
     6
  9
$SURFTYPE
 70
     6
  9
$SURFU
 70
     6
  9
$SURFV
 70
     6
  9
$UCSNAME
  2

  9
$UCSORG
 10
0.0
 20
0.0
 30
0.0
  9
$UCSXDIR
 10
1.0
 20
0.0
 30
0.0
  9
$UCSYDIR
 10
0.0
 20
1.0
 30
0.0
  9
$PUCSNAME
  2

  9
$PUCSORG
 10
0.0
 20
0.0
 30
0.0
  9
$PUCSXDIR
 10
1.0
 20
0.0
 30
0.0
  9
$PUCSYDIR
 10
0.0
 20
1.0
 30
0.0
  9
$USERI1
 70
     0
  9
$USERI2
 70
     0
  9
$USERI3
 70
     0
  9
$USERI4
 70
     0
  9
$USERI5
 70
     0
  9
$USERR1
 40
0.0
  9
$USERR2
 40
0.0
  9
$USERR3
 40
0.0
  9
$USERR4
 40
0.0
  9
$USERR5
 40
0.0
  9
$WORLDVIEW
 70
     1
  9
$SHADEDGE
 70
     3
  9
$SHADEDIF
 70
    70
  9
$TILEMODE
 70
     1
  9
$MAXACTVP
 70
    64
  9
$PLIMCHECK
 70
     0
  9
$PEXTMIN
 10
1.0000000000000000E+20
 20
1.0000000000000000E+20
 30
1.0000000000000000E+20
  9
$PEXTMAX
 10
-1.0000000000000000E+20
 20
-1.0000000000000000E+20
 30
-1.0000000000000000E+20
  9
$PLIMMIN
 10
0.0
 20
0.0
  9
$PLIMMAX
 10
12.0
 20
9.0
  9
$UNITMODE
 70
     0
  9
$VISRETAIN
 70
     1
  9
$PLINEGEN
 70
     0
  9
$PSLTSCALE
 70
     1
  0
ENDSEC
  0
SECTION
  2
TABLES
  0
TABLE
  2
VPORT
 70
     1
  0
VPORT
  2
*ACTIVE
 70
     0
 10
0.0
 20
0.0
 11
1.0
 21
1.0
 12
0.0
 22
0.0
 13
0.0
 23
0.0
 14
1.0
 24
1.0
 15
0.0
 25
0.0
 16
0.0
 26
0.0
 36
8.1001703053618463
 17
4770.433349609375
 27
236.6994400024414063
 37
0.0
 40
2.8587794955545571
 41
2.1186252771618621
 42
50.0
 43
0.0
 44
0.0
 50
0.0
 51
0.0
 71
     0
 72
   100
 73
     1
 74
     1
 75
     0
 76
     0
 77
     0
 78
     0
  0
ENDTAB
  0
TABLE
  2
LTYPE
 70
     2
  0
LTYPE
  2
CONTINUOUS
 70
     0
  3
Solid line
 72
    65
 73
     0
 40
0.0
  0
LTYPE
  2
PHANTOM2
 70
     0
  3
___ _ _ ___ _ _ ___ _ _ ___ _ _
 72
    65
 73
     6
 40
1.25
 49
0.625
 49
-0.125
 49
0.125
 49
-0.125
 49
0.125
 49
-0.125
  0
ENDTAB
  0
TABLE
  2
LAYER
 70
     2
  0
LAYER
  2
0
 70
     0
 62
   255
  6
CONTINUOUS
  0
LAYER
  2
DEFPOINTS
 70
     0
 62
     7
  6
CONTINUOUS
  0
ENDTAB
  0
TABLE
  2
STYLE
 70
     1
  0
STYLE
  2
STANDARD
 70
     0
 40
0.0
 41
0.8
 50
0.0
 71
     0
 42
0.2
  3
txt
  4

  0
ENDTAB
  0
TABLE
  2
VIEW
 70
     0
  0
ENDTAB
  0
TABLE
  2
UCS
 70
     0
  0
ENDTAB
  0
TABLE
  2
APPID
 70
     9
  0
APPID
  2
ACAD
 70
     0
  0
APPID
  2
ACAD_MLEADERVER
 70
     0
  0
APPID
  2
ACAD_EXEMPT_FROM_CAD_STANDARDS
 70
     0
  0
APPID
  2
ACAD_NAV_VCDISPLAY
 70
     0
  0
APPID
  2
ACAECLAYERSTANDARD
 70
     0
  0
APPID
  2
ACCMTRANSPARENCY
 70
     0
  0
APPID
  2
ACAD_DSTYLE_DIMJAG
 70
     0
  0
APPID
  2
ACAD_DSTYLE_DIMTALN
 70
     0
  0
APPID
  2
ACDBATTR
 70
     0
  0
ENDTAB
  0
TABLE
  2
DIMSTYLE
 70
     1
  0
DIMSTYLE
  2
STANDARD
 70
     0
  3

  4

  5

  6

  7

 40
1.0
 41
0.1875
 42
0.0625
 43
0.38
 44
0.125
 45
0.0
 46
0.0
 47
0.01
 48
0.01
140
0.15625
141
0.09
142
0.0
143
25.3999999999999986
144
1.0
145
0.0
146
1.0
147
0.09
 71
     1
 72
     0
 73
     1
 74
     1
 75
     0
 76
     0
 77
     0
 78
     4
170
     0
171
     2
172
     0
173
     0
174
     0
175
     0
176
     0
177
     0
178
     0
  0
ENDTAB
  0
ENDSEC
  0
SECTION
  2
BLOCKS
  0
BLOCK
  8
0
  2
$MODEL_SPACE
 70
     0
 10
0.0
 20
0.0
 30
0.0
  3
$MODEL_SPACE
  1

  0
ENDBLK
  5
21
  8
0
  0
BLOCK
 67
     1
  8
0
  2
$PAPER_SPACE
 70
     0
 10
0.0
 20
0.0
 30
0.0
  3
$PAPER_SPACE
  1

  0
ENDBLK
  5
1D
 67
     1
  8
0
  0
ENDSEC
  0
SECTION
  2
ENTITIES
  0
ATTDEF
  5
3930
  8
DEFPOINTS
 10
4770.4284812022306141
 20
236.9333962982825028
 30
0.0
 40
0.001
  1
K-26310W
  3

  2
MODELNUMBER
 70
     0
1001
ACDBATTR
1070
     0
1070
     1
  0
ATTDEF
  5
3931
  8
DEFPOINTS
 10
4770.4284812022306141
 20
236.9317296316158092
 30
0.0
 40
0.001
  1

  3

  2
TRADENAME
 70
     0
1001
ACDBATTR
1070
     0
1070
     1
  0
ATTDEF
  5
3932
  8
DEFPOINTS
 10
4770.4284812022306141
 20
236.9300629649492009
 30
0.0
 40
0.001
  1
WALL BRACKET
  3

  2
PRODUCT
 70
     0
1001
ACDBATTR
1070
     0
1070
     1
  0
LINE
  5
CB04
  8
0
 10
4770.0238630381536495
 20
235.6323516945818994
 30
0.0
 11
4770.0635793355550049
 21
235.6113615542818991
 31
0.0
  0
LINE
  5
CB05
  8
0
 10
4770.0785638255538288
 20
235.5773920171818929
 30
0.0
 11
4770.7885638255538652
 21
235.5773920171818929
 31
0.0
  0
LINE
  5
CB06
  8
0
 10
4770.0238630381536495
 20
235.7037740048818932
 30
0.0
 11
4770.0635982264548147
 21
235.6828283016818943
 31
0.0
  0
LINE
  5
CB07
  8
0
 10
4770.0785638255538288
 20
235.5773920171818929
 30
0.0
 11
4770.0588183176550956
 21
235.5971375250819051
 31
0.0
  0
LINE
  5
CB08
  8
0
 10
4770.0238630381536495
 20
235.7752119466819067
 30
0.0
 11
4770.0636057429537686
 21
235.7541824986818995
 31
0.0
  0
LINE
  5
CB09
  8
0
 10
4770.0561020079549053
 20
235.8298514594818869
 30
0.0
 11
4770.0636162078553753
 21
235.8256092128818864
 31
0.0
  0
LINE
  5
CB0A
  8
0
 10
4769.5628574608554118
 20
236.0888594829818885
 30
0.0
 11
4769.5480836295537301
 21
237.7817728621818958
 31
0.0
  0
LINE
  5
CB0B
  8
0
 10
4769.8218687609551125
 20
237.4566511232818868
 30
0.0
 11
4769.8173977726510202
 21
237.4454725719207033
 31
0.0
  0
LINE
  5
CB0C
  8
0
 10
4770.8317972815539179
 20
235.6206254731818888
 30
0.0
 11
4770.8035459480552163
 21
235.6356635959818959
 31
0.0
  0
LINE
  5
CB0D
  8
0
 10
4770.0091542150548776
 20
235.951407765181898
 30
0.0
 11
4770.8579734360382645
 21
235.951407765181898
 31
0.0
  0
LINE
  5
CB0E
  8
0
 10
4770.8432646129549539
 20
235.6860859583819092
 30
0.0
 11
4770.8035145121548339
 21
235.7071076275819053
 31
0.0
  0
LINE
  5
CB0F
  8
0
 10
4769.8359591061553147
 20
236.7240217866819023
 30
0.0
 11
4769.8359591061553147
 21
237.7772177291818991
 31
0.0
  0
LINE
  5
CB10
  8
0
 10
4771.2649016105551709
 20
236.0498329620818936
 30
0.0
 11
4769.6022260405552515
 21
236.0498329620818936
 31
0.0
  0
LINE
  5
CB11
  8
0
 10
4770.8432646129549539
 20
235.7575159583819016
 30
0.0
 11
4770.8035392138554016
 21
235.7785307247818878
 31
0.0
  0
LINE
  5
CB12
  8
0
 10
4769.9591543767537587
 20
236.0498329620818936
 30
0.0
 11
4769.9591543767537587
 21
236.0014077651819093
 31
0.0
  0
LINE
  5
CB13
  8
0
 10
4770.0238630381536495
 20
235.7932142339818995
 30
0.0
 11
4770.0238630381536495
 21
235.7752119466819067
 31
0.0
  0
LINE
  5
CB14
  8
0
 10
4770.0238630381536495
 20
235.6503170103819116
 30
0.0
 11
4770.0238630381536495
 21
235.6323516945818994
 31
0.0
  0
LINE
  5
CB15
  8
0
 10
4770.0238630381536495
 20
235.7037740048818932
 30
0.0
 11
4770.0238630381536495
 21
235.7218009583818912
 31
0.0
  0
LINE
  5
CB16
  8
0
 10
4769.8173977723554344
 20
237.0557686058778017
 30
0.0
 11
4769.821868758554956
 21
237.0445896290819121
 31
0.0
  0
LINE
  5
CB17
  8
0
 10
4770.0792331168549936
 20
235.8529825683818899
 30
0.0
 11
4770.0792331168549936
 21
235.951407765181898
 31
0.0
  0
LINE
  5
CB18
  8
0
 10
4770.121392177054986
 20
237.7790227381819079
 30
0.0
 11
4770.121392177054986
 21
236.7222180049818974
 31
0.0
  0
LINE
  5
CB19
  8
0
 10
4770.8345135912550177
 20
235.8063635113819032
 30
0.0
 11
4770.7878945342536099
 21
235.8529825683818899
 31
0.0
  0
LINE
  5
CB1A
  8
0
 10
4769.5967288009551339
 20
236.6797542218818933
 30
0.0
 11
4771.2703988501552885
 21
236.6797542218818933
 31
0.0
  0
LINE
  5
CB1B
  8
0
 10
4770.433563825505189
 20
236.6797542218818933
 30
0.0
 11
4769.874992804255271
 21
236.6846531443819117
 31
0.0
  0
LINE
  5
CB1C
  8
0
 10
4770.0561020079549053
 20
235.8298514594818869
 30
0.0
 11
4770.0792331168549936
 21
235.8529825683818899
 31
0.0
  0
LINE
  5
CB1D
  8
0
 10
4769.8359591061553147
 20
237.0558490288024132
 30
0.0
 11
4769.8173954286303342
 21
237.0559398725725941
 31
0.0
  0
LINE
  5
CB1E
  8
0
 10
4770.8432646129549539
 20
235.6680590048819113
 30
0.0
 11
4770.8432646129549539
 21
235.6860859583819092
 31
0.0
  0
LINE
  5
CB1F
  8
0
 10
4770.8432646129549539
 20
235.7394890048819036
 30
0.0
 11
4770.8432646129549539
 21
235.7575159583819016
 31
0.0
  0
LINE
  5
CB20
  8
0
 10
4770.063622491255046
 20
235.8142494791819104
 30
0.0
 11
4770.0238630381536495
 21
235.7932142339818995
 31
0.0
  0
LINE
  5
CB21
  8
0
 10
4770.0636278110550847
 20
235.7428227743818923
 30
0.0
 11
4770.0238630381536495
 21
235.7218009583818912
 31
0.0
  0
LINE
  5
CB22
  8
0
 10
4770.0636583168552534
 20
235.6713662421819038
 30
0.0
 11
4770.0238630381536495
 21
235.6503170103819116
 31
0.0
  0
LINE
  5
CB23
  8
0
 10
4769.8173948218982332
 20
237.4452569223325895
 30
0.0
 11
4769.8359591061553147
 21
237.4454187166622035
 31
0.0
  0
LINE
  5
CB24
  8
0
 10
4770.0636367878551027
 20
235.5999287738819135
 30
0.0
 11
4770.0588183176550956
 21
235.5971375250819051
 31
0.0
  0
LINE
  5
CB25
  8
0
 10
4770.7885638255538652
 20
235.5773920171818929
 30
0.0
 11
4770.8317972815539179
 21
235.6206254731818888
 31
0.0
  0
LINE
  5
CB26
  8
0
 10
4770.803519948453868
 20
235.7899062813818887
 30
0.0
 11
4770.8345135912550177
 21
235.8063635113819032
 31
0.0
  0
LINE
  5
CB27
  8
0
 10
4770.8035363102553674
 20
235.7184768516819133
 30
0.0
 11
4770.8432646129549539
 21
235.7394890048819036
 31
0.0
  0
LINE
  5
CB28
  8
0
 10
4770.8035509867540895
 20
235.6471024282818973
 30
0.0
 11
4770.8432646129549539
 21
235.6680590048819113
 31
0.0
  0
LINE
  5
CB29
  8
0
 10
4769.8749921364551483
 20
237.8165875928818878
 30
0.0
 11
4770.4335638255543017
 21
237.8214865052819107
 31
0.0
  0
ARC
  5
CB2A
  8
0
 10
4831.6968828477511124
 20
236.8116702367875064
 30
0.0
 40
61.8754524829986607
 50
179.7843194816873904
 51
180.0856962177487048
  0
ARC
  5
CB2B
  8
0
 10
4770.0117799702138655
 20
236.0040333501515022
 30
0.0
 40
0.05269105031659
 50
182.8562205822304065
 51
267.1435941362782955
  0
ARC
  5
CB2C
  8
0
 10
4769.877174946537707
 20
236.7258518441663
 30
0.0
 40
0.0412564493002941
 50
182.5423658216153058
 51
266.9680882749057105
  0
ARC
  5
CB2D
  8
0
 10
4770.0795502915580073
 20
236.7247016885380049
 30
0.0
 40
0.0419155348996251
 50
272.9149511799038805
 51
356.602978066712808
  0
ARC
  5
CB2E
  8
0
 10
4769.8780924225129638
 20
237.7744793604697122
 30
0.0
 40
0.0422222099199137
 50
94.2108955929025313
 51
176.2814080071327112
  0
ARC
  5
CB2F
  8
0
 10
4770.08075321931301
 20
237.7777520373803952
 30
0.0
 40
0.0406588190531598
 50
1.7909435606644779
 51
88.6957268493757454
  0
ARC
  5
CB30
  8
0
 10
4769.6043106211027407
 20
236.0913058922508867
 30
0.0
 40
0.0415252864272636
 50
183.3774634380093005
 51
267.1225270222290078
  0
ARC
  5
CB31
  8
0
 10
4769.5901944354891384
 20
237.7793980269734107
 30
0.0
 40
0.0421777169965904
 50
93.727771527608482
 51
176.7722284725001884
  0
ARC
  5
CB32
  8
0
 10
4769.5989974355770755
 20
236.721412384988497
 30
0.0
 40
0.0417198904176564
 50
183.6062527588950957
 51
266.8828457607996256
  0
ARC
  5
CB33
  8
0
 10
4769.7789527975655801
 20
237.7801342445488899
 30
0.0
 40
0.0413977882714295
 50
0.4745087558544365
 51
87.3126393417806099
  0
LINE
  5
CB34
  8
0
 10
4769.8203491661661246
 20
237.7804770863536987
 30
0.0
 11
4769.8218687609551125
 21
237.4566511232818868
 31
0.0
  0
ARC
  5
CB35
  8
0
 10
4784.0498681109083918
 20
237.2506205780740913
 30
0.0
 40
14.2338041025185706
 50
179.2156316386181913
 51
180.784368274224704
  0
ARC
  5
CB36
  8
0
 10
4769.7797602031369024
 20
236.7214865094765059
 30
0.0
 40
0.0418061602482015
 50
273.4066170143776162
 51
356.7608736093724247
  0
LINE
  5
CB37
  8
0
 10
4771.3042701902550107
 20
236.0888594829818885
 30
0.0
 11
4771.3190440215548733
 21
237.7817728621818958
 31
0.0
  0
LINE
  5
CB38
  8
0
 10
4771.0452588901553099
 20
237.4566511232818868
 30
0.0
 11
4771.0497298784575833
 21
237.4454725719207033
 31
0.0
  0
LINE
  5
CB39
  8
0
 10
4771.0311685449551078
 20
236.7240217866819023
 30
0.0
 11
4771.0311685449551078
 21
237.7772177291818991
 31
0.0
  0
LINE
  5
CB3A
  8
0
 10
4770.9079732743539353
 20
236.0498329620818936
 30
0.0
 11
4770.9079732743539353
 21
236.0014077651819093
 31
0.0
  0
LINE
  5
CB3B
  8
0
 10
4771.049729878754988
 20
237.0557686058778017
 30
0.0
 11
4771.045258892554557
 21
237.0445896290819121
 31
0.0
  0
LINE
  5
CB3C
  8
0
 10
4770.7878945342536099
 20
235.8529825683818899
 30
0.0
 11
4770.7878945342536099
 21
235.951407765181898
 31
0.0
  0
LINE
  5
CB3D
  8
0
 10
4770.7457354740536175
 20
237.7790227381819079
 30
0.0
 11
4770.7457354740536175
 21
236.7222180049818974
 31
0.0
  0
LINE
  5
CB3E
  8
0
 10
4770.4335638256052334
 20
236.6797542218818933
 30
0.0
 11
4770.9921348468560609
 21
236.6846531443819117
 31
0.0
  0
LINE
  5
CB3F
  8
0
 10
4771.0311685449551078
 20
237.0558412819819125
 30
0.0
 11
4771.0497322224800882
 21
237.0559398725725089
 31
0.0
  0
LINE
  5
CB40
  8
0
 10
4771.0497328292112797
 20
237.4452569223325895
 30
0.0
 11
4771.0311685449551078
 21
237.4454187166622887
 31
0.0
  0
LINE
  5
CB41
  8
0
 10
4770.9921355146561837
 20
237.8165875928818878
 30
0.0
 11
4770.4335638255543017
 21
237.8214865052819107
 31
0.0
  0
ARC
  5
CB42
  8
0
 10
4709.17024480335931
 20
236.8116702367875064
 30
0.0
 40
61.8754524829986607
 50
359.9143037822511815
 51
0.2156805183126154
  0
ARC
  5
CB43
  8
0
 10
4770.855347680894738
 20
236.0040333501515022
 30
0.0
 40
0.05269105031659
 50
272.8564058637215908
 51
357.1437794177696219
  0
ARC
  5
CB44
  8
0
 10
4770.989952704571806
 20
236.7258518441663
 30
0.0
 40
0.0412564493002941
 50
273.0319117250942895
 51
357.4576341783845805
  0
ARC
  5
CB45
  8
0
 10
4770.7875773595505962
 20
236.7247016885380049
 30
0.0
 40
0.0419155348996251
 50
183.397021933287192
 51
267.0850488200961195
  0
ARC
  5
CB46
  8
0
 10
4770.9890352285965491
 20
237.7744793604697122
 30
0.0
 40
0.0422222099199137
 50
3.718591992867323
 51
85.7891044070974544
  0
ARC
  5
CB47
  8
0
 10
4770.7863744317946839
 20
237.7777520373803952
 30
0.0
 40
0.0406588190531598
 50
91.3042731506242546
 51
178.2090564393355123
  0
ARC
  5
CB48
  8
0
 10
4771.2628170300067723
 20
236.0913058922508867
 30
0.0
 40
0.0415252864272636
 50
272.8774729777709922
 51
356.6225365619907279
  0
ARC
  5
CB49
  8
0
 10
4771.2769332156203745
 20
237.7793980269734107
 30
0.0
 40
0.0421777169965904
 50
3.2277715274997791
 51
86.2722284723915038
  0
ARC
  5
CB4A
  8
0
 10
4771.2681302155333469
 20
236.721412384988497
 30
0.0
 40
0.0417198904176564
 50
273.1171542392003744
 51
356.3937472411049043
  0
ARC
  5
CB4B
  8
0
 10
4771.0881749318878065
 20
237.7801341691732091
 30
0.0
 40
0.0413978672375513
 50
92.6874640786245863
 51
179.5253878237053868
  0
LINE
  5
CB4C
  8
0
 10
4771.0467784849433883
 20
237.7804770863536987
 30
0.0
 11
4771.0452588901553099
 21
237.4566511232818868
 31
0.0
  0
ARC
  5
CB4D
  8
0
 10
4756.8172595402011211
 20
237.2506205780740913
 30
0.0
 40
14.2338041025185706
 50
359.2156317257752107
 51
0.7843683613817402
  0
ARC
  5
CB4E
  8
0
 10
4771.0873674479726105
 20
236.7214865094765059
 30
0.0
 40
0.0418061602482015
 50
183.2391263906276038
 51
266.5933829856223838
  0
LINE
  5
CB4F
  8
0
 10
4769.5874522092535699
 20
237.8214865052819107
 30
0.0
 11
4771.2796754418550336
 21
237.8214865052819107
 31
0.0
  0
ARC
  5
CB50
  8
0
 10
4770.0600412937983492
 20
235.6056272402686886
 30
0.0
 40
0.0067379593847951
 50
302.2502123625304193
 51
58.3256312187584882
  0
ARC
  5
CB51
  8
0
 10
4770.0601688998240206
 20
235.6770791360081034
 30
0.0
 40
0.0066942652380752
 50
301.4164500898373262
 51
59.1842961840221804
  0
ARC
  5
CB52
  8
0
 10
4770.0601920429126039
 20
235.7484959834324911
 30
0.0
 40
0.0066324809578743
 50
301.1996350738319848
 51
59.0229772656956797
  0
ARC
  5
CB53
  8
0
 10
4770.0602131552323044
 20
235.8199274619665005
 30
0.0
 40
0.0066229193420215
 50
300.9826460981412879
 51
59.0807378285987213
  0
ARC
  5
CB54
  8
0
 10
4770.8069432326210517
 20
235.784224284369202
 30
0.0
 40
0.0066335484117517
 50
121.0680828561488056
 51
239.1259867782684125
  0
ARC
  5
CB55
  8
0
 10
4770.8069938521566655
 20
235.7127855896245876
 30
0.0
 40
0.0066592086472827
 50
121.2794175225944997
 51
238.5008774931575033
  0
ARC
  5
CB56
  8
0
 10
4770.8069281562493416
 20
235.6413815234101889
 30
0.0
 40
0.0066433445155861
 50
120.5542399353332002
 51
239.3952835443496951
  0
LINE
  5
CB57
  8
0
 10
4770.0238630381536495
 20
235.6413343524818913
 30
0.0
 11
4770.8432646129549539
 21
235.6770724816319103
 31
0.0
  0
LINE
  5
CB58
  8
0
 10
4770.0238630381536495
 20
235.7127874816318922
 30
0.0
 11
4770.8432646129549539
 21
235.7485024816319026
 31
0.0
  0
LINE
  5
CB59
  8
0
 10
4770.0238630381536495
 20
235.7842130903318889
 30
0.0
 11
4770.8218594667632715
 21
235.8190176358733083
 31
0.0
  0
LINE
  5
CB5A
  8
0
 10
4770.0667791681089511
 20
235.6056610996068059
 30
0.0
 11
4770.8002848123796866
 21
235.6413844497417927
 31
0.0
  0
LINE
  5
CB5B
  8
0
 10
4770.0668630730706354
 20
235.6771142305343858
 30
0.0
 11
4770.8003346557479745
 21
235.7127983572354992
 31
0.0
  0
LINE
  5
CB5C
  8
0
 10
4770.0668245113547528
 20
235.7485088680741967
 30
0.0
 11
4770.8003096937209193
 21
235.7842130499491873
 31
0.0
  0
LINE
  5
CB5D
  8
0
 10
4770.0668360735617171
 20
235.8199311252957955
 30
0.0
 11
4770.7878945342536099
 21
235.8529825683818899
 31
0.0
  0
ENDSEC
  0
EOF
