  0
SECTION
  2
HEADER
  9
$ACADVER
  1
AC1009
  9
$INSBASE
 10
4853.5729975599988393
 20
249.9001947821263911
 30
0.0
  9
$EXTMIN
 10
4849.7934700009991502
 20
233.7978325775013957
 30
0.0
  9
$EXTMAX
 10
4853.579148270728183
 20
265.7269664358015007
 30
0.0
  9
$LIMMIN
 10
0.0
 20
0.0
  9
$LIMMAX
 10
11.6929133858000007
 20
8.2677165353999982
  9
$ORTHOMODE
 70
     0
  9
$REGENMODE
 70
     1
  9
$FILLMODE
 70
     1
  9
$QTEXTMODE
 70
     0
  9
$MIRRTEXT
 70
     0
  9
$DRAGMODE
 70
     2
  9
$LTSCALE
 40
0.6431102362
  9
$OSMODE
 70
  4095
  9
$ATTMODE
 70
     1
  9
$TEXTSIZE
 40
0.2
  9
$TRACEWID
 40
0.05
  9
$TEXTSTYLE
  7
STANDARD
  9
$CLAYER
  8
0
  9
$CELTYPE
  6
BYLAYER
  9
$CECOLOR
 62
   256
  9
$DIMSCALE
 40
1.0
  9
$DIMASZ
 40
0.1875
  9
$DIMEXO
 40
0.0625
  9
$DIMDLI
 40
0.4443307087
  9
$DIMRND
 40
0.0
  9
$DIMDLE
 40
0.0
  9
$DIMEXE
 40
0.125
  9
$DIMTP
 40
0.01
  9
$DIMTM
 40
0.01
  9
$DIMTXT
 40
2.0
  9
$DIMCEN
 40
0.1052362205
  9
$DIMTSZ
 40
0.0
  9
$DIMTOL
 70
     1
  9
$DIMLIM
 70
     0
  9
$DIMTIH
 70
     1
  9
$DIMTOH
 70
     1
  9
$DIMSE1
 70
     0
  9
$DIMSE2
 70
     0
  9
$DIMTAD
 70
     0
  9
$DIMZIN
 70
     0
  9
$DIMBLK
  1

  9
$DIMASO
 70
     1
  9
$DIMSHO
 70
     1
  9
$DIMPOST
  1
\X
  9
$DIMAPOST
  1

  9
$DIMALT
 70
     1
  9
$DIMALTD
 70
     2
  9
$DIMALTF
 40
25.3999999999999986
  9
$DIMLFAC
 40
1.0
  9
$DIMTOFL
 70
     0
  9
$DIMTVP
 40
0.0
  9
$DIMTIX
 70
     0
  9
$DIMSOXD
 70
     0
  9
$DIMSAH
 70
     0
  9
$DIMBLK1
  1

  9
$DIMBLK2
  1

  9
$DIMSTYLE
  2
STANDARD
  9
$DIMCLRD
 70
     0
  9
$DIMCLRE
 70
     0
  9
$DIMCLRT
 70
     0
  9
$DIMTFAC
 40
1.0
  9
$DIMGAP
 40
0.09
  9
$LUNITS
 70
     2
  9
$LUPREC
 70
     4
  9
$SKETCHINC
 40
0.1
  9
$FILLETRAD
 40
0.0
  9
$AUNITS
 70
     0
  9
$AUPREC
 70
     0
  9
$MENU
  1
.
  9
$ELEVATION
 40
0.0
  9
$PELEVATION
 40
0.0
  9
$THICKNESS
 40
0.0
  9
$LIMCHECK
 70
     0
  9
$BLIPMODE
 70
     0
  9
$CHAMFERA
 40
0.0
  9
$CHAMFERB
 40
0.0
  9
$SKPOLY
 70
     0
  9
$TDCREATE
 40
2458060.468368056230247
  9
$TDUPDATE
 40
2460178.6539351851679385
  9
$TDINDWG
 40
0.3607246528
  9
$TDUSRTIMER
 40
0.3607246528
  9
$USRTIMER
 70
     1
  9
$ANGBASE
 50
0.0
  9
$ANGDIR
 70
     0
  9
$PDMODE
 70
     0
  9
$PDSIZE
 40
0.3125
  9
$PLINEWID
 40
0.0
  9
$COORDS
 70
     1
  9
$SPLFRAME
 70
     0
  9
$SPLINETYPE
 70
     6
  9
$SPLINESEGS
 70
     8
  9
$ATTDIA
 70
     1
  9
$ATTREQ
 70
     1
  9
$HANDLING
 70
     1
  9
$HANDSEED
  5
D03A
  9
$SURFTAB1
 70
     6
  9
$SURFTAB2
 70
     6
  9
$SURFTYPE
 70
     6
  9
$SURFU
 70
     6
  9
$SURFV
 70
     6
  9
$UCSNAME
  2

  9
$UCSORG
 10
0.0
 20
0.0
 30
0.0
  9
$UCSXDIR
 10
1.0
 20
0.0
 30
0.0
  9
$UCSYDIR
 10
0.0
 20
1.0
 30
0.0
  9
$PUCSNAME
  2

  9
$PUCSORG
 10
0.0
 20
0.0
 30
0.0
  9
$PUCSXDIR
 10
1.0
 20
0.0
 30
0.0
  9
$PUCSYDIR
 10
0.0
 20
1.0
 30
0.0
  9
$USERI1
 70
     0
  9
$USERI2
 70
     0
  9
$USERI3
 70
     0
  9
$USERI4
 70
     0
  9
$USERI5
 70
     0
  9
$USERR1
 40
0.0
  9
$USERR2
 40
0.0
  9
$USERR3
 40
0.0
  9
$USERR4
 40
0.0
  9
$USERR5
 40
0.0
  9
$WORLDVIEW
 70
     1
  9
$SHADEDGE
 70
     3
  9
$SHADEDIF
 70
    70
  9
$TILEMODE
 70
     1
  9
$MAXACTVP
 70
    64
  9
$PLIMCHECK
 70
     0
  9
$PEXTMIN
 10
1.0000000000000000E+20
 20
1.0000000000000000E+20
 30
1.0000000000000000E+20
  9
$PEXTMAX
 10
-1.0000000000000000E+20
 20
-1.0000000000000000E+20
 30
-1.0000000000000000E+20
  9
$PLIMMIN
 10
0.0
 20
0.0
  9
$PLIMMAX
 10
12.0
 20
9.0
  9
$UNITMODE
 70
     0
  9
$VISRETAIN
 70
     1
  9
$PLINEGEN
 70
     0
  9
$PSLTSCALE
 70
     1
  0
ENDSEC
  0
SECTION
  2
TABLES
  0
TABLE
  2
VPORT
 70
     1
  0
VPORT
  2
*ACTIVE
 70
     0
 10
0.0
 20
0.0
 11
1.0
 21
1.0
 12
20.3825981983641213
 22
1.5039079905381381
 13
0.0
 23
0.0
 14
1.0
 24
1.0
 15
0.0
 25
0.0
 16
0.0
 26
0.0
 36
91.1019797634571802
 17
4831.3037109375
 27
248.2584915161133097
 37
0.0
 40
32.1456025624241235
 41
1.582579185520361
 42
50.0
 43
0.0
 44
0.0
 50
0.0
 51
0.0
 71
     0
 72
   100
 73
     1
 74
     1
 75
     0
 76
     0
 77
     0
 78
     0
  0
ENDTAB
  0
TABLE
  2
LTYPE
 70
     2
  0
LTYPE
  2
CONTINUOUS
 70
     0
  3
Solid line
 72
    65
 73
     0
 40
0.0
  0
LTYPE
  2
PHANTOM2
 70
     0
  3
___ _ _ ___ _ _ ___ _ _ ___ _ _
 72
    65
 73
     6
 40
1.25
 49
0.625
 49
-0.125
 49
0.125
 49
-0.125
 49
0.125
 49
-0.125
  0
ENDTAB
  0
TABLE
  2
LAYER
 70
     2
  0
LAYER
  2
0
 70
     0
 62
   255
  6
CONTINUOUS
  0
LAYER
  2
DEFPOINTS
 70
     0
 62
     7
  6
CONTINUOUS
  0
ENDTAB
  0
TABLE
  2
STYLE
 70
     1
  0
STYLE
  2
STANDARD
 70
     0
 40
0.0
 41
0.8
 50
0.0
 71
     0
 42
0.2
  3
txt
  4

  0
ENDTAB
  0
TABLE
  2
VIEW
 70
     0
  0
ENDTAB
  0
TABLE
  2
UCS
 70
     0
  0
ENDTAB
  0
TABLE
  2
APPID
 70
     9
  0
APPID
  2
ACAD
 70
     0
  0
APPID
  2
ACAD_MLEADERVER
 70
     0
  0
APPID
  2
ACAD_EXEMPT_FROM_CAD_STANDARDS
 70
     0
  0
APPID
  2
ACAD_NAV_VCDISPLAY
 70
     0
  0
APPID
  2
ACAECLAYERSTANDARD
 70
     0
  0
APPID
  2
ACCMTRANSPARENCY
 70
     0
  0
APPID
  2
ACAD_DSTYLE_DIMJAG
 70
     0
  0
APPID
  2
ACAD_DSTYLE_DIMTALN
 70
     0
  0
APPID
  2
ACDBATTR
 70
     0
  0
ENDTAB
  0
TABLE
  2
DIMSTYLE
 70
     1
  0
DIMSTYLE
  2
STANDARD
 70
     0
  3

  4

  5

  6

  7

 40
1.0
 41
0.1875
 42
0.0625
 43
0.38
 44
0.125
 45
0.0
 46
0.0
 47
0.01
 48
0.01
140
0.15625
141
0.09
142
0.0
143
25.3999999999999986
144
1.0
145
0.0
146
1.0
147
0.09
 71
     1
 72
     0
 73
     1
 74
     1
 75
     0
 76
     0
 77
     0
 78
     4
170
     0
171
     2
172
     0
173
     0
174
     0
175
     0
176
     0
177
     0
178
     0
  0
ENDTAB
  0
ENDSEC
  0
SECTION
  2
BLOCKS
  0
BLOCK
  8
0
  2
$MODEL_SPACE
 70
     0
 10
0.0
 20
0.0
 30
0.0
  3
$MODEL_SPACE
  1

  0
ENDBLK
  5
21
  8
0
  0
BLOCK
 67
     1
  8
0
  2
$PAPER_SPACE
 70
     0
 10
0.0
 20
0.0
 30
0.0
  3
$PAPER_SPACE
  1

  0
ENDBLK
  5
1D
 67
     1
  8
0
  0
ENDSEC
  0
SECTION
  2
ENTITIES
  0
ATTDEF
  5
3930
  8
DEFPOINTS
 10
4853.5684816040602527
 20
249.9051845176657025
 30
0.0
 40
0.001
  1
K-26314T
  3

  2
MODELNUMBER
 70
     0
1001
ACDBATTR
1070
     0
1070
     1
  0
ATTDEF
  5
3931
  8
DEFPOINTS
 10
4853.5684816040602527
 20
249.9035178509990942
 30
0.0
 40
0.001
  1
STATEMENT
  3

  2
TRADENAME
 70
     0
1001
ACDBATTR
1070
     0
1070
     1
  0
ATTDEF
  5
3932
  8
DEFPOINTS
 10
4853.5684816040602527
 20
249.9018511843324006
 30
0.0
 40
0.001
  1
SLIDEBAR
  3

  2
PRODUCT
 70
     0
1001
ACDBATTR
1070
     0
1070
     1
  0
LINE
  5
CEAE
  8
0
 10
4853.5729975599988393
 20
260.93562785310138
 30
0.0
 11
4853.5729975599988393
 21
265.2663365146013916
 31
0.0
  0
LINE
  5
CEAF
  8
0
 10
4853.3879580624989103
 20
260.93562785310138
 30
0.0
 11
4853.5729975599988393
 21
260.93562785310138
 31
0.0
  0
LINE
  5
CEB0
  8
0
 10
4853.5729975599988393
 20
265.2663365146013916
 30
0.0
 11
4853.3879580623979564
 21
265.2663365146013916
 31
0.0
  0
ARC
  5
CEB1
  8
0
 10
4853.3885432596371174
 20
265.2539404807582741
 30
0.0
 40
0.0124098392755825
 50
92.7028368391942337
 51
177.2971791866636977
  0
ARC
  5
CEB2
  8
0
 10
4853.3883205502197598
 20
260.947801288141477
 30
0.0
 40
0.0121788307330479
 50
181.7229588234131086
 51
268.2944106254349208
  0
LINE
  5
CEB3
  8
0
 10
4851.4755525212003704
 20
263.9966374447013777
 30
0.0
 11
4851.47555273729904
 21
262.2037391577014205
 31
0.0
  0
LINE
  5
CEB4
  8
0
 10
4851.7147292047920928
 20
261.4474233219013968
 30
0.0
 11
4853.3643444796998665
 21
261.4474233219013968
 31
0.0
  0
LINE
  5
CEB5
  8
0
 10
4851.7147292047920928
 20
264.7545098998014055
 30
0.0
 11
4853.3643444796998665
 21
264.7545098998014055
 31
0.0
  0
ARC
  5
CEB6
  8
0
 10
4850.8859896859994478
 20
246.7053681945513972
 30
0.0
 40
3.9790103488999988
 50
84.1949482559783888
 51
95.805051744073964
  0
ARC
  5
CEB7
  8
0
 10
4850.5611865363989637
 20
249.900193834551402
 30
0.0
 40
0.7677165354000001
 50
95.805051744073964
 51
264.1949482559260218
  0
ARC
  5
CEB8
  8
0
 10
4851.210792835598113
 20
249.900193834551402
 30
0.0
 40
0.7677165354000001
 50
275.8050517440739782
 51
84.1949482559783888
  0
ARC
  5
CEB9
  8
0
 10
4850.8859896859994478
 20
253.0950194745514068
 30
0.0
 40
3.9790103488000002
 50
264.1949482559260218
 51
275.8050517440739782
  0
ARC
  5
CEBA
  8
0
 10
4851.7153113719223256
 20
264.7413441737309086
 30
0.0
 40
0.0131785910297535
 50
92.5318774699148747
 51
135.8888530944111892
  0
ARC
  5
CEBB
  8
0
 10
4851.7152868002376636
 20
261.4605608966493264
 30
0.0
 40
0.0131494023794306
 50
226.8662581997442942
 51
267.5696653705342101
  0
LINE
  5
CEBC
  8
0
 10
4851.6635487410985661
 20
234.152163286201386
 30
0.0
 11
4850.7580369300976599
 21
234.152163286201386
 31
0.0
  0
LINE
  5
CEBD
  8
0
 10
4850.718666851398666
 20
265.7151554122013977
 30
0.0
 11
4850.718666851398666
 21
265.6600373019014114
 31
0.0
  0
LINE
  5
CEBE
  8
0
 10
4850.7186668514013945
 20
234.1915333648641138
 30
0.0
 11
4850.7186668513959376
 21
249.1195287595730861
 31
0.0
  0
LINE
  5
CEBF
  8
0
 10
4850.7186668513959376
 20
250.6808589096297055
 30
0.0
 11
4850.7186668513950281
 21
265.6364152546224773
 31
0.0
  0
LINE
  5
CEC0
  8
0
 10
4851.6911077961985939
 20
265.6482262783014221
 30
0.0
 11
4850.7304778749976322
 21
265.6482262783014221
 31
0.0
  0
LINE
  5
CEC1
  8
0
 10
4850.7304778749976322
 20
265.726966435801387
 30
0.0
 11
4851.6911077961985939
 21
265.726966435801387
 31
0.0
  0
ARC
  5
CEC2
  8
0
 10
4850.7597597243266137
 20
234.1932561591289925
 30
0.0
 40
0.0411289706338111
 50
182.4006855701738914
 51
267.5993144297929121
  0
ARC
  5
CEC3
  8
0
 10
4850.7311701140160949
 20
265.7144631731845266
 30
0.0
 40
0.0125224107472828
 50
93.1689267575392392
 51
176.831073242438606
  0
ARC
  5
CEC4
  8
0
 10
4850.7312668041486177
 20
265.6608262310510895
 30
0.0
 40
0.0126246274598018
 50
183.5828211928512133
 51
266.4171788072566756
  0
ARC
  5
CEC5
  8
0
 10
4850.7310410626805606
 20
265.6358520670185044
 30
0.0
 40
0.0123870208379698
 50
92.6059054331035156
 51
177.3940945669062899
  0
LINE
  5
CEC6
  8
0
 10
4851.702918819799379
 20
265.7151554122013977
 30
0.0
 11
4851.702918819799379
 21
265.6600373019014114
 31
0.0
  0
LINE
  5
CEC7
  8
0
 10
4851.702918819799379
 20
234.1915333649002093
 30
0.0
 11
4851.7029188198002885
 21
235.0532622785937917
 31
0.0
  0
LINE
  5
CEC8
  8
0
 10
4851.7029188198002885
 20
238.3459551413803013
 30
0.0
 11
4851.7029188198002885
 21
249.3109564508085043
 31
0.0
  0
LINE
  5
CEC9
  8
0
 10
4851.702918819801198
 20
250.489431218294186
 30
0.0
 11
4851.7029188198021075
 21
261.4548275063946221
 31
0.0
  0
LINE
  5
CECA
  8
0
 10
4851.7029188198021075
 20
264.7475384654288177
 30
0.0
 11
4851.7029188198021075
 21
265.6364152546238984
 31
0.0
  0
ARC
  5
CECB
  8
0
 10
4851.6618259468714314
 20
234.1932561591289925
 30
0.0
 40
0.0411289706338111
 50
272.4006855702070879
 51
357.5993144298242896
  0
ARC
  5
CECC
  8
0
 10
4851.6904155571819501
 20
265.7144631731845266
 30
0.0
 40
0.0125224107472828
 50
3.168926757559738
 51
86.831073242460775
  0
ARC
  5
CECD
  8
0
 10
4851.6903188670494274
 20
265.6608262310510895
 30
0.0
 40
0.0126246274598018
 50
273.5828211927433244
 51
356.4171788071486731
  0
ARC
  5
CECE
  8
0
 10
4851.6905446085156655
 20
265.6358520670185044
 30
0.0
 40
0.0123870208379698
 50
2.6059054330936671
 51
87.3940945668964844
  0
ARC
  5
CECF
  8
0
 10
4856.843281159612161
 20
263.9050044862678988
 30
0.0
 40
5.3685107185060739
 50
175.6845165957543884
 51
179.0219938042338015
  0
ARC
  5
CED0
  8
0
 10
4852.2526052894500026
 20
264.2096878944237801
 30
0.0
 40
0.7690503570275934
 50
135.3122281176526087
 51
172.5821899072375061
  0
ARC
  5
CED1
  8
0
 10
4853.4712326021763147
 20
262.1964208924354125
 30
0.0
 40
1.995693283067888
 50
179.7898942405603009
 51
194.3923141412244888
  0
ARC
  5
CED2
  8
0
 10
4852.5944337051560069
 20
262.2310300097652203
 30
0.0
 40
1.182069844403477
 50
206.6746171512315868
 51
221.2933516016150008
  0
LINE
  5
CED3
  8
0
 10
4853.3761472256301204
 20
265.2545256745286792
 30
0.0
 11
4853.3761472256301204
 21
260.9474351100099057
 31
0.0
  0
LINE
  5
CED4
  8
0
 10
4853.5730058970002574
 20
234.5340530496513907
 30
0.0
 11
4853.5730058970002574
 21
238.8647617111514023
 31
0.0
  0
LINE
  5
CED5
  8
0
 10
4853.3879663994994189
 20
234.5340530496513907
 30
0.0
 11
4853.5730058970002574
 21
234.5340530496513907
 31
0.0
  0
LINE
  5
CED6
  8
0
 10
4853.5730058970002574
 20
238.8647617111514023
 30
0.0
 11
4853.3879663993993745
 21
238.8647617111514023
 31
0.0
  0
ARC
  5
CED7
  8
0
 10
4853.3885515966367166
 20
238.8523656773083133
 30
0.0
 40
0.0124098392755825
 50
92.7028368391942337
 51
177.2971791866636977
  0
ARC
  5
CED8
  8
0
 10
4853.3883288872211779
 20
234.5462264846914877
 30
0.0
 40
0.0121788307330479
 50
181.7229588234131086
 51
268.2944106254349208
  0
LINE
  5
CED9
  8
0
 10
4851.47556085819906
 20
237.5950626412513884
 30
0.0
 11
4851.4755610742977296
 21
235.8021643542514028
 31
0.0
  0
LINE
  5
CEDA
  8
0
 10
4851.7147375417926014
 20
235.0458485184514075
 30
0.0
 11
4853.3643444796998665
 21
235.0458485184514075
 31
0.0
  0
LINE
  5
CEDB
  8
0
 10
4851.7147375417926014
 20
238.3529350963513878
 30
0.0
 11
4853.3643444796998665
 21
238.3529350963513878
 31
0.0
  0
ARC
  5
CEDC
  8
0
 10
4851.7153197089219248
 20
238.3397693702808908
 30
0.0
 40
0.0131785910297535
 50
92.5318774699148747
 51
135.8888530944111892
  0
ARC
  5
CEDD
  8
0
 10
4851.7152951372372627
 20
235.0589860931993087
 30
0.0
 40
0.0131494023794306
 50
226.8662581997442942
 51
267.5696653705342101
  0
ARC
  5
CEDE
  8
0
 10
4856.8432894966117601
 20
237.5034296828179095
 30
0.0
 40
5.3685107185060739
 50
175.6845165957543884
 51
179.0219938042338015
  0
ARC
  5
CEDF
  8
0
 10
4852.2526136264496017
 20
237.8081130909737908
 30
0.0
 40
0.7690503570275934
 50
135.3122281176526087
 51
172.5821899072375061
  0
ARC
  5
CEE0
  8
0
 10
4853.4712409391759138
 20
235.7948460889853948
 30
0.0
 40
1.995693283067888
 50
179.7898942405603009
 51
194.3923141412244888
  0
ARC
  5
CEE1
  8
0
 10
4852.594442042157425
 20
235.8294552063152025
 30
0.0
 40
1.182069844403477
 50
206.6746171512315868
 51
221.2933516016150008
  0
LINE
  5
CEE2
  8
0
 10
4853.3761555626297195
 20
238.8529508710786047
 30
0.0
 11
4853.3761555626297195
 21
234.5458603065598879
 31
0.0
  0
LINE
  5
CEE3
  8
0
 10
4850.8564253627992002
 20
233.7978325775013957
 30
0.0
 11
4851.5650867800977721
 21
233.7978325775013957
 31
0.0
  0
LINE
  5
CEE4
  8
0
 10
4850.7973702445988238
 20
233.8568876957014027
 30
0.0
 11
4851.6241418981990137
 21
233.8568876957014027
 31
0.0
  0
LINE
  5
CEE5
  8
0
 10
4851.6241418981990137
 20
234.0812971445014057
 30
0.0
 11
4850.7973702445988238
 21
234.0812971445014057
 31
0.0
  0
LINE
  5
CEE6
  8
0
 10
4850.7973702445988238
 20
233.8568876957014027
 30
0.0
 11
4850.8564253627992002
 21
233.7978325775013957
 31
0.0
  0
LINE
  5
CEE7
  8
0
 10
4850.7973702445988238
 20
234.0812971445014057
 30
0.0
 11
4850.7973702445988238
 21
233.8568876957014027
 31
0.0
  0
LINE
  5
CEE8
  8
0
 10
4850.8564253627992002
 20
234.152163286201386
 30
0.0
 11
4850.8564253627992002
 21
234.0812971445014057
 31
0.0
  0
LINE
  5
CEE9
  8
0
 10
4851.5650867800977721
 20
234.152163286201386
 30
0.0
 11
4851.5650867800977721
 21
234.0812971445014057
 31
0.0
  0
LINE
  5
CEEA
  8
0
 10
4851.6241418981990137
 20
234.0812971445014057
 30
0.0
 11
4851.6241418981990137
 21
233.8568876957014027
 31
0.0
  0
LINE
  5
CEEB
  8
0
 10
4851.6241418981990137
 20
233.8568876957014027
 30
0.0
 11
4851.5650867800977721
 21
233.7978325775013957
 31
0.0
  0
LINE
  5
CEEC
  8
0
 10
4853.3643444796998665
 20
261.4474233219013968
 30
0.0
 11
4853.3643444796998665
 21
264.7545098998014055
 31
0.0
  0
LINE
  5
CEED
  8
0
 10
4853.3643444796998665
 20
238.3529350963513878
 30
0.0
 11
4853.3643444796998665
 21
235.0458485184514075
 31
0.0
  0
ARC
  5
CEEE
  8
0
 10
4853.364347493799869
 20
263.7019787210014101
 30
0.0
 40
0.0118080259000091
 50
269.985374760251716
 51
357.8523760119157942
  0
ARC
  5
CEEF
  8
0
 10
4853.3643475068001862
 20
262.499985647201413
 30
0.0
 40
0.0118080129999963
 50
2.1476379263006748
 51
90.0146883354675396
  0
ARC
  5
CEF0
  8
0
 10
4853.3643558308012871
 20
237.3004039175513924
 30
0.0
 40
0.0118080259000091
 50
269.985374760251716
 51
357.8523760119157942
  0
ARC
  5
CEF1
  8
0
 10
4853.3643558437997854
 20
236.0984108437513953
 30
0.0
 40
0.0118080129999963
 50
2.1476379263006748
 51
90.0146883354675396
  0
ENDSEC
  0
EOF
