  0
SECTION
  2
HEADER
  9
$ACADVER
  1
AC1009
  9
$INSBASE
 10
3553.4685413880888518
 20
134.0133080541444883
 30
0.0
  9
$EXTMIN
 10
3551.9532012098097766
 20
132.9645040458466099
 30
0.0
  9
$EXTMAX
 10
3554.9838815661942135
 20
135.0621135354423927
 30
0.0
  9
$LIMMIN
 10
0.0
 20
0.0
  9
$LIMMAX
 10
11.6929133858000007
 20
8.2677165353999982
  9
$ORTHOMODE
 70
     1
  9
$REGENMODE
 70
     1
  9
$FILLMODE
 70
     1
  9
$QTEXTMODE
 70
     0
  9
$MIRRTEXT
 70
     0
  9
$DRAGMODE
 70
     2
  9
$LTSCALE
 40
0.6431102362
  9
$OSMODE
 70
  2039
  9
$ATTMODE
 70
     1
  9
$TEXTSIZE
 40
0.2
  9
$TRACEWID
 40
0.05
  9
$TEXTSTYLE
  7
STANDARD
  9
$CLAYER
  8
0
  9
$CELTYPE
  6
BYLAYER
  9
$CECOLOR
 62
   256
  9
$DIMSCALE
 40
1.0
  9
$DIMASZ
 40
0.1875
  9
$DIMEXO
 40
0.0625
  9
$DIMDLI
 40
0.4443307087
  9
$DIMRND
 40
0.0
  9
$DIMDLE
 40
0.0
  9
$DIMEXE
 40
0.125
  9
$DIMTP
 40
0.01
  9
$DIMTM
 40
0.01
  9
$DIMTXT
 40
2.0
  9
$DIMCEN
 40
0.1052362205
  9
$DIMTSZ
 40
0.0
  9
$DIMTOL
 70
     1
  9
$DIMLIM
 70
     0
  9
$DIMTIH
 70
     1
  9
$DIMTOH
 70
     1
  9
$DIMSE1
 70
     0
  9
$DIMSE2
 70
     0
  9
$DIMTAD
 70
     0
  9
$DIMZIN
 70
     0
  9
$DIMBLK
  1

  9
$DIMASO
 70
     1
  9
$DIMSHO
 70
     1
  9
$DIMPOST
  1
\X
  9
$DIMAPOST
  1

  9
$DIMALT
 70
     1
  9
$DIMALTD
 70
     2
  9
$DIMALTF
 40
25.3999999999999986
  9
$DIMLFAC
 40
1.0
  9
$DIMTOFL
 70
     0
  9
$DIMTVP
 40
0.0
  9
$DIMTIX
 70
     0
  9
$DIMSOXD
 70
     0
  9
$DIMSAH
 70
     0
  9
$DIMBLK1
  1

  9
$DIMBLK2
  1

  9
$DIMSTYLE
  2
STANDARD
  9
$DIMCLRD
 70
     0
  9
$DIMCLRE
 70
     0
  9
$DIMCLRT
 70
     0
  9
$DIMTFAC
 40
1.0
  9
$DIMGAP
 40
0.09
  9
$LUNITS
 70
     2
  9
$LUPREC
 70
     4
  9
$SKETCHINC
 40
0.1
  9
$FILLETRAD
 40
0.0
  9
$AUNITS
 70
     0
  9
$AUPREC
 70
     0
  9
$MENU
  1
.
  9
$ELEVATION
 40
0.0
  9
$PELEVATION
 40
0.0
  9
$THICKNESS
 40
0.0
  9
$LIMCHECK
 70
     0
  9
$BLIPMODE
 70
     0
  9
$CHAMFERA
 40
0.0
  9
$CHAMFERB
 40
0.0
  9
$SKPOLY
 70
     0
  9
$TDCREATE
 40
2458060.468368056230247
  9
$TDUPDATE
 40
2459270.7588657410815358
  9
$TDINDWG
 40
0.3741505787
  9
$TDUSRTIMER
 40
0.3741505787
  9
$USRTIMER
 70
     1
  9
$ANGBASE
 50
0.0
  9
$ANGDIR
 70
     0
  9
$PDMODE
 70
     0
  9
$PDSIZE
 40
0.3125
  9
$PLINEWID
 40
0.0
  9
$COORDS
 70
     1
  9
$SPLFRAME
 70
     0
  9
$SPLINETYPE
 70
     6
  9
$SPLINESEGS
 70
     8
  9
$ATTDIA
 70
     1
  9
$ATTREQ
 70
     1
  9
$HANDLING
 70
     1
  9
$HANDSEED
  5
1CB1A
  9
$SURFTAB1
 70
     6
  9
$SURFTAB2
 70
     6
  9
$SURFTYPE
 70
     6
  9
$SURFU
 70
     6
  9
$SURFV
 70
     6
  9
$UCSNAME
  2

  9
$UCSORG
 10
0.0
 20
0.0
 30
0.0
  9
$UCSXDIR
 10
1.0
 20
0.0
 30
0.0
  9
$UCSYDIR
 10
0.0
 20
1.0
 30
0.0
  9
$PUCSNAME
  2

  9
$PUCSORG
 10
0.0
 20
0.0
 30
0.0
  9
$PUCSXDIR
 10
1.0
 20
0.0
 30
0.0
  9
$PUCSYDIR
 10
0.0
 20
1.0
 30
0.0
  9
$USERI1
 70
     0
  9
$USERI2
 70
     0
  9
$USERI3
 70
     0
  9
$USERI4
 70
     0
  9
$USERI5
 70
     0
  9
$USERR1
 40
0.0
  9
$USERR2
 40
0.0
  9
$USERR3
 40
0.0
  9
$USERR4
 40
0.0
  9
$USERR5
 40
0.0
  9
$WORLDVIEW
 70
     1
  9
$SHADEDGE
 70
     3
  9
$SHADEDIF
 70
    70
  9
$TILEMODE
 70
     1
  9
$MAXACTVP
 70
    64
  9
$PLIMCHECK
 70
     0
  9
$PEXTMIN
 10
1.0000000000000000E+20
 20
1.0000000000000000E+20
 30
1.0000000000000000E+20
  9
$PEXTMAX
 10
-1.0000000000000000E+20
 20
-1.0000000000000000E+20
 30
-1.0000000000000000E+20
  9
$PLIMMIN
 10
0.0
 20
0.0
  9
$PLIMMAX
 10
12.0
 20
9.0
  9
$UNITMODE
 70
     0
  9
$VISRETAIN
 70
     1
  9
$PLINEGEN
 70
     0
  9
$PSLTSCALE
 70
     1
  0
ENDSEC
  0
SECTION
  2
TABLES
  0
TABLE
  2
VPORT
 70
     1
  0
VPORT
  2
*ACTIVE
 70
     0
 10
0.0
 20
0.0
 11
1.0
 21
1.0
 12
-250.0755259948105049
 22
8.0180465938945957
 13
0.0
 23
0.0
 14
1.0
 24
1.0
 15
0.0
 25
0.0
 16
0.0
 26
0.0
 36
17.1152628219792007
 17
3803.5440673828129547
 27
125.9952621967499056
 37
0.0
 40
2.116422130758163
 41
2.8398203592814371
 42
50.0
 43
0.0
 44
0.0
 50
0.0
 51
0.0
 71
     0
 72
   100
 73
     1
 74
     1
 75
     0
 76
     0
 77
     0
 78
     1
  0
ENDTAB
  0
TABLE
  2
LTYPE
 70
     2
  0
LTYPE
  2
CONTINUOUS
 70
     0
  3
Solid line
 72
    65
 73
     0
 40
0.0
  0
LTYPE
  2
PHANTOM2
 70
     0
  3
___ _ _ ___ _ _ ___ _ _ ___ _ _
 72
    65
 73
     6
 40
1.25
 49
0.625
 49
-0.125
 49
0.125
 49
-0.125
 49
0.125
 49
-0.125
  0
ENDTAB
  0
TABLE
  2
LAYER
 70
     2
  0
LAYER
  2
0
 70
     0
 62
   255
  6
CONTINUOUS
  0
LAYER
  2
DEFPOINTS
 70
     0
 62
     7
  6
CONTINUOUS
  0
ENDTAB
  0
TABLE
  2
STYLE
 70
     1
  0
STYLE
  2
STANDARD
 70
     0
 40
0.0
 41
0.8
 50
0.0
 71
     0
 42
0.2
  3
txt
  4

  0
ENDTAB
  0
TABLE
  2
VIEW
 70
     0
  0
ENDTAB
  0
TABLE
  2
UCS
 70
     0
  0
ENDTAB
  0
TABLE
  2
APPID
 70
     9
  0
APPID
  2
ACAD
 70
     0
  0
APPID
  2
ACAD_MLEADERVER
 70
     0
  0
APPID
  2
ACAD_EXEMPT_FROM_CAD_STANDARDS
 70
     0
  0
APPID
  2
ACAD_NAV_VCDISPLAY
 70
     0
  0
APPID
  2
ACAECLAYERSTANDARD
 70
     0
  0
APPID
  2
ACCMTRANSPARENCY
 70
     0
  0
APPID
  2
ACAD_DSTYLE_DIMJAG
 70
     0
  0
APPID
  2
ACAD_DSTYLE_DIMTALN
 70
     0
  0
APPID
  2
ACDBATTR
 70
     0
  0
ENDTAB
  0
TABLE
  2
DIMSTYLE
 70
     1
  0
DIMSTYLE
  2
STANDARD
 70
     0
  3

  4

  5

  6

  7

 40
1.0
 41
0.1875
 42
0.0625
 43
0.38
 44
0.125
 45
0.0
 46
0.0
 47
0.01
 48
0.01
140
0.15625
141
0.09
142
0.0
143
25.3999999999999986
144
1.0
145
0.0
146
1.0
147
0.09
 71
     1
 72
     0
 73
     1
 74
     1
 75
     0
 76
     0
 77
     0
 78
     4
170
     0
171
     2
172
     0
173
     0
174
     0
175
     0
176
     0
177
     0
178
     0
  0
ENDTAB
  0
ENDSEC
  0
SECTION
  2
BLOCKS
  0
BLOCK
  8
0
  2
$MODEL_SPACE
 70
     0
 10
0.0
 20
0.0
 30
0.0
  3
$MODEL_SPACE
  1

  0
ENDBLK
  5
21
  8
0
  0
BLOCK
 67
     1
  8
0
  2
$PAPER_SPACE
 70
     0
 10
0.0
 20
0.0
 30
0.0
  3
$PAPER_SPACE
  1

  0
ENDBLK
  5
1D
 67
     1
  8
0
  0
BLOCK
  8
0
  2
_FILLED
 70
     0
 10
0.0
 20
0.0
 30
0.0
  3
_FILLED
  1

  0
SOLID
  5
1BA72
  8
0
  6
BYBLOCK
 62
     0
 10
0.0
 20
0.0
 30
0.0
 11
-1.0
 21
0.1666666667
 31
0.0
 12
-1.0
 22
-0.1666666667
 32
0.0
 13
-1.0
 23
-0.1666666667
 33
0.0
  0
ENDBLK
  5
1BA73
  8
0
  6
BYBLOCK
 62
     0
  0
ENDSEC
  0
SECTION
  2
ENTITIES
  0
ATTDEF
  5
1C5B7
  8
DEFPOINTS
 10
3553.469188810587184
 20
134.0169053902116048
 30
0.0
 40
0.001
  1
K-26323T
  3

  2
MODELNUMBER
 70
     0
1001
ACDBATTR
1070
     0
1070
     1
  0
ATTDEF
  5
1C5B8
  8
DEFPOINTS
 10
3553.469188810587184
 20
134.0152387235449112
 30
0.0
 40
0.001
  1

  3

  2
TRADENAME
 70
     0
1001
ACDBATTR
1070
     0
1070
     1
  0
ATTDEF
  5
1C5B9
  8
DEFPOINTS
 10
3553.469188810587184
 20
134.0135720568783029
 30
0.0
 40
0.001
  1
SHOWER ARM
  3

  2
PRODUCT
 70
     0
1001
ACDBATTR
1070
     0
1070
     1
  0
ARC
  5
1C953
  8
0
 10
3553.4685413880019951
 20
128.0183284534122947
 30
0.0
 40
7.0437850820301522
 50
85.3631979324929659
 51
94.6368020675070767
  0
ARC
  5
1C954
  8
0
 10
3553.9547618607148252
 20
134.0133087906444871
 30
0.0
 40
1.0291197054787251
 50
274.6368020675070056
 51
85.3631979324929659
  0
ARC
  5
1C955
  8
0
 10
3553.4685413880019951
 20
140.0082891278767079
 30
0.0
 40
7.0437850820301158
 50
265.3631979324928807
 51
274.6368020675070056
  0
ARC
  5
1C956
  8
0
 10
3552.982320915289165
 20
134.0133087906444871
 30
0.0
 40
1.0291197054787251
 50
94.6368020503850715
 51
265.3631979324928807
  0
ARC
  5
1C957
  8
0
 10
3552.832976426751884
 20
134.0250017173819117
 30
0.0
 40
0.4599949027981419
 50
231.5154184955204073
 51
253.5954870095754927
  0
ARC
  5
1C958
  8
0
 10
3553.46440341803509
 20
158.8054120787685974
 30
0.0
 40
25.2707032389212003
 50
269.4276324526081225
 51
270.0093819397723109
  0
ARC
  5
1C959
  8
0
 10
3553.2266647394430947
 20
137.7511507209025865
 30
0.0
 40
4.2152066039718541
 50
265.6069881418371779
 51
269.8001358557634717
  0
ARC
  5
1C95A
  8
0
 10
3552.9801061658367871
 20
134.567700927799109
 30
0.0
 40
1.022225648345664
 50
254.2752301060278057
 51
265.7185370683063184
  0
ARC
  5
1C95B
  8
0
 10
3552.7388938116869213
 20
133.8986996666264133
 30
0.0
 40
0.3026212747732027
 50
189.8121346172275992
 51
230.5776752362789921
  0
ARC
  5
1C95C
  8
0
 10
3553.6668268952262224
 20
134.0446939628413929
 30
0.0
 40
1.241942554159982
 50
181.4481117238368029
 51
189.1534182044059094
  0
ARC
  5
1C95D
  8
0
 10
3554.8770631744760067
 20
133.9609271718989874
 30
0.0
 40
2.4523416630976929
 50
176.8746006371590056
 51
178.7760956076041055
  0
ARC
  5
1C95E
  8
0
 10
3552.9382882009449531
 20
134.0634582170301883
 30
0.0
 40
0.510871112067441
 50
158.4894487961026925
 51
176.5015426171665069
  0
ARC
  5
1C95F
  8
0
 10
3552.7185816479159257
 20
134.1447277810850096
 30
0.0
 40
0.2767120879575603
 50
135.1668543999018937
 51
157.4641984101872083
  0
ARC
  5
1C960
  8
0
 10
3552.8304357370270736
 20
134.0108065511130917
 30
0.0
 40
0.4507432855332527
 50
104.0898607491139956
 51
133.1186294767688025
  0
ARC
  5
1C961
  8
0
 10
3553.000140040514907
 20
133.3371068055475064
 30
0.0
 40
1.145488390118035
 50
93.6719652437090957
 51
104.1194231586917027
  0
ARC
  5
1C962
  8
0
 10
3553.2813599740989048
 20
128.861373814364697
 30
0.0
 40
5.6300466885016789
 50
89.8791025642079546
 51
93.610890976574737
  0
ARC
  5
1C963
  8
0
 10
3553.4577525205750135
 20
107.5627634401415946
 30
0.0
 40
26.9291470465477012
 50
89.9770450735213245
 51
90.3500277733752171
  0
ARC
  5
1C964
  8
0
 10
3552.8177351074691614
 20
134.0005829652745888
 30
0.0
 40
0.4320521713704319
 50
230.2990148122468099
 51
252.3743310346416138
  0
ARC
  5
1C965
  8
0
 10
3552.537082480259869
 20
133.6619316583216062
 30
0.0
 40
0.0077877811009217
 50
53.1924274787232676
 51
176.0711321989977023
  0
ARC
  5
1C966
  8
0
 10
3651.4591354188441983
 20
131.7601539847256049
 30
0.0
 40
98.9481104000928013
 50
178.8984011676317039
 51
179.09263070772991
  0
LINE
  5
1C967
  8
0
 10
3552.5234327198518258
 20
133.3270883182445061
 30
0.0
 11
3554.4136457597519438
 21
133.3270883182445061
 31
0.0
  0
ARC
  5
1C968
  8
0
 10
3552.7420483529699595
 20
133.9002688646895933
 30
0.0
 40
0.3146594821532198
 50
189.9452680424288928
 51
227.8873648818222932
  0
ARC
  5
1C969
  8
0
 10
3553.7201721505011847
 20
134.0502754469343927
 30
0.0
 40
1.3041643741378739
 50
181.6243039361212936
 51
189.0148716707527967
  0
ARC
  5
1C96A
  8
0
 10
3553.6309935255981145
 20
133.9734051355355007
 30
0.0
 40
1.2151170690762421
 50
168.980435260669509
 51
178.1181402215800063
  0
ARC
  5
1C96B
  8
0
 10
3552.7497911612490498
 20
134.1256744796345117
 30
0.0
 40
0.3216171734359791
 50
141.2723840684699042
 51
165.5981105729713079
  0
ARC
  5
1C96C
  8
0
 10
3552.7840598745538045
 20
134.0767023906107056
 30
0.0
 40
0.3793596911613716
 50
117.8257504921768941
 51
138.7394334607153041
  0
ARC
  5
1C96D
  8
0
 10
3552.8720145225029228
 20
133.9089426902419007
 30
0.0
 40
0.5687776278075237
 50
100.0680887074393013
 51
117.773065608763801
  0
ARC
  5
1C96E
  8
0
 10
3553.0135510850041101
 20
133.1977805063100959
 30
0.0
 40
1.293818938098706
 50
94.9978679538369164
 51
100.733818933812401
  0
ARC
  5
1C96F
  8
0
 10
3553.1224526824457826
 20
132.0065181299501091
 30
0.0
 40
2.4900438744371698
 50
92.3431783468873135
 51
95.1061608768217042
  0
ARC
  5
1C970
  8
0
 10
3553.2387309691571318
 20
129.3120109083614011
 30
0.0
 40
5.18705563355884
 50
91.0986250121548551
 51
92.4096386807628534
  0
ARC
  5
1C971
  8
0
 10
3553.4065972128378235
 20
119.5096133563444027
 30
0.0
 40
14.9908832996251107
 50
89.9990194935203931
 51
91.0217622731691876
  0
ARC
  5
1C972
  8
0
 10
3553.4643518526809203
 20
102.0625920960954005
 30
0.0
 40
32.4379555170263814
 50
89.9925999436852067
 51
90.1015600436283677
  0
ARC
  5
1C973
  8
0
 10
3455.4779473571597919
 20
131.7601539847256049
 30
0.0
 40
98.9481104000928013
 50
0.9073692922700498
 51
1.1015988323682471
  0
ARC
  5
1C976
  8
0
 10
3554.1041063494258196
 20
134.0250017173819117
 30
0.0
 40
0.4599949027981419
 50
286.4045129904245073
 51
308.484581504479479
  0
ARC
  5
1C977
  8
0
 10
3553.4726793581421589
 20
158.8054120787685974
 30
0.0
 40
25.2707032389212003
 50
269.9906180602276891
 51
270.5723675473918206
  0
ARC
  5
1C978
  8
0
 10
3553.7104180367341542
 20
137.7511507209025865
 30
0.0
 40
4.2152066039718541
 50
270.1998641442365283
 51
274.3930118581628221
  0
ARC
  5
1C979
  8
0
 10
3553.956976610340007
 20
134.567700927799109
 30
0.0
 40
1.022225648345664
 50
274.2814629316936816
 51
285.7247698939722227
  0
ARC
  5
1C97A
  8
0
 10
3554.1981889644898729
 20
133.8986996666264133
 30
0.0
 40
0.3026212747732027
 50
309.4223247637210079
 51
350.1878653827723724
  0
ARC
  5
1C97B
  8
0
 10
3553.2702558809510265
 20
134.0446939628413929
 30
0.0
 40
1.241942554159982
 50
350.8465817955939769
 51
358.5518882761630834
  0
ARC
  5
1C97C
  8
0
 10
3552.0600196017007875
 20
133.9609271718989874
 30
0.0
 40
2.4523416630976929
 50
1.223904392395883
 51
3.1253993628409691
  0
ARC
  5
1C97D
  8
0
 10
3553.998794575231841
 20
134.0634582170301883
 30
0.0
 40
0.510871112067441
 50
3.498457382833482
 51
21.5105512038972613
  0
ARC
  5
1C97E
  8
0
 10
3554.2185011282608684
 20
134.1447277810850096
 30
0.0
 40
0.2767120879575603
 50
22.5358015898127917
 51
44.8331456000980495
  0
ARC
  5
1C97F
  8
0
 10
3554.1066470391510848
 20
134.0108065511130917
 30
0.0
 40
0.4507432855332527
 50
46.8813705232311975
 51
75.9101392508859902
  0
ARC
  5
1C980
  8
0
 10
3553.9369427356618871
 20
133.3371068055475064
 30
0.0
 40
1.145488390118035
 50
75.8805768413082546
 51
86.3280347562909185
  0
ARC
  5
1C981
  8
0
 10
3553.6557228020787988
 20
128.861373814364697
 30
0.0
 40
5.6300466885016789
 50
86.389109023425263
 51
90.1208974357920596
  0
ARC
  5
1C982
  8
0
 10
3553.4793302555999617
 20
107.5627634401378998
 30
0.0
 40
26.9291470465513711
 50
89.6499722266247687
 51
90.0229549264786755
  0
ARC
  5
1C983
  8
0
 10
3554.1193476687080874
 20
134.0005829652745888
 30
0.0
 40
0.4320521713704319
 50
287.6256689653583862
 51
309.7009851877530764
  0
ARC
  5
1C984
  8
0
 10
3554.4000002959169251
 20
133.6619316583216062
 30
0.0
 40
0.0077877811009217
 50
3.9288678010023368
 51
126.8075725212766969
  0
ARC
  5
1C985
  8
0
 10
3554.1950344232068346
 20
133.9002688646895933
 30
0.0
 40
0.3146594821532198
 50
312.1126351181775931
 51
350.0547319575712208
  0
ARC
  5
1C986
  8
0
 10
3553.2169106256760642
 20
134.0502754469343927
 30
0.0
 40
1.3041643741378739
 50
350.9851283292471749
 51
358.3756960638787064
  0
ARC
  5
1C987
  8
0
 10
3553.3060892505791344
 20
133.9734051355355007
 30
0.0
 40
1.2151170690762421
 50
1.881859778419924
 51
11.01956473933053
  0
ARC
  5
1C988
  8
0
 10
3554.1872916149281991
 20
134.1256744796345117
 30
0.0
 40
0.3216171734359791
 50
14.4018894270287205
 51
38.7276159315300319
  0
ARC
  5
1C989
  8
0
 10
3554.1530229016229896
 20
134.0767023906107056
 30
0.0
 40
0.3793596911613716
 50
41.2605665392846603
 51
62.1742495078230775
  0
ARC
  5
1C98A
  8
0
 10
3554.0650682536747809
 20
133.9089426902419007
 30
0.0
 40
0.5687776278075237
 50
62.2269343912361705
 51
79.9319112925606845
  0
ARC
  5
1C98B
  8
0
 10
3553.9235316911740483
 20
133.1977805063100959
 30
0.0
 40
1.293818938098706
 50
79.266181066187599
 51
85.0021320461630836
  0
ARC
  5
1C98C
  8
0
 10
3553.8146300937310116
 20
132.0065181299501091
 30
0.0
 40
2.4900438744371698
 50
84.8938391231782958
 51
87.6568216531126581
  0
ARC
  5
1C98D
  8
0
 10
3553.6983518070201171
 20
129.3120109083614011
 30
0.0
 40
5.18705563355884
 50
87.5903613192371608
 51
88.9013749878451307
  0
ARC
  5
1C98E
  8
0
 10
3553.5304855633389707
 20
119.5096133563444027
 30
0.0
 40
14.9908832996251107
 50
88.9782377268308267
 51
90.0009805064796069
  0
ARC
  5
1C98F
  8
0
 10
3553.4727309235167922
 20
102.0625921118128048
 30
0.0
 40
32.4379555013089487
 50
89.8984399563716465
 51
90.0074000563669046
  0
ENDSEC
  0
EOF
