  0
SECTION
  2
HEADER
  9
$ACADVER
  1
AC1009
  9
$INSBASE
 10
3553.468739415996879
 20
134.0125810080623125
 30
0.0
  9
$EXTMIN
 10
3551.9534012750409602
 20
132.5192739215123083
 30
0.0
  9
$EXTMAX
 10
3554.9840816314249423
 20
135.0613857529122868
 30
0.0
  9
$LIMMIN
 10
0.0
 20
0.0
  9
$LIMMAX
 10
11.6929133858000007
 20
8.2677165353999982
  9
$ORTHOMODE
 70
     1
  9
$REGENMODE
 70
     1
  9
$FILLMODE
 70
     1
  9
$QTEXTMODE
 70
     0
  9
$MIRRTEXT
 70
     0
  9
$DRAGMODE
 70
     2
  9
$LTSCALE
 40
0.6431102362
  9
$OSMODE
 70
  4095
  9
$ATTMODE
 70
     1
  9
$TEXTSIZE
 40
0.2
  9
$TRACEWID
 40
0.05
  9
$TEXTSTYLE
  7
STANDARD
  9
$CLAYER
  8
0
  9
$CELTYPE
  6
BYLAYER
  9
$CECOLOR
 62
   256
  9
$DIMSCALE
 40
1.0
  9
$DIMASZ
 40
0.1875
  9
$DIMEXO
 40
0.0625
  9
$DIMDLI
 40
0.4443307087
  9
$DIMRND
 40
0.0
  9
$DIMDLE
 40
0.0
  9
$DIMEXE
 40
0.125
  9
$DIMTP
 40
0.01
  9
$DIMTM
 40
0.01
  9
$DIMTXT
 40
2.0
  9
$DIMCEN
 40
0.1052362205
  9
$DIMTSZ
 40
0.0
  9
$DIMTOL
 70
     1
  9
$DIMLIM
 70
     0
  9
$DIMTIH
 70
     1
  9
$DIMTOH
 70
     1
  9
$DIMSE1
 70
     0
  9
$DIMSE2
 70
     0
  9
$DIMTAD
 70
     0
  9
$DIMZIN
 70
     0
  9
$DIMBLK
  1

  9
$DIMASO
 70
     1
  9
$DIMSHO
 70
     1
  9
$DIMPOST
  1
\X
  9
$DIMAPOST
  1

  9
$DIMALT
 70
     1
  9
$DIMALTD
 70
     2
  9
$DIMALTF
 40
25.3999999999999986
  9
$DIMLFAC
 40
1.0
  9
$DIMTOFL
 70
     0
  9
$DIMTVP
 40
0.0
  9
$DIMTIX
 70
     0
  9
$DIMSOXD
 70
     0
  9
$DIMSAH
 70
     0
  9
$DIMBLK1
  1

  9
$DIMBLK2
  1

  9
$DIMSTYLE
  2
STANDARD
  9
$DIMCLRD
 70
     0
  9
$DIMCLRE
 70
     0
  9
$DIMCLRT
 70
     0
  9
$DIMTFAC
 40
1.0
  9
$DIMGAP
 40
0.09
  9
$LUNITS
 70
     2
  9
$LUPREC
 70
     4
  9
$SKETCHINC
 40
0.1
  9
$FILLETRAD
 40
0.0
  9
$AUNITS
 70
     0
  9
$AUPREC
 70
     0
  9
$MENU
  1
.
  9
$ELEVATION
 40
0.0
  9
$PELEVATION
 40
0.0
  9
$THICKNESS
 40
0.0
  9
$LIMCHECK
 70
     0
  9
$BLIPMODE
 70
     0
  9
$CHAMFERA
 40
0.0
  9
$CHAMFERB
 40
0.0
  9
$SKPOLY
 70
     0
  9
$TDCREATE
 40
2458060.468368056230247
  9
$TDUPDATE
 40
2459563.6906712967902422
  9
$TDINDWG
 40
0.3817431713
  9
$TDUSRTIMER
 40
0.3817431713
  9
$USRTIMER
 70
     1
  9
$ANGBASE
 50
0.0
  9
$ANGDIR
 70
     0
  9
$PDMODE
 70
     0
  9
$PDSIZE
 40
0.3125
  9
$PLINEWID
 40
0.0
  9
$COORDS
 70
     1
  9
$SPLFRAME
 70
     0
  9
$SPLINETYPE
 70
     6
  9
$SPLINESEGS
 70
     8
  9
$ATTDIA
 70
     1
  9
$ATTREQ
 70
     1
  9
$HANDLING
 70
     1
  9
$HANDSEED
  5
1D356
  9
$SURFTAB1
 70
     6
  9
$SURFTAB2
 70
     6
  9
$SURFTYPE
 70
     6
  9
$SURFU
 70
     6
  9
$SURFV
 70
     6
  9
$UCSNAME
  2

  9
$UCSORG
 10
0.0
 20
0.0
 30
0.0
  9
$UCSXDIR
 10
1.0
 20
0.0
 30
0.0
  9
$UCSYDIR
 10
0.0
 20
1.0
 30
0.0
  9
$PUCSNAME
  2

  9
$PUCSORG
 10
0.0
 20
0.0
 30
0.0
  9
$PUCSXDIR
 10
1.0
 20
0.0
 30
0.0
  9
$PUCSYDIR
 10
0.0
 20
1.0
 30
0.0
  9
$USERI1
 70
     0
  9
$USERI2
 70
     0
  9
$USERI3
 70
     0
  9
$USERI4
 70
     0
  9
$USERI5
 70
     0
  9
$USERR1
 40
0.0
  9
$USERR2
 40
0.0
  9
$USERR3
 40
0.0
  9
$USERR4
 40
0.0
  9
$USERR5
 40
0.0
  9
$WORLDVIEW
 70
     1
  9
$SHADEDGE
 70
     3
  9
$SHADEDIF
 70
    70
  9
$TILEMODE
 70
     1
  9
$MAXACTVP
 70
    64
  9
$PLIMCHECK
 70
     0
  9
$PEXTMIN
 10
1.0000000000000000E+20
 20
1.0000000000000000E+20
 30
1.0000000000000000E+20
  9
$PEXTMAX
 10
-1.0000000000000000E+20
 20
-1.0000000000000000E+20
 30
-1.0000000000000000E+20
  9
$PLIMMIN
 10
0.0
 20
0.0
  9
$PLIMMAX
 10
12.0
 20
9.0
  9
$UNITMODE
 70
     0
  9
$VISRETAIN
 70
     1
  9
$PLINEGEN
 70
     0
  9
$PSLTSCALE
 70
     1
  0
ENDSEC
  0
SECTION
  2
TABLES
  0
TABLE
  2
VPORT
 70
     1
  0
VPORT
  2
*ACTIVE
 70
     0
 10
0.0
 20
0.0
 11
1.0
 21
1.0
 12
-250.0753259295798046
 22
7.7950676404624479
 13
0.0
 23
0.0
 14
1.0
 24
1.0
 15
0.0
 25
0.0
 16
0.0
 26
0.0
 36
17.1152628219792007
 17
3803.5440673828129547
 27
125.9952621967499056
 37
0.0
 40
2.5608038301603
 41
2.344785276073619
 42
50.0
 43
0.0
 44
0.0
 50
0.0
 51
0.0
 71
     0
 72
   100
 73
     1
 74
     1
 75
     0
 76
     0
 77
     0
 78
     1
  0
ENDTAB
  0
TABLE
  2
LTYPE
 70
     2
  0
LTYPE
  2
CONTINUOUS
 70
     0
  3
Solid line
 72
    65
 73
     0
 40
0.0
  0
LTYPE
  2
PHANTOM2
 70
     0
  3
___ _ _ ___ _ _ ___ _ _ ___ _ _
 72
    65
 73
     6
 40
1.25
 49
0.625
 49
-0.125
 49
0.125
 49
-0.125
 49
0.125
 49
-0.125
  0
ENDTAB
  0
TABLE
  2
LAYER
 70
     2
  0
LAYER
  2
0
 70
     0
 62
   255
  6
CONTINUOUS
  0
LAYER
  2
DEFPOINTS
 70
     0
 62
     7
  6
CONTINUOUS
  0
ENDTAB
  0
TABLE
  2
STYLE
 70
     1
  0
STYLE
  2
STANDARD
 70
     0
 40
0.0
 41
0.8
 50
0.0
 71
     0
 42
0.2
  3
txt
  4

  0
ENDTAB
  0
TABLE
  2
VIEW
 70
     0
  0
ENDTAB
  0
TABLE
  2
UCS
 70
     0
  0
ENDTAB
  0
TABLE
  2
APPID
 70
     9
  0
APPID
  2
ACAD
 70
     0
  0
APPID
  2
ACAD_MLEADERVER
 70
     0
  0
APPID
  2
ACAD_EXEMPT_FROM_CAD_STANDARDS
 70
     0
  0
APPID
  2
ACAD_NAV_VCDISPLAY
 70
     0
  0
APPID
  2
ACAECLAYERSTANDARD
 70
     0
  0
APPID
  2
ACCMTRANSPARENCY
 70
     0
  0
APPID
  2
ACAD_DSTYLE_DIMJAG
 70
     0
  0
APPID
  2
ACAD_DSTYLE_DIMTALN
 70
     0
  0
APPID
  2
ACDBATTR
 70
     0
  0
ENDTAB
  0
TABLE
  2
DIMSTYLE
 70
     1
  0
DIMSTYLE
  2
STANDARD
 70
     0
  3

  4

  5

  6

  7

 40
1.0
 41
0.1875
 42
0.0625
 43
0.38
 44
0.125
 45
0.0
 46
0.0
 47
0.01
 48
0.01
140
0.15625
141
0.09
142
0.0
143
25.3999999999999986
144
1.0
145
0.0
146
1.0
147
0.09
 71
     1
 72
     0
 73
     1
 74
     1
 75
     0
 76
     0
 77
     0
 78
     4
170
     0
171
     2
172
     0
173
     0
174
     0
175
     0
176
     0
177
     0
178
     0
  0
ENDTAB
  0
ENDSEC
  0
SECTION
  2
BLOCKS
  0
BLOCK
  8
0
  2
$MODEL_SPACE
 70
     0
 10
0.0
 20
0.0
 30
0.0
  3
$MODEL_SPACE
  1

  0
ENDBLK
  5
21
  8
0
  0
BLOCK
 67
     1
  8
0
  2
$PAPER_SPACE
 70
     0
 10
0.0
 20
0.0
 30
0.0
  3
$PAPER_SPACE
  1

  0
ENDBLK
  5
1D
 67
     1
  8
0
  0
BLOCK
  8
0
  2
_FILLED
 70
     0
 10
0.0
 20
0.0
 30
0.0
  3
_FILLED
  1

  0
SOLID
  5
1BA72
  8
0
  6
BYBLOCK
 62
     0
 10
0.0
 20
0.0
 30
0.0
 11
-1.0
 21
0.1666666667
 31
0.0
 12
-1.0
 22
-0.1666666667
 32
0.0
 13
-1.0
 23
-0.1666666667
 33
0.0
  0
ENDBLK
  5
1BA73
  8
0
  6
BYBLOCK
 62
     0
  0
ENDSEC
  0
SECTION
  2
ENTITIES
  0
ATTDEF
  5
1C5B7
  8
DEFPOINTS
 10
3553.469188810587184
 20
134.0169053902116048
 30
0.0
 40
0.001
  1
K-26324IN
  3

  2
MODELNUMBER
 70
     0
1001
ACDBATTR
1070
     0
1070
     1
  0
ATTDEF
  5
1C5B8
  8
DEFPOINTS
 10
3553.469188810587184
 20
134.0152387235449112
 30
0.0
 40
0.001
  1

  3

  2
TRADENAME
 70
     0
1001
ACDBATTR
1070
     0
1070
     1
  0
ATTDEF
  5
1C5B9
  8
DEFPOINTS
 10
3553.469188810587184
 20
134.0135720568783029
 30
0.0
 40
0.001
  1
SHOWER ARM
  3

  2
PRODUCT
 70
     0
1001
ACDBATTR
1070
     0
1070
     1
  0
ARC
  5
1CF97
  8
0
 10
3553.4687414532331786
 20
128.0176006708821888
 30
0.0
 40
7.0437850820301522
 50
85.3631979324929659
 51
94.6368020675070767
  0
ARC
  5
1CF98
  8
0
 10
3553.9549619259460087
 20
134.0125810081144095
 30
0.0
 40
1.0291197054787251
 50
283.1570889733590093
 51
85.3631979324929659
  0
ARC
  5
1CF99
  8
0
 10
3553.4687414532331786
 20
140.0075613453466019
 30
0.0
 40
7.0437850820301158
 50
268.3208950504753147
 51
271.6790720116835018
  0
ARC
  5
1CF9A
  8
0
 10
3552.9825209805198938
 20
134.0125810081144095
 30
0.0
 40
1.0291197054787251
 50
94.6368020503849152
 51
256.8426780473117788
  0
ARC
  5
1CF9B
  8
0
 10
3552.833176491982158
 20
134.0242739348518057
 30
0.0
 40
0.4599949027981419
 50
231.5154184955194125
 51
253.5954870095750096
  0
ARC
  5
1CF9C
  8
0
 10
3553.4646034832649093
 20
158.8046842962384915
 30
0.0
 40
25.2707032389212003
 50
269.4276324526081225
 51
270.0093819397723109
  0
ARC
  5
1CF9D
  8
0
 10
3553.2268648046738235
 20
137.750422938372509
 30
0.0
 40
4.2152066039718541
 50
265.6069881418374052
 51
269.8001358557634717
  0
ARC
  5
1CF9E
  8
0
 10
3552.9803062310679707
 20
134.5669731452688893
 30
0.0
 40
1.022225648345664
 50
254.2752301060278057
 51
265.7185370683063184
  0
ARC
  5
1CF9F
  8
0
 10
3552.7390938769181048
 20
133.8979718840963073
 30
0.0
 40
0.3026212747732027
 50
189.8121346172275992
 51
230.5776752362758941
  0
ARC
  5
1CFA0
  8
0
 10
3553.6670269604560417
 20
134.043966180311287
 30
0.0
 40
1.241942554159982
 50
181.4481117238368029
 51
189.1534182044026977
  0
ARC
  5
1CFA1
  8
0
 10
3554.8772632397071902
 20
133.9601993893689098
 30
0.0
 40
2.4523416630976929
 50
176.8746006371590056
 51
178.7760956076041055
  0
ARC
  5
1CFA2
  8
0
 10
3552.9384882661752272
 20
134.0627304345001107
 30
0.0
 40
0.510871112067441
 50
158.4894487961057905
 51
176.5015426171665069
  0
ARC
  5
1CFA3
  8
0
 10
3552.7187817131461998
 20
134.1439999985549036
 30
0.0
 40
0.2767120879575603
 50
135.1668543999053895
 51
157.4641984101886862
  0
ARC
  5
1CFA4
  8
0
 10
3552.8306358022578024
 20
134.0100787685830142
 30
0.0
 40
0.4507432855332527
 50
104.0898607491135976
 51
133.118629476770991
  0
ARC
  5
1CFA5
  8
0
 10
3553.0003401057460906
 20
133.3363790230174004
 30
0.0
 40
1.145488390118035
 50
93.6719652437090957
 51
104.1194231586917027
  0
ARC
  5
1CFA6
  8
0
 10
3553.2815600393291788
 20
128.860646031834591
 30
0.0
 40
5.6300466885016789
 50
89.8791025642079546
 51
93.6108909765746375
  0
ARC
  5
1CFA7
  8
0
 10
3553.457952585806197
 20
107.5620356576115029
 30
0.0
 40
26.9291470465477012
 50
89.9770450735213245
 51
90.3500277733752171
  0
ARC
  5
1CFA8
  8
0
 10
3552.8179351726998902
 20
133.9998551827445112
 30
0.0
 40
0.4320521713704319
 50
230.299014812243712
 51
252.3743310346405906
  0
ARC
  5
1CFA9
  8
0
 10
3552.5372825454910526
 20
133.6612038757916139
 30
0.0
 40
0.0077877811009217
 50
53.1924274787262092
 51
176.0711321989977023
  0
ARC
  5
1CFAA
  8
0
 10
3651.4593354840749271
 20
131.7594262021954989
 30
0.0
 40
98.9481104000928013
 50
178.8984011676317039
 51
179.09263070772991
  0
LINE
  5
1CFAB
  8
0
 10
3552.5236327850830094
 20
133.3263605357144002
 30
0.0
 11
3554.4138458249831274
 21
133.3263605357144002
 31
0.0
  0
ARC
  5
1CFAC
  8
0
 10
3552.7422484181997788
 20
133.8995410821594874
 30
0.0
 40
0.3146594821532198
 50
189.9452680424288928
 51
227.88736488181911
  0
ARC
  5
1CFAD
  8
0
 10
3553.7203722157319135
 20
134.0495476644042867
 30
0.0
 40
1.3041643741378739
 50
181.6243039361212936
 51
189.0148716707527967
  0
ARC
  5
1CFAE
  8
0
 10
3553.6311935908288433
 20
133.9726773530053947
 30
0.0
 40
1.2151170690762421
 50
168.980435260672607
 51
178.1181402215800063
  0
ARC
  5
1CFAF
  8
0
 10
3552.7499912264797786
 20
134.1249466971044058
 30
0.0
 40
0.3216171734359791
 50
141.2723840684749916
 51
165.5981105729744058
  0
ARC
  5
1CFB0
  8
0
 10
3552.7842599397849881
 20
134.0759746080805996
 30
0.0
 40
0.3793596911613716
 50
117.825750492175402
 51
138.739433460718999
  0
ARC
  5
1CFB1
  8
0
 10
3552.8722145877331968
 20
133.9082149077117947
 30
0.0
 40
0.5687776278075237
 50
100.0680887074395997
 51
117.7730656087630052
  0
ARC
  5
1CFB2
  8
0
 10
3553.0137511502348389
 20
133.1970527237799899
 30
0.0
 40
1.293818938098706
 50
94.9978679538369164
 51
100.7338189338121026
  0
ARC
  5
1CFB3
  8
0
 10
3553.1226527476769661
 20
132.0057903474200032
 30
0.0
 40
2.4900438744371698
 50
92.3431783468873135
 51
95.1061608768215763
  0
ARC
  5
1CFB4
  8
0
 10
3553.2389310343878606
 20
129.3112831258312951
 30
0.0
 40
5.18705563355884
 50
91.0986250121548551
 51
92.4096386807628534
  0
ARC
  5
1CFB5
  8
0
 10
3553.4067972780680975
 20
119.5088855738143963
 30
0.0
 40
14.9908832996251107
 50
89.9990194935203931
 51
91.0217622731691876
  0
ARC
  5
1CFB6
  8
0
 10
3553.4645519179121038
 20
102.061864313565394
 30
0.0
 40
32.4379555170263814
 50
89.9925999436852067
 51
90.1015600436283677
  0
ARC
  5
1CFB7
  8
0
 10
3455.4781474223909754
 20
131.7594262021954989
 30
0.0
 40
98.9481104000928013
 50
0.9073692922700498
 51
1.1015988323682471
  0
ARC
  5
1CFB8
  8
0
 10
3554.1043064146560937
 20
134.0242739348518057
 30
0.0
 40
0.4599949027981419
 50
286.4045129904249052
 51
308.4845815044805022
  0
ARC
  5
1CFB9
  8
0
 10
3553.4728794233728877
 20
158.8046842962384915
 30
0.0
 40
25.2707032389212003
 50
269.9906180602276891
 51
270.5723675473918206
  0
ARC
  5
1CFBA
  8
0
 10
3553.710618101964883
 20
137.750422938372509
 30
0.0
 40
4.2152066039718541
 50
270.1998641442365283
 51
274.3930118581625948
  0
ARC
  5
1CFBB
  8
0
 10
3553.9571766755711906
 20
134.5669731452688893
 30
0.0
 40
1.022225648345664
 50
274.2814629316936816
 51
285.7247698939722227
  0
ARC
  5
1CFBC
  8
0
 10
3554.1983890297210564
 20
133.8979718840963073
 30
0.0
 40
0.3026212747732027
 50
309.4223247637241911
 51
350.1878653827723724
  0
ARC
  5
1CFBD
  8
0
 10
3553.27045594618221
 20
134.043966180311287
 30
0.0
 40
1.241942554159982
 50
350.8465817955956254
 51
358.5518882761630834
  0
ARC
  5
1CFBE
  8
0
 10
3552.060219666931971
 20
133.9601993893689098
 30
0.0
 40
2.4523416630976929
 50
1.223904392395883
 51
3.1253993628409691
  0
ARC
  5
1CFBF
  8
0
 10
3553.9989946404630246
 20
134.0627304345001107
 30
0.0
 40
0.510871112067441
 50
3.498457382833482
 51
21.5105512038942308
  0
ARC
  5
1CFC0
  8
0
 10
3554.218701193492052
 20
134.1439999985549036
 30
0.0
 40
0.2767120879575603
 50
22.5358015898112782
 51
44.8331456000946034
  0
ARC
  5
1CFC1
  8
0
 10
3554.1068471043809041
 20
134.0100787685830142
 30
0.0
 40
0.4507432855332527
 50
46.8813705232289806
 51
75.9101392508863739
  0
ARC
  5
1CFC2
  8
0
 10
3553.9371428008930707
 20
133.3363790230174004
 30
0.0
 40
1.145488390118035
 50
75.8805768413082546
 51
86.3280347562909185
  0
ARC
  5
1CFC3
  8
0
 10
3553.6559228673099824
 20
128.860646031834591
 30
0.0
 40
5.6300466885016789
 50
86.3891090234253483
 51
90.1208974357920596
  0
ARC
  5
1CFC4
  8
0
 10
3553.4795303208311452
 20
107.5620356576077938
 30
0.0
 40
26.9291470465513711
 50
89.6499722266247687
 51
90.0229549264786755
  0
ARC
  5
1CFC5
  8
0
 10
3554.1195477339388162
 20
133.9998551827445112
 30
0.0
 40
0.4320521713704319
 50
287.6256689653594094
 51
309.7009851877563165
  0
ARC
  5
1CFC6
  8
0
 10
3554.4002003611471991
 20
133.6612038757916139
 30
0.0
 40
0.0077877811009217
 50
3.9288678010023368
 51
126.8075725212737979
  0
ARC
  5
1CFC7
  8
0
 10
3554.1952344884380182
 20
133.8995410821594874
 30
0.0
 40
0.3146594821532198
 50
312.11263511818089
 51
350.0547319575712208
  0
ARC
  5
1CFC8
  8
0
 10
3553.217110690906793
 20
134.0495476644042867
 30
0.0
 40
1.3041643741378739
 50
350.9851283292471749
 51
358.3756960638787064
  0
ARC
  5
1CFC9
  8
0
 10
3553.3062893158098632
 20
133.9726773530053947
 30
0.0
 40
1.2151170690762421
 50
1.881859778419924
 51
11.0195647393273308
  0
ARC
  5
1CFCA
  8
0
 10
3554.1874916801589279
 20
134.1249466971044058
 30
0.0
 40
0.3216171734359791
 50
14.4018894270255604
 51
38.7276159315249515
  0
ARC
  5
1CFCB
  8
0
 10
3554.1532229668528089
 20
134.0759746080805996
 30
0.0
 40
0.3793596911613716
 50
41.2605665392809868
 51
62.1742495078245909
  0
ARC
  5
1CFCC
  8
0
 10
3554.0652683189059644
 20
133.9082149077117947
 30
0.0
 40
0.5687776278075237
 50
62.2269343912369379
 51
79.9319112925604145
  0
ARC
  5
1CFCD
  8
0
 10
3553.9237317564038676
 20
133.1970527237799899
 30
0.0
 40
1.293818938098706
 50
79.2661810661879116
 51
85.0021320461630836
  0
ARC
  5
1CFCE
  8
0
 10
3553.8148301589621951
 20
132.0057903474200032
 30
0.0
 40
2.4900438744371698
 50
84.8938391231784379
 51
87.6568216531126581
  0
ARC
  5
1CFCF
  8
0
 10
3553.6985518722499364
 20
129.3112831258312951
 30
0.0
 40
5.18705563355884
 50
87.5903613192371608
 51
88.9013749878451307
  0
ARC
  5
1CFD0
  8
0
 10
3553.5306856285701542
 20
119.5088855738143963
 30
0.0
 40
14.9908832996251107
 50
88.9782377268308267
 51
90.0009805064796069
  0
ARC
  5
1CFD1
  8
0
 10
3553.4729309887479758
 20
102.0618643292827983
 30
0.0
 40
32.4379555013089487
 50
89.8984399563716465
 51
90.0074000563669046
  0
LINE
  5
1CFD2
  8
0
 10
3552.7482669749269917
 20
133.3263605356123094
 30
0.0
 11
3552.7482669749269917
 21
132.975966834912299
 31
0.0
  0
LINE
  5
1CFD3
  8
0
 10
3552.7482669749269917
 20
132.975966834912299
 30
0.0
 11
3553.3230701245270211
 21
132.975966834912299
 31
0.0
  0
LINE
  5
1CFD4
  8
0
 10
3553.3230701245270211
 20
132.975966834912299
 30
0.0
 11
3553.3230701245270211
 21
133.3263605357144002
 31
0.0
  0
ARC
  5
1CFD5
  8
0
 10
3552.7974795733271094
 20
132.9641558112124073
 30
0.0
 40
0.0118110235999964
 50
359.9999999999657803
 51
90.0000000000781455
  0
LINE
  5
1CFD6
  8
0
 10
3552.809290596926985
 20
132.9641558112124073
 30
0.0
 11
3552.809290596926985
 21
132.9011636853124116
 31
0.0
  0
ARC
  5
1CFD7
  8
0
 10
3552.7974795732261555
 20
132.9011636853124116
 30
0.0
 40
0.0118110237000053
 50
270.0000004852763027
 51
359.9999999999690772
  0
LINE
  5
1CFD8
  8
0
 10
3552.7699205182270816
 20
132.8893526616122926
 30
0.0
 11
3553.3014165812269312
 21
132.8893526616122926
 31
0.0
  0
LINE
  5
1CFD9
  8
0
 10
3552.7699205182270816
 20
132.7712424254123107
 30
0.0
 11
3553.3014165812269312
 21
132.7712424254123107
 31
0.0
  0
LINE
  5
1CFDA
  8
0
 10
3552.7876685497258222
 20
132.7546282522123988
 30
0.0
 11
3553.2836685497268263
 21
132.7546282522123988
 31
0.0
  0
LINE
  5
1CFDB
  8
0
 10
3552.7699205182270816
 20
132.6846282522124056
 30
0.0
 11
3553.3014165812269312
 21
132.6846282522124056
 31
0.0
  0
LINE
  5
1CFDC
  8
0
 10
3552.7699205182270816
 20
132.6452581734122873
 30
0.0
 11
3553.3014165812269312
 21
132.6452581734122873
 31
0.0
  0
LINE
  5
1CFDD
  8
0
 10
3552.807322093026869
 20
132.5704550238122863
 30
0.0
 11
3553.2640150064257796
 21
132.5704550238122863
 31
0.0
  0
LINE
  5
1CFDE
  8
0
 10
3552.7699205182270816
 20
132.5586440002124107
 30
0.0
 11
3553.3014165812269312
 21
132.5586440002124107
 31
0.0
  0
LINE
  5
1CFDF
  8
0
 10
3552.777794533926226
 20
132.5192739215123083
 30
0.0
 11
3553.2935425654268329
 21
132.5192739215123083
 31
0.0
  0
LINE
  5
1CFE0
  8
0
 10
3552.777794533926226
 20
132.5192739215123083
 30
0.0
 11
3552.758109494627206
 21
132.5389589608124083
 31
0.0
  0
LINE
  5
1CFE1
  8
0
 10
3552.758109494627206
 20
132.5389589608124083
 30
0.0
 11
3552.758109494627206
 21
132.5468329766123077
 31
0.0
  0
ARC
  5
1CFE2
  8
0
 10
3552.7699205182270816
 20
132.5468329766123077
 30
0.0
 40
0.0118110236000035
 50
90.0
 51
180.0
  0
ARC
  5
1CFE3
  8
0
 10
3552.7955177161488791
 20
132.57044837708969
 30
0.0
 40
0.0118043787486088
 50
269.9677383125921892
 51
0.0322616874533275
  0
LINE
  5
1CFE4
  8
0
 10
3552.807322093026869
 20
132.5704550238122863
 30
0.0
 11
3552.807322093026869
 21
132.5752581734124078
 31
0.0
  0
LINE
  5
1CFE5
  8
0
 10
3552.7876685497258222
 20
132.5752581734124078
 30
0.0
 11
3553.2836685497268263
 21
132.5752581734124078
 31
0.0
  0
ARC
  5
1CFE6
  8
0
 10
3552.7876685497258222
 20
132.6102581734124044
 30
0.0
 40
0.0349999999999966
 50
89.9999999999739515
 51
270.0000000000259774
  0
ARC
  5
1CFE7
  8
0
 10
3552.7699205182270816
 20
132.6728172286123026
 30
0.0
 40
0.0118110236000106
 50
90.0000000000781455
 51
179.9999999999315889
  0
LINE
  5
1CFE8
  8
0
 10
3552.758109494627206
 20
132.6728172286123026
 30
0.0
 11
3552.758109494627206
 21
132.6570691971122926
 31
0.0
  0
ARC
  5
1CFE9
  8
0
 10
3552.7699205182270816
 20
132.6570691971122926
 30
0.0
 40
0.0118110236000249
 50
180.0000000001026024
 51
269.999999999895806
  0
ARC
  5
1CFEA
  8
0
 10
3552.7876685497258222
 20
132.7196282522122885
 30
0.0
 40
0.0349999999999966
 50
90.0
 51
270.0
  0
ARC
  5
1CFEB
  8
0
 10
3552.7699205182270816
 20
132.8775416380123033
 30
0.0
 40
0.0118110236000249
 50
90.0000000000781455
 51
179.9999999998956923
  0
LINE
  5
1CFEC
  8
0
 10
3552.758109494627206
 20
132.8775416380123033
 30
0.0
 11
3552.758109494627206
 21
132.7830534490123
 31
0.0
  0
ARC
  5
1CFED
  8
0
 10
3552.7699205182270816
 20
132.7830534490123
 30
0.0
 40
0.0118110235999822
 50
179.9999999998956923
 51
270.0000000009379733
  0
ARC
  5
1CFEE
  8
0
 10
3552.7955110694260838
 20
132.759431401812293
 30
0.0
 40
0.0118110236000177
 50
0.0000000000683946
 51
90.0
  0
LINE
  5
1CFEF
  8
0
 10
3552.807322093026869
 20
132.7594314018124066
 30
0.0
 11
3552.807322093026869
 21
132.7546282522123988
 31
0.0
  0
ARC
  5
1CFF0
  8
0
 10
3553.273857526026859
 20
132.9641558112124073
 30
0.0
 40
0.0118110235999964
 50
89.9999999999218403
 51
180.0000000000341913
  0
LINE
  5
1CFF1
  8
0
 10
3553.2620465024269834
 20
132.9641558112124073
 30
0.0
 11
3553.2620465024269834
 21
132.9011636853124116
 31
0.0
  0
ARC
  5
1CFF2
  8
0
 10
3553.2738575261259939
 20
132.9011636853124116
 30
0.0
 40
0.0118110237000053
 50
180.0000000000293028
 51
269.9999995147236973
  0
LINE
  5
1CFF3
  8
0
 10
3553.2935425654268329
 20
132.5192739215123083
 30
0.0
 11
3553.3132276047258529
 21
132.5389589608124083
 31
0.0
  0
LINE
  5
1CFF4
  8
0
 10
3553.3132276047258529
 20
132.5389589608124083
 30
0.0
 11
3553.3132276047258529
 21
132.5468329766123077
 31
0.0
  0
ARC
  5
1CFF5
  8
0
 10
3553.3014165811268867
 20
132.5468329766123077
 30
0.0
 40
0.0118110236000035
 50
0.0
 51
90.0
  0
ARC
  5
1CFF6
  8
0
 10
3553.2758193832041798
 20
132.57044837708969
 30
0.0
 40
0.0118043787486088
 50
179.9677383125466861
 51
270.0322616874076971
  0
LINE
  5
1CFF7
  8
0
 10
3553.2640150063270994
 20
132.5704550238122863
 30
0.0
 11
3553.2640150063270994
 21
132.5752581734124078
 31
0.0
  0
ARC
  5
1CFF8
  8
0
 10
3553.2836685496267819
 20
132.6102581734124044
 30
0.0
 40
0.0349999999999966
 50
269.9999999999739089
 51
90.0000000000260485
  0
ARC
  5
1CFF9
  8
0
 10
3553.3014165811268867
 20
132.6728172286123026
 30
0.0
 40
0.0118110236000106
 50
0.0000000000683946
 51
89.9999999999218403
  0
LINE
  5
1CFFA
  8
0
 10
3553.3132276047258529
 20
132.6728172286123026
 30
0.0
 11
3553.3132276047258529
 21
132.6570691971122926
 31
0.0
  0
ARC
  5
1CFFB
  8
0
 10
3553.3014165811268867
 20
132.6570691971122926
 30
0.0
 40
0.0118110236000249
 50
270.000000000104194
 51
359.999999999895806
  0
ARC
  5
1CFFC
  8
0
 10
3553.2836685496267819
 20
132.7196282522122885
 30
0.0
 40
0.0349999999999966
 50
270.0
 51
90.0
  0
ARC
  5
1CFFD
  8
0
 10
3553.3014165811268867
 20
132.8775416380123033
 30
0.0
 40
0.0118110236000249
 50
0.000000000102592
 51
89.9999999999218403
  0
LINE
  5
1CFFE
  8
0
 10
3553.3132276047258529
 20
132.8775416380123033
 30
0.0
 11
3553.3132276047272171
 21
132.7830534490123
 31
0.0
  0
ARC
  5
1CFFF
  8
0
 10
3553.3014165811268867
 20
132.7830534490123
 30
0.0
 40
0.0118110235999822
 50
269.9999999990620267
 51
0.000000000102592
  0
ARC
  5
1D000
  8
0
 10
3553.275826029926975
 20
132.759431401812293
 30
0.0
 40
0.0118110236000177
 50
90.0
 51
179.9999999999315889
  0
LINE
  5
1D001
  8
0
 10
3553.2640150063270994
 20
132.7594314018124066
 30
0.0
 11
3553.2640150063270994
 21
132.7546282522123988
 31
0.0
  0
ARC
  5
1D002
  8
0
 10
3554.1399992583269523
 20
132.9641558112124073
 30
0.0
 40
0.0118110235999964
 50
89.9999999999218403
 51
180.0000000000341913
  0
LINE
  5
1D003
  8
0
 10
3554.1281882347261671
 20
132.9641558112124073
 30
0.0
 11
3554.1281882347270766
 21
132.9011636853124116
 31
0.0
  0
ARC
  5
1D004
  8
0
 10
3554.1399992584269967
 20
132.9011636853124116
 30
0.0
 40
0.0118110237000053
 50
180.0000000000293028
 51
269.9999995147236973
  0
LINE
  5
1D005
  8
0
 10
3554.16755831342698
 20
132.8893526616122926
 30
0.0
 11
3553.636062250426221
 21
132.8893526616122926
 31
0.0
  0
LINE
  5
1D006
  8
0
 10
3554.16755831342698
 20
132.7712424254123107
 30
0.0
 11
3553.636062250426221
 21
132.7712424254123107
 31
0.0
  0
LINE
  5
1D007
  8
0
 10
3554.1498102819268752
 20
132.7546282522123988
 30
0.0
 11
3553.6538102819267806
 21
132.7546282522123988
 31
0.0
  0
LINE
  5
1D008
  8
0
 10
3554.16755831342698
 20
132.6846282522124056
 30
0.0
 11
3553.636062250426221
 21
132.6846282522124056
 31
0.0
  0
LINE
  5
1D009
  8
0
 10
3554.16755831342698
 20
132.6452581734122873
 30
0.0
 11
3553.636062250426221
 21
132.6452581734122873
 31
0.0
  0
LINE
  5
1D00A
  8
0
 10
3554.1301567386258284
 20
132.5704550238122863
 30
0.0
 11
3553.6734638252260083
 21
132.5704550238122863
 31
0.0
  0
LINE
  5
1D00B
  8
0
 10
3554.16755831342698
 20
132.5586440002124107
 30
0.0
 11
3553.636062250426221
 21
132.5586440002124107
 31
0.0
  0
LINE
  5
1D00C
  8
0
 10
3554.1596842977260167
 20
132.5192739215123083
 30
0.0
 11
3553.6439362662258645
 21
132.5192739215123083
 31
0.0
  0
LINE
  5
1D00D
  8
0
 10
3554.1596842977260167
 20
132.5192739215123083
 30
0.0
 11
3554.1793693370268556
 21
132.5389589608124083
 31
0.0
  0
LINE
  5
1D00E
  8
0
 10
3554.1793693370268556
 20
132.5389589608124083
 30
0.0
 11
3554.1793693370268556
 21
132.5468329766123077
 31
0.0
  0
ARC
  5
1D00F
  8
0
 10
3554.16755831342698
 20
132.5468329766123077
 30
0.0
 40
0.0118110236000035
 50
0.0
 51
90.0
  0
ARC
  5
1D010
  8
0
 10
3554.1419611155038183
 20
132.57044837708969
 30
0.0
 40
0.0118043787486088
 50
179.9677383125466861
 51
270.0322616874076971
  0
LINE
  5
1D011
  8
0
 10
3554.1301567386258284
 20
132.5704550238122863
 30
0.0
 11
3554.1301567386258284
 21
132.5752581734124078
 31
0.0
  0
LINE
  5
1D012
  8
0
 10
3554.1498102819268752
 20
132.5752581734124078
 30
0.0
 11
3553.6538102819267806
 21
132.5752581734124078
 31
0.0
  0
ARC
  5
1D013
  8
0
 10
3554.1498102819268752
 20
132.6102581734124044
 30
0.0
 40
0.0349999999999966
 50
269.9999999999739089
 51
90.0000000000260485
  0
ARC
  5
1D014
  8
0
 10
3554.16755831342698
 20
132.6728172286123026
 30
0.0
 40
0.0118110236000106
 50
0.0000000000683946
 51
89.9999999999218403
  0
LINE
  5
1D015
  8
0
 10
3554.1793693370268556
 20
132.6728172286123026
 30
0.0
 11
3554.1793693370268556
 21
132.6570691971122926
 31
0.0
  0
ARC
  5
1D016
  8
0
 10
3554.16755831342698
 20
132.6570691971122926
 30
0.0
 40
0.0118110236000249
 50
270.000000000104194
 51
359.999999999895806
  0
ARC
  5
1D017
  8
0
 10
3554.1498102819268752
 20
132.7196282522122885
 30
0.0
 40
0.0349999999999966
 50
270.0
 51
90.0
  0
ARC
  5
1D018
  8
0
 10
3554.16755831342698
 20
132.8775416380123033
 30
0.0
 40
0.0118110236000249
 50
0.000000000102592
 51
89.9999999999218403
  0
LINE
  5
1D019
  8
0
 10
3554.1793693370268556
 20
132.8775416380123033
 30
0.0
 11
3554.1793693370268556
 21
132.7830534490123
 31
0.0
  0
ARC
  5
1D01A
  8
0
 10
3554.16755831342698
 20
132.7830534490123
 30
0.0
 40
0.0118110235999822
 50
269.9999999990620267
 51
0.000000000102592
  0
ARC
  5
1D01B
  8
0
 10
3554.1419677622270683
 20
132.759431401812293
 30
0.0
 40
0.0118110236000177
 50
90.0
 51
179.9999999999315889
  0
LINE
  5
1D01C
  8
0
 10
3554.1301567386258284
 20
132.7594314018124066
 30
0.0
 11
3554.1301567386258284
 21
132.7546282522123988
 31
0.0
  0
ARC
  5
1D01D
  8
0
 10
3553.6636213056258384
 20
132.9641558112124073
 30
0.0
 40
0.0118110235999964
 50
359.9999999999657803
 51
90.0000000000781455
  0
LINE
  5
1D01E
  8
0
 10
3553.6754323292270783
 20
132.9641558112124073
 30
0.0
 11
3553.6754323292270783
 21
132.9011636853124116
 31
0.0
  0
ARC
  5
1D01F
  8
0
 10
3553.663621305525794
 20
132.9011636853124116
 30
0.0
 40
0.0118110237000053
 50
270.0000004852763027
 51
359.9999999999690772
  0
LINE
  5
1D020
  8
0
 10
3553.6439362662258645
 20
132.5192739215123083
 30
0.0
 11
3553.624251226925935
 21
132.5389589608124083
 31
0.0
  0
LINE
  5
1D021
  8
0
 10
3553.624251226925935
 20
132.5389589608124083
 30
0.0
 11
3553.624251226925935
 21
132.5468329766123077
 31
0.0
  0
ARC
  5
1D022
  8
0
 10
3553.6360622505258107
 20
132.5468329766123077
 30
0.0
 40
0.0118110236000035
 50
90.0
 51
180.0
  0
ARC
  5
1D023
  8
0
 10
3553.6616594484498819
 20
132.57044837708969
 30
0.0
 40
0.0118043787486088
 50
269.9677383125921892
 51
0.0322616874533275
  0
LINE
  5
1D024
  8
0
 10
3553.6734638253260528
 20
132.5704550238122863
 30
0.0
 11
3553.6734638253260528
 21
132.5752581734124078
 31
0.0
  0
ARC
  5
1D025
  8
0
 10
3553.653810282026825
 20
132.6102581734124044
 30
0.0
 40
0.0349999999999966
 50
89.9999999999739515
 51
270.0000000000259774
  0
ARC
  5
1D026
  8
0
 10
3553.6360622505258107
 20
132.6728172286123026
 30
0.0
 40
0.0118110236000106
 50
90.0000000000781455
 51
179.9999999999315889
  0
LINE
  5
1D027
  8
0
 10
3553.624251226925935
 20
132.6728172286123026
 30
0.0
 11
3553.624251226925935
 21
132.6570691971122926
 31
0.0
  0
ARC
  5
1D028
  8
0
 10
3553.6360622505258107
 20
132.6570691971122926
 30
0.0
 40
0.0118110236000249
 50
180.0000000001026024
 51
269.999999999895806
  0
ARC
  5
1D029
  8
0
 10
3553.653810282026825
 20
132.7196282522122885
 30
0.0
 40
0.0349999999999966
 50
90.0
 51
270.0
  0
ARC
  5
1D02A
  8
0
 10
3553.6360622505258107
 20
132.8775416380123033
 30
0.0
 40
0.0118110236000249
 50
90.0000000000781455
 51
179.9999999998956923
  0
LINE
  5
1D02B
  8
0
 10
3553.624251226925935
 20
132.8775416380123033
 30
0.0
 11
3553.624251226925935
 21
132.7830534490123
 31
0.0
  0
ARC
  5
1D02C
  8
0
 10
3553.6360622505258107
 20
132.7830534490123
 30
0.0
 40
0.0118110235999822
 50
179.9999999998956923
 51
270.0000000009379733
  0
ARC
  5
1D02D
  8
0
 10
3553.6616528017261771
 20
132.759431401812293
 30
0.0
 40
0.0118110236000177
 50
0.0000000000683946
 51
90.0
  0
LINE
  5
1D02E
  8
0
 10
3553.6734638253260528
 20
132.7594314018124066
 30
0.0
 11
3553.6734638253260528
 21
132.7546282522123988
 31
0.0
  0
ARC
  5
1D02F
  8
0
 10
3553.6419677623262032
 20
133.3184865199123976
 30
0.0
 40
0.0118110236000041
 50
0.0000000000683946
 51
41.8182608171776096
  0
LINE
  5
1D030
  8
0
 10
3553.6537787859269883
 20
133.3184865199123976
 30
0.0
 11
3553.6537787859269883
 21
133.310612504112413
 31
0.0
  0
LINE
  5
1D031
  8
0
 10
3553.6262197308269606
 20
133.310612504112413
 30
0.0
 11
3554.1774008331271943
 21
133.310612504112413
 31
0.0
  0
ARC
  5
1D032
  8
0
 10
3554.1774008331271943
 20
133.2712424253622885
 30
0.0
 40
0.0393700787500038
 50
270.0
 51
90.0
  0
LINE
  5
1D033
  8
0
 10
3554.1774008331271943
 20
133.231872346612306
 30
0.0
 11
3553.6262197308187751
 21
133.231872346612306
 31
0.0
  0
ARC
  5
1D034
  8
0
 10
3553.6262197308187751
 20
133.2712424253622885
 30
0.0
 40
0.0393700787499967
 50
89.9999999792080132
 51
270.0
  0
ARC
  5
1D035
  8
0
 10
3553.6262279336951906
 20
133.2200583388371911
 30
0.0
 40
0.0118192268455801
 50
91.5024095167207747
 51
179.9855336860730972
  0
LINE
  5
1D036
  8
0
 10
3553.614408707227085
 20
133.220061323012402
 30
0.0
 11
3553.614408707227085
 21
132.9877778585122883
 31
0.0
  0
ARC
  5
1D037
  8
0
 10
3553.6262197308269606
 20
132.987777858512402
 30
0.0
 40
0.0118110236000177
 50
180.0000000000684111
 51
269.9999999999218971
  0
LINE
  5
1D038
  8
0
 10
3553.6262197308269606
 20
132.975966834912299
 30
0.0
 11
3554.1774008331271943
 21
132.9759668349117021
 31
0.0
  0
ARC
  5
1D039
  8
0
 10
3554.1774008331271943
 20
132.9877778585116914
 30
0.0
 40
0.0118110235999893
 50
269.9999999999218971
 51
0.0000000032748009
  0
LINE
  5
1D03A
  8
0
 10
3554.1892118567261605
 20
132.9877778585122883
 30
0.0
 11
3554.1892118567129728
 21
133.220061323012402
 31
0.0
  0
ARC
  5
1D03B
  8
0
 10
3554.1773959006768564
 20
133.2200613230116915
 30
0.0
 40
0.0118159560364291
 50
0.0000000033057413
 51
88.5425492283142574
  0
LINE
  5
1D03C
  8
0
 10
3554.1498417780258023
 20
133.310612504112413
 30
0.0
 11
3554.1498417780258023
 21
133.3184865199123976
 31
0.0
  0
ARC
  5
1D03D
  8
0
 10
3554.1616528016270422
 20
133.3184865199123976
 30
0.0
 40
0.011811023599968
 50
138.181739182737914
 51
179.9999999999722888
  0
ENDSEC
  0
EOF
