  0
SECTION
  2
HEADER
  9
$ACADVER
  1
AC1009
  9
$INSBASE
 10
2953.589270584418955
 20
294.5357806926220974
 30
0.0
  9
$EXTMIN
 10
2946.5171227329669819
 20
272.5300998246240169
 30
-0.0015258207003583
  9
$EXTMAX
 10
2965.7493735803482195
 20
294.5525521645412255
 30
0.0000000349246037
  9
$LIMMIN
 10
0.0
 20
0.0
  9
$LIMMAX
 10
11.6929133858000007
 20
8.2677165353999982
  9
$ORTHOMODE
 70
     0
  9
$REGENMODE
 70
     1
  9
$FILLMODE
 70
     1
  9
$QTEXTMODE
 70
     0
  9
$MIRRTEXT
 70
     0
  9
$DRAGMODE
 70
     2
  9
$LTSCALE
 40
0.6431102362
  9
$OSMODE
 70
  4095
  9
$ATTMODE
 70
     1
  9
$TEXTSIZE
 40
0.2
  9
$TRACEWID
 40
0.05
  9
$TEXTSTYLE
  7
STANDARD
  9
$CLAYER
  8
0
  9
$CELTYPE
  6
BYLAYER
  9
$CECOLOR
 62
   256
  9
$DIMSCALE
 40
1.0
  9
$DIMASZ
 40
0.1875
  9
$DIMEXO
 40
0.0625
  9
$DIMDLI
 40
0.4443307087
  9
$DIMRND
 40
0.0
  9
$DIMDLE
 40
0.0
  9
$DIMEXE
 40
0.125
  9
$DIMTP
 40
0.01
  9
$DIMTM
 40
0.01
  9
$DIMTXT
 40
2.0
  9
$DIMCEN
 40
0.1052362205
  9
$DIMTSZ
 40
0.0
  9
$DIMTOL
 70
     1
  9
$DIMLIM
 70
     0
  9
$DIMTIH
 70
     1
  9
$DIMTOH
 70
     1
  9
$DIMSE1
 70
     0
  9
$DIMSE2
 70
     0
  9
$DIMTAD
 70
     0
  9
$DIMZIN
 70
     0
  9
$DIMBLK
  1

  9
$DIMASO
 70
     1
  9
$DIMSHO
 70
     1
  9
$DIMPOST
  1
\X
  9
$DIMAPOST
  1

  9
$DIMALT
 70
     1
  9
$DIMALTD
 70
     2
  9
$DIMALTF
 40
25.3999999999999986
  9
$DIMLFAC
 40
1.0
  9
$DIMTOFL
 70
     0
  9
$DIMTVP
 40
0.0
  9
$DIMTIX
 70
     0
  9
$DIMSOXD
 70
     0
  9
$DIMSAH
 70
     0
  9
$DIMBLK1
  1

  9
$DIMBLK2
  1

  9
$DIMSTYLE
  2
STANDARD
  9
$DIMCLRD
 70
     0
  9
$DIMCLRE
 70
     0
  9
$DIMCLRT
 70
     0
  9
$DIMTFAC
 40
1.0
  9
$DIMGAP
 40
0.09
  9
$LUNITS
 70
     2
  9
$LUPREC
 70
     4
  9
$SKETCHINC
 40
0.1
  9
$FILLETRAD
 40
0.0
  9
$AUNITS
 70
     0
  9
$AUPREC
 70
     0
  9
$MENU
  1
.
  9
$ELEVATION
 40
0.0
  9
$PELEVATION
 40
0.0
  9
$THICKNESS
 40
0.0
  9
$LIMCHECK
 70
     0
  9
$BLIPMODE
 70
     0
  9
$CHAMFERA
 40
0.0
  9
$CHAMFERB
 40
0.0
  9
$SKPOLY
 70
     0
  9
$TDCREATE
 40
2458060.468368056230247
  9
$TDUPDATE
 40
2459426.7078819451853633
  9
$TDINDWG
 40
0.700446875
  9
$TDUSRTIMER
 40
0.700446875
  9
$USRTIMER
 70
     1
  9
$ANGBASE
 50
0.0
  9
$ANGDIR
 70
     0
  9
$PDMODE
 70
     0
  9
$PDSIZE
 40
0.3125
  9
$PLINEWID
 40
0.0
  9
$COORDS
 70
     1
  9
$SPLFRAME
 70
     0
  9
$SPLINETYPE
 70
     6
  9
$SPLINESEGS
 70
     8
  9
$ATTDIA
 70
     1
  9
$ATTREQ
 70
     1
  9
$HANDLING
 70
     1
  9
$HANDSEED
  5
3CCF0
  9
$SURFTAB1
 70
     6
  9
$SURFTAB2
 70
     6
  9
$SURFTYPE
 70
     6
  9
$SURFU
 70
     6
  9
$SURFV
 70
     6
  9
$UCSNAME
  2

  9
$UCSORG
 10
0.0
 20
0.0
 30
0.0
  9
$UCSXDIR
 10
1.0
 20
0.0
 30
0.0
  9
$UCSYDIR
 10
0.0
 20
1.0
 30
0.0
  9
$PUCSNAME
  2

  9
$PUCSORG
 10
0.0
 20
0.0
 30
0.0
  9
$PUCSXDIR
 10
1.0
 20
0.0
 30
0.0
  9
$PUCSYDIR
 10
0.0
 20
1.0
 30
0.0
  9
$USERI1
 70
     0
  9
$USERI2
 70
     0
  9
$USERI3
 70
     0
  9
$USERI4
 70
     0
  9
$USERI5
 70
     0
  9
$USERR1
 40
0.0
  9
$USERR2
 40
0.0
  9
$USERR3
 40
0.0
  9
$USERR4
 40
0.0
  9
$USERR5
 40
0.0
  9
$WORLDVIEW
 70
     1
  9
$SHADEDGE
 70
     3
  9
$SHADEDIF
 70
    70
  9
$TILEMODE
 70
     1
  9
$MAXACTVP
 70
    64
  9
$PLIMCHECK
 70
     0
  9
$PEXTMIN
 10
1.0000000000000000E+20
 20
1.0000000000000000E+20
 30
1.0000000000000000E+20
  9
$PEXTMAX
 10
-1.0000000000000000E+20
 20
-1.0000000000000000E+20
 30
-1.0000000000000000E+20
  9
$PLIMMIN
 10
0.0
 20
0.0
  9
$PLIMMAX
 10
12.0
 20
9.0
  9
$UNITMODE
 70
     0
  9
$VISRETAIN
 70
     1
  9
$PLINEGEN
 70
     0
  9
$PSLTSCALE
 70
     1
  0
ENDSEC
  0
SECTION
  2
TABLES
  0
TABLE
  2
VPORT
 70
     1
  0
VPORT
  2
*ACTIVE
 70
     0
 10
0.0
 20
0.0
 11
1.0
 21
1.0
 12
-347.5598670777180814
 22
88.2798144186948548
 13
0.0
 23
0.0
 14
1.0
 24
1.0
 15
0.0
 25
0.0
 16
0.0
 26
0.0
 36
96.5995694866707311
 17
3303.693115234375
 27
195.2615115758877096
 37
0.0
 40
22.1960853412831796
 41
2.5092105263157891
 42
50.0
 43
0.0
 44
0.0
 50
0.0
 51
0.0
 71
     0
 72
   100
 73
     1
 74
     1
 75
     0
 76
     0
 77
     0
 78
     0
  0
ENDTAB
  0
TABLE
  2
LTYPE
 70
     2
  0
LTYPE
  2
CONTINUOUS
 70
     0
  3
Solid line
 72
    65
 73
     0
 40
0.0
  0
LTYPE
  2
PHANTOM2
 70
     0
  3
___ _ _ ___ _ _ ___ _ _ ___ _ _
 72
    65
 73
     6
 40
1.25
 49
0.625
 49
-0.125
 49
0.125
 49
-0.125
 49
0.125
 49
-0.125
  0
ENDTAB
  0
TABLE
  2
LAYER
 70
     2
  0
LAYER
  2
0
 70
     0
 62
   255
  6
CONTINUOUS
  0
LAYER
  2
DEFPOINTS
 70
     0
 62
     7
  6
CONTINUOUS
  0
ENDTAB
  0
TABLE
  2
STYLE
 70
     1
  0
STYLE
  2
STANDARD
 70
     0
 40
0.0
 41
0.8
 50
0.0
 71
     0
 42
0.2
  3
txt
  4

  0
ENDTAB
  0
TABLE
  2
VIEW
 70
     0
  0
ENDTAB
  0
TABLE
  2
UCS
 70
     0
  0
ENDTAB
  0
TABLE
  2
APPID
 70
    10
  0
APPID
  2
ACAD
 70
     0
  0
APPID
  2
ACAD_MLEADERVER
 70
     0
  0
APPID
  2
ACAD_EXEMPT_FROM_CAD_STANDARDS
 70
     0
  0
APPID
  2
ACAD_NAV_VCDISPLAY
 70
     0
  0
APPID
  2
ACAECLAYERSTANDARD
 70
     0
  0
APPID
  2
ACCMTRANSPARENCY
 70
     0
  0
APPID
  2
ACAD_DSTYLE_DIMJAG
 70
     0
  0
APPID
  2
ACAD_DSTYLE_DIMTALN
 70
     0
  0
APPID
  2
ACDBATTR
 70
     0
  0
APPID
  2
DCO15
 70
     0
  0
ENDTAB
  0
TABLE
  2
DIMSTYLE
 70
     1
  0
DIMSTYLE
  2
STANDARD
 70
     0
  3

  4

  5

  6

  7

 40
1.0
 41
0.1875
 42
0.0625
 43
0.38
 44
0.125
 45
0.0
 46
0.0
 47
0.01
 48
0.01
140
0.15625
141
0.09
142
0.0
143
25.3999999999999986
144
1.0
145
0.0
146
1.0
147
0.09
 71
     1
 72
     0
 73
     1
 74
     1
 75
     0
 76
     0
 77
     0
 78
     4
170
     0
171
     2
172
     0
173
     0
174
     0
175
     0
176
     0
177
     0
178
     0
  0
ENDTAB
  0
ENDSEC
  0
SECTION
  2
BLOCKS
  0
BLOCK
  8
0
  2
$MODEL_SPACE
 70
     0
 10
0.0
 20
0.0
 30
0.0
  3
$MODEL_SPACE
  1

  0
ENDBLK
  5
21
  8
0
  0
BLOCK
 67
     1
  8
0
  2
$PAPER_SPACE
 70
     0
 10
0.0
 20
0.0
 30
0.0
  3
$PAPER_SPACE
  1

  0
ENDBLK
  5
1D
 67
     1
  8
0
  0
BLOCK
  8
0
  2
_FILLED
 70
     0
 10
0.0
 20
0.0
 30
0.0
  3
_FILLED
  1

  0
SOLID
  5
3A30F
  8
0
  6
BYBLOCK
 62
     0
 10
0.0
 20
0.0
 30
0.0
 11
-1.0
 21
0.1666666667
 31
0.0
 12
-1.0
 22
-0.1666666667
 32
0.0
 13
-1.0
 23
-0.1666666667
 33
0.0
  0
ENDBLK
  5
3A310
  8
0
  6
BYBLOCK
 62
     0
  0
ENDSEC
  0
SECTION
  2
ENTITIES
  0
ATTDEF
  5
3B5AC
  8
DEFPOINTS
 10
2953.5903646245919845
 20
294.5425627225565108
 30
0.0
 40
0.001
  1
K-26331T-9
  3

  2
MODELNUMBER
 70
     0
1001
ACDBATTR
1070
     0
1070
     1
  0
ATTDEF
  5
3B5AD
  8
DEFPOINTS
 10
2953.5903646245919845
 20
294.5408960558897888
 30
0.0
 40
0.001
  1

  3

  2
TRADENAME
 70
     0
1001
ACDBATTR
1070
     0
1070
     1
  0
ATTDEF
  5
3B5AE
  8
DEFPOINTS
 10
2953.5903646245919845
 20
294.5392293892231237
 30
0.0
 40
0.001
  1
BATH AND SHOWER FAUCET
  3

  2
PRODUCT
 70
     0
1001
ACDBATTR
1070
     0
1070
     1
  0
LINE
  5
3CAD8
  8
0
 10
2956.1641655062480822
 20
293.0646102964357738
 30
0.0
 11
2956.1619198164471527
 21
292.9422536275358198
 31
0.0
  0
LINE
  5
3CAD9
  8
0
 10
2956.3368339487478806
 20
293.0451462287358027
 30
0.0
 11
2956.3361242384471552
 21
292.9577012187357923
 31
0.0
  0
LINE
  5
3CADA
  8
0
 10
2956.2573694702477951
 20
293.145478513435819
 30
0.0
 11
2956.2562165869471755
 21
293.019837472135805
 31
0.0
  0
LINE
  5
3CADB
  8
0
 10
2956.6851429706471208
 20
293.0534726988357761
 30
0.0
 11
2956.6859254705041167
 21
292.9639879730270877
 31
0.0
  0
LINE
  5
3CADC
  8
0
 10
2956.3816833736477747
 20
292.9586795904357928
 30
0.0
 11
2956.6942039964469586
 21
292.9641324158358202
 31
0.0
  0
LINE
  5
3CADD
  8
0
 10
2956.3615444866481994
 20
293.0432060076357743
 30
0.0
 11
2956.6760009670470026
 21
293.0484932281358965
 31
0.0
  0
ARC
  5
3CADE
  8
0
 10
2956.9523959516291143
 20
290.7812892896691892
 30
0.0
 40
2.533476420689547
 50
90.0009172358805785
 51
90.2115718988430189
  0
ARC
  5
3CADF
  8
0
 10
2957.1423728819631833
 20
302.9790059875517727
 30
0.0
 40
12.6976378885206405
 50
265.9589192022643829
 51
269.1425486692527898
  0
ARC
  5
3CAE0
  8
0
 10
2956.7190534780438611
 20
296.0987579505643907
 30
0.0
 40
5.805001128563358
 50
255.9207146292901882
 51
265.3410815060229879
  0
ARC
  5
3CAE1
  8
0
 10
2955.8558221570269779
 20
292.8075148958242835
 30
0.0
 40
2.4029131502870662
 50
240.5765427078725907
 51
256.7948274736734788
  0
ARC
  5
3CAE2
  8
0
 10
2955.004286482831958
 20
291.3134809445260771
 30
0.0
 40
0.6833085898620213
 50
214.1474121587806962
 51
241.2254530957023917
  0
ARC
  5
3CAE3
  8
0
 10
2954.7099590160642038
 20
291.0983561479318951
 30
0.0
 40
0.3192272651252471
 50
186.3027359535986136
 51
211.8452192327814885
  0
ARC
  5
3CAE4
  8
0
 10
2896.5585864163472252
 20
292.5942171461488783
 30
0.0
 40
57.8543333404283189
 50
358.4836967903767118
 51
359.1950460982765208
  0
ARC
  5
3CAE5
  8
0
 10
2955.2611245045281976
 20
291.7345306299145022
 30
0.0
 40
0.8552018692195856
 50
126.2622633838417983
 51
176.8554564468589945
  0
ARC
  5
3CAE6
  8
0
 10
2955.9511940967017836
 20
290.7316396223936863
 30
0.0
 40
2.0723412282736251
 50
103.3438674759181026
 51
125.2454140659577035
  0
ARC
  5
3CAE7
  8
0
 10
2956.7024100173161969
 20
288.1437678365236934
 30
0.0
 40
4.7655984844829202
 50
96.9919178026943456
 51
104.9511363030293012
  0
ARC
  5
3CAE8
  8
0
 10
2956.0799182031241799
 20
292.9441537935164774
 30
0.0
 40
0.0820236259763817
 50
301.1087735361937803
 51
358.6725625685311911
  0
ARC
  5
3CAE9
  8
0
 10
2956.261729651197129
 20
293.0675177887486029
 30
0.0
 40
0.0976074581743703
 50
181.7069564860223068
 51
223.1319803619140885
  0
ARC
  5
3CAEA
  8
0
 10
2956.5004192921528556
 20
293.332099369199625
 30
0.0
 40
0.4536743293831392
 50
226.91073720453889
 51
256.8556067548336728
  0
ARC
  5
3CAEB
  8
0
 10
2956.84571092631586
 20
294.4219524472217131
 30
0.0
 40
1.595945144308156
 50
253.6801307702525889
 51
264.1237258885265078
  0
ARC
  5
3CAEC
  8
0
 10
2956.9710324246912023
 20
295.6441765362969818
 30
0.0
 40
2.8245773421351479
 50
264.1332413917294275
 51
269.621138770317998
  0
ARC
  5
3CAED
  8
0
 10
2956.2814559994858428
 20
293.055644477925
 30
0.0
 40
0.1176326727814848
 50
130.2389961285944935
 51
175.6287464216692058
  0
ARC
  5
3CAEE
  8
0
 10
2956.4141389316610002
 20
292.9184681575604827
 30
0.0
 40
0.3083177940288064
 50
117.7534978849602965
 51
132.5944645634718881
  0
ARC
  5
3CAEF
  8
0
 10
2956.3133246973538917
 20
293.0567926755903159
 30
0.0
 40
0.0692626025345171
 50
144.5175826051871013
 51
194.7295193790994006
  0
ARC
  5
3CAF0
  8
0
 10
2956.3161903809282194
 20
293.0626573401543169
 30
0.0
 40
0.0736912278467113
 50
198.57589256253641
 51
215.525937488593712
  0
ARC
  5
3CAF1
  8
0
 10
2956.4291525869880388
 20
293.1597853410503944
 30
0.0
 40
0.2224685733399309
 50
218.9813974804787904
 51
245.2812726977475961
  0
ARC
  5
3CAF2
  8
0
 10
2956.7400506059921099
 20
293.8247300445968904
 30
0.0
 40
0.9565016964292768
 50
245.0204025911305905
 51
261.5792542452412022
  0
ARC
  5
3CAF3
  8
0
 10
2956.92298239135107
 20
294.7775890336853877
 30
0.0
 40
1.9263224221314561
 50
260.3471243934283734
 51
266.0890536926206096
  0
ARC
  5
3CAF4
  8
0
 10
2956.9607118650737902
 20
295.4017952345785716
 30
0.0
 40
2.5516531538652099
 50
266.1998196597775177
 51
269.8123603147993776
  0
ARC
  5
3CAF5
  8
0
 10
2956.3507065509252243
 20
293.1434278660457267
 30
0.0
 40
0.0933596046698338
 50
149.1393617269577874
 51
178.7413947296298034
  0
ARC
  5
3CAF6
  8
0
 10
2956.4349607052968167
 20
293.0845316645999219
 30
0.0
 40
0.1960331825096723
 50
118.8308286141162995
 51
146.9937821701228984
  0
ARC
  5
3CAF7
  8
0
 10
2956.6697055682489008
 20
292.6664268123415127
 30
0.0
 40
0.6755246967545333
 50
103.4463184873226993
 51
119.1723836297166059
  0
ARC
  5
3CAF8
  8
0
 10
2956.8855147070648854
 20
291.8376527343094153
 30
0.0
 40
1.5318598939332939
 50
95.4915158627591296
 51
104.0887273588905941
  0
ARC
  5
3CAF9
  8
0
 10
2956.9495368655470884
 20
291.2676960504496151
 30
0.0
 40
2.1053475417258989
 50
90.6922095296549884
 51
95.7414647096475164
  0
ARC
  5
3CAFA
  8
0
 10
2956.9241274031219291
 20
293.354440315366503
 30
0.0
 40
0.0184496492055265
 50
359.300616333751293
 51
90.078658608843682
  0
ARC
  5
3CAFB
  8
0
 10
2926.0512871061978331
 20
293.0027478704128043
 30
0.0
 40
30.8933292168407192
 50
0.1693495229571831
 51
0.6516127673946139
  0
ARC
  5
3CAFC
  8
0
 10
2956.9647656264260149
 20
288.8293961934876961
 30
0.0
 40
4.2647114053102531
 50
90.1667299123595853
 51
90.2725169654004844
  0
ARC
  5
3CAFD
  8
0
 10
2956.950970046645125
 20
292.2815989899443139
 30
0.0
 40
0.8124862798708015
 50
90.4575797675265534
 51
93.8151731251651171
  0
ARC
  5
3CAFE
  8
0
 10
2956.9380854141841155
 20
292.4265204524143087
 30
0.0
 40
0.6670364005419654
 50
93.5391645306919912
 51
102.0975622344831066
  0
ARC
  5
3CAFF
  8
0
 10
2956.8505736759361753
 20
292.8044187780596985
 30
0.0
 40
0.2792625866911651
 50
100.7906288362108995
 51
120.5916136247786028
  0
ARC
  5
3CB00
  8
0
 10
2956.7550452142149879
 20
292.9716813512350768
 30
0.0
 40
0.0867124658870795
 50
122.5015684218904966
 51
143.4272032636052074
  0
ARC
  5
3CB01
  8
0
 10
2956.6653117923278842
 20
293.0533048695916136
 30
0.0
 40
0.0198318884673371
 50
0.4848767765354411
 51
60.6001499040669316
  0
ARC
  5
3CB02
  8
0
 10
2956.7081167082128559
 20
293.1223905944664239
 30
0.0
 40
0.0614625326698044
 50
218.4192360674902034
 51
237.4495640954120006
  0
ARC
  5
3CB03
  8
0
 10
2956.6756546291339873
 20
293.096471208296407
 30
0.0
 40
0.0199228552504548
 50
157.3545106918087981
 51
218.030532836535798
  0
ARC
  5
3CB04
  8
0
 10
2956.7145796778818294
 20
293.0791288746814871
 30
0.0
 40
0.0625325455450941
 50
120.3043947299159981
 51
156.4216456101536039
  0
ARC
  5
3CB05
  8
0
 10
2956.8628825532828159
 20
292.8039744842462824
 30
0.0
 40
0.3750772956195036
 50
97.092800744494653
 51
118.6539437098865051
  0
ARC
  5
3CB06
  8
0
 10
2956.9424112559040623
 20
292.3723701574530196
 30
0.0
 40
0.8136024039693825
 50
91.1280070353553526
 51
98.8978117169045419
  0
ARC
  5
3CB07
  8
0
 10
2956.9262063049882272
 20
293.2264286409147758
 30
0.0
 40
0.040614184810835
 50
270.2655570309843256
 51
288.3594194203656116
  0
ARC
  5
3CB08
  8
0
 10
2956.9365445608441405
 20
293.1959288581811052
 30
0.0
 40
0.0084130548519539
 50
286.9610855217978838
 51
332.93073275401008
  0
ARC
  5
3CB09
  8
0
 10
2956.3616314524551854
 20
293.1561948513491984
 30
0.0
 40
0.1048112629065504
 50
185.8684130097163063
 51
229.1489782894815903
  0
ARC
  5
3CB0A
  8
0
 10
2956.46349878493902
 20
293.2656430100515763
 30
0.0
 40
0.2542888344134617
 50
227.9176731063627983
 51
240.1246965113051033
  0
ARC
  5
3CB0B
  8
0
 10
2956.3538873969100678
 20
293.1040118367606055
 30
0.0
 40
0.0612860496263377
 50
253.8436243070439957
 51
277.1773009515291051
  0
ARC
  5
3CB0C
  8
0
 10
2956.673280408644132
 20
293.0643698219510043
 30
0.0
 40
0.0161080001695033
 50
279.7235701895413058
 51
317.4289629518435163
  0
ARC
  5
3CB0D
  8
0
 10
2956.3817531428671828
 20
292.939399783214526
 30
0.0
 40
0.0192799334603073
 50
90.2073394364318375
 51
161.6049144805348874
  0
ARC
  5
3CB0E
  8
0
 10
2956.6946662157638457
 20
292.9474368026126854
 30
0.0
 40
0.0167020102859609
 50
68.848107725185514
 51
91.5858329190108833
  0
ARC
  5
3CB0F
  8
0
 10
2956.8397753196700251
 20
293.2872194843714055
 30
0.0
 40
0.3527795068513307
 50
246.7809695500598934
 51
256.2908690481207259
  0
ARC
  5
3CB10
  8
0
 10
2956.9228646561600726
 20
293.6246907236521224
 30
0.0
 40
0.7003286348942306
 50
256.2300067716503236
 51
264.5471713954510733
  0
ARC
  5
3CB11
  8
0
 10
2956.9815749458180107
 20
294.4998139437822147
 30
0.0
 40
1.5772643868442979
 50
265.4450076329811736
 51
268.9385084698321862
  0
LINE
  5
3CB12
  8
0
 10
2957.7405452812467956
 20
293.0646102964357738
 30
0.0
 11
2957.7427909710468157
 21
292.9422536275358198
 31
0.0
  0
LINE
  5
3CB13
  8
0
 10
2957.5678768387479067
 20
293.0451462287358027
 30
0.0
 11
2957.5685865490481774
 21
292.9577012187357923
 31
0.0
  0
LINE
  5
3CB14
  8
0
 10
2957.6473413172470828
 20
293.145478513435819
 30
0.0
 11
2957.6484942005467929
 21
293.019837472135805
 31
0.0
  0
LINE
  5
3CB15
  8
0
 10
2957.2195678168482118
 20
293.0534726988357761
 30
0.0
 11
2957.218785316991216
 21
292.9639879730270877
 31
0.0
  0
LINE
  5
3CB16
  8
0
 10
2957.5230274138471032
 20
292.9586795904357928
 30
0.0
 11
2957.2105067910470098
 21
292.9641324158358202
 31
0.0
  0
LINE
  5
3CB17
  8
0
 10
2957.5431663008480427
 20
293.0432060076357743
 30
0.0
 11
2957.2287098204478752
 21
293.0484932281358965
 31
0.0
  0
ARC
  5
3CB18
  8
0
 10
2956.9523148358662183
 20
290.7812892896691892
 30
0.0
 40
2.533476420689547
 50
89.7884281011569954
 51
89.9990827641194073
  0
ARC
  5
3CB19
  8
0
 10
2956.7623379055321493
 20
302.9790059875513748
 30
0.0
 40
12.6976378885203403
 50
270.8574513307472102
 51
274.0410807977355034
  0
ARC
  5
3CB1A
  8
0
 10
2957.1856573094510168
 20
296.0987579505643907
 30
0.0
 40
5.805001128563358
 50
274.6589184939770121
 51
284.0792853707097834
  0
ARC
  5
3CB1B
  8
0
 10
2958.0488886304678999
 20
292.8075148958242835
 30
0.0
 40
2.4029131502870662
 50
283.2051725263265212
 51
299.4234572921274093
  0
ARC
  5
3CB1C
  8
0
 10
2958.9004243046620104
 20
291.3134809445260771
 30
0.0
 40
0.6833085898620213
 50
298.7745469042974946
 51
325.8525878412194174
  0
ARC
  5
3CB1D
  8
0
 10
2959.1929959040007816
 20
291.0991919477036163
 30
0.0
 40
0.3211598962710814
 50
328.1933959702269021
 51
353.4344506837696827
  0
ARC
  5
3CB1E
  8
0
 10
2867.3416988020649114
 20
289.5569553455861183
 30
0.0
 40
92.1826454951798553
 50
0.9357889813122205
 51
1.382756107963053
  0
ARC
  5
3CB1F
  8
0
 10
2958.643586282967135
 20
291.7345306299145022
 30
0.0
 40
0.8552018692195856
 50
3.1445435531442372
 51
53.7377366161581378
  0
ARC
  5
3CB20
  8
0
 10
2957.9535166907930943
 20
290.7316396223936863
 30
0.0
 40
2.0723412282736251
 50
54.7545859340422467
 51
76.6561325240818547
  0
ARC
  5
3CB21
  8
0
 10
2957.2023007701791357
 20
288.1437678365236934
 30
0.0
 40
4.7655984844829202
 50
75.0488636969707414
 51
83.0080821973056544
  0
ARC
  5
3CB22
  8
0
 10
2957.8247925843697885
 20
292.9441537935164774
 30
0.0
 40
0.0820236259763817
 50
181.3274374314686952
 51
238.8912264638061913
  0
ARC
  5
3CB23
  8
0
 10
2957.6429811362982036
 20
293.0675177887486029
 30
0.0
 40
0.0976074581743703
 50
316.8680196380857979
 51
358.2930435139776932
  0
ARC
  5
3CB24
  8
0
 10
2957.4042914953420222
 20
293.332099369199625
 30
0.0
 40
0.4536743293831392
 50
283.1443932451663272
 51
313.0892627954398222
  0
ARC
  5
3CB25
  8
0
 10
2957.0589998611790179
 20
294.4219524472217131
 30
0.0
 40
1.595945144308156
 50
275.8762741114734922
 51
286.3198692297473826
  0
ARC
  5
3CB26
  8
0
 10
2956.9336783628032208
 20
295.6441765362969818
 30
0.0
 40
2.8245773421351479
 50
270.378861229682002
 51
275.8667586082705725
  0
ARC
  5
3CB27
  8
0
 10
2957.6232547880090351
 20
293.055644477925
 30
0.0
 40
0.1176326727814848
 50
4.3712535783307924
 51
49.7610038714054497
  0
ARC
  5
3CB28
  8
0
 10
2957.4905718558338776
 20
292.9184681575604827
 30
0.0
 40
0.3083177940288064
 50
47.4055354365280976
 51
62.246502115039732
  0
ARC
  5
3CB29
  8
0
 10
2957.5913860901400767
 20
293.0567926755903159
 30
0.0
 40
0.0692626025345171
 50
345.2704806208973878
 51
35.4824173948128703
  0
ARC
  5
3CB2A
  8
0
 10
2957.5885204065671132
 20
293.0626573401543169
 30
0.0
 40
0.0736912278467113
 50
324.4740625114063164
 51
341.42410743746359
  0
ARC
  5
3CB2B
  8
0
 10
2957.4755582005068391
 20
293.1597853410503944
 30
0.0
 40
0.2224685733399309
 50
294.7187273022524892
 51
321.0186025195213233
  0
ARC
  5
3CB2C
  8
0
 10
2957.1646601815018585
 20
293.8247300445968904
 30
0.0
 40
0.9565016964292768
 50
278.4207457547587978
 51
294.9795974088693811
  0
ARC
  5
3CB2D
  8
0
 10
2956.9817283961438079
 20
294.7775890336853877
 30
0.0
 40
1.9263224221314561
 50
273.9109463073793904
 51
279.6528756065716266
  0
ARC
  5
3CB2E
  8
0
 10
2956.9439989224210876
 20
295.4017952345785716
 30
0.0
 40
2.5516531538652099
 50
270.1876396852006224
 51
273.8001803402224823
  0
ARC
  5
3CB2F
  8
0
 10
2957.5540042365701083
 20
293.1434278660457267
 30
0.0
 40
0.0933596046698338
 50
1.2586052703702371
 51
30.8606382730421593
  0
ARC
  5
3CB30
  8
0
 10
2957.4697500821980611
 20
293.0845316645999219
 30
0.0
 40
0.1960331825096723
 50
33.0062178298743589
 51
61.1691713858836579
  0
ARC
  5
3CB31
  8
0
 10
2957.2350052192459771
 20
292.6664268123415127
 30
0.0
 40
0.6755246967545333
 50
60.8276163702834296
 51
76.5536815126773149
  0
ARC
  5
3CB32
  8
0
 10
2957.0191960804290829
 20
291.8376527343094153
 30
0.0
 40
1.5318598939332939
 50
75.9112726411093632
 51
84.5084841372408846
  0
ARC
  5
3CB33
  8
0
 10
2956.9551739219477895
 20
291.2676960504496151
 30
0.0
 40
2.1053475417258989
 50
84.2585352903524836
 51
89.3077904703449832
  0
ARC
  5
3CB34
  8
0
 10
2956.9805833843729488
 20
293.354440315366503
 30
0.0
 40
0.0184496492055265
 50
89.921341391156318
 51
180.69938366624541
  0
ARC
  5
3CB35
  8
0
 10
2987.8534236812970448
 20
293.0027478704128043
 30
0.0
 40
30.8933292168407192
 50
179.3483872326054041
 51
179.8306504770428091
  0
ARC
  5
3CB36
  8
0
 10
2956.9399451610688629
 20
288.8293961934876961
 30
0.0
 40
4.2647114053102531
 50
89.7274830345995156
 51
89.8332700876404147
  0
ARC
  5
3CB37
  8
0
 10
2956.9537407408502077
 20
292.2815989899443139
 30
0.0
 40
0.8124862798708015
 50
86.1848268748348545
 51
89.5424202324734608
  0
ARC
  5
3CB38
  8
0
 10
2956.9666253733112171
 20
292.4265204524143087
 30
0.0
 40
0.6670364005419654
 50
77.9024377655168934
 51
86.4608354693080088
  0
ARC
  5
3CB39
  8
0
 10
2957.0541371115577931
 20
292.8044187780596985
 30
0.0
 40
0.2792625866911651
 50
59.408386375221383
 51
79.2093711637890436
  0
ARC
  5
3CB3A
  8
0
 10
2957.1496655732798899
 20
292.9716813512350768
 30
0.0
 40
0.0867124658870795
 50
36.5727967363947499
 51
57.4984315781094892
  0
ARC
  5
3CB3B
  8
0
 10
2957.2393989951669937
 20
293.0533048695916136
 30
0.0
 40
0.0198318884673371
 50
119.3998500959331039
 51
179.5151232234645136
  0
ARC
  5
3CB3C
  8
0
 10
2957.196594079282022
 20
293.1223905944664239
 30
0.0
 40
0.0614625326698044
 50
302.5504359045863225
 51
321.5807639325097966
  0
ARC
  5
3CB3D
  8
0
 10
2957.2290561583608905
 20
293.096471208296407
 30
0.0
 40
0.0199228552504548
 50
321.9694671634641736
 51
22.6454893081911202
  0
ARC
  5
3CB3E
  8
0
 10
2957.1901311096130485
 20
293.0791288746814871
 30
0.0
 40
0.0625325455450941
 50
23.578354389846389
 51
59.6956052700839805
  0
ARC
  5
3CB3F
  8
0
 10
2957.0418282342120619
 20
292.8039744842462824
 30
0.0
 40
0.3750772956195036
 50
61.3460562901135233
 51
82.907199255505347
  0
ARC
  5
3CB40
  8
0
 10
2956.9622995315908156
 20
292.3723701574530196
 30
0.0
 40
0.8136024039693825
 50
81.1021882830954581
 51
88.8719929646446616
  0
ARC
  5
3CB41
  8
0
 10
2956.9785044825071054
 20
293.2264286409147758
 30
0.0
 40
0.040614184810835
 50
251.6405805796345021
 51
269.7344429690156744
  0
ARC
  5
3CB42
  8
0
 10
2956.9681662266511921
 20
293.1959288581811052
 30
0.0
 40
0.0084130548519539
 50
207.0692672459898063
 51
253.0389144782020878
  0
ARC
  5
3CB43
  8
0
 10
2957.5430793350410568
 20
293.1561948513491984
 30
0.0
 40
0.1048112629065504
 50
310.851021710518296
 51
354.1315869902837221
  0
ARC
  5
3CB44
  8
0
 10
2957.4412120025558579
 20
293.2656430100515763
 30
0.0
 40
0.2542888344134617
 50
299.8753034886948967
 51
312.0823268936371733
  0
ARC
  5
3CB45
  8
0
 10
2957.5508233905848101
 20
293.1040118367606055
 30
0.0
 40
0.0612860496263377
 50
262.8226990484708949
 51
286.1563756929559759
  0
ARC
  5
3CB46
  8
0
 10
2957.2314303788498364
 20
293.0643698219510043
 30
0.0
 40
0.0161080001695033
 50
222.5710370481565121
 51
260.2764298104585805
  0
ARC
  5
3CB47
  8
0
 10
2957.5229576446267856
 20
292.939399783214526
 30
0.0
 40
0.0192799334603073
 50
18.3950855194651091
 51
89.7926605635681625
  0
ARC
  5
3CB48
  8
0
 10
2957.2100445717301227
 20
292.9474368026126854
 30
0.0
 40
0.0167020102859609
 50
88.4141670809891451
 51
111.1518922748145002
  0
ARC
  5
3CB49
  8
0
 10
2957.0649354678248528
 20
293.2872194843714055
 30
0.0
 40
0.3527795068513307
 50
283.7091309518792741
 51
293.2190304499400781
  0
ARC
  5
3CB4A
  8
0
 10
2956.9818461313348052
 20
293.6246907236521224
 30
0.0
 40
0.7003286348942306
 50
275.4528286045489267
 51
283.7699932283496764
  0
ARC
  5
3CB4B
  8
0
 10
2956.9231358416768671
 20
294.4998139437822147
 30
0.0
 40
1.5772643868442979
 50
271.0614915301678138
 51
274.5549923670188264
  0
LINE
  5
3CB4C
  8
0
 10
2952.6799402636238483
 20
276.2409652673161986
 30
0.0
 11
2952.6799402636238483
 21
276.9140210536280051
 31
0.0
  0
LINE
  5
3CB4D
  8
0
 10
2953.1956281871548526
 20
275.4729258792663131
 30
0.0
 11
2953.1956281871548526
 21
293.5318416147219978
 31
0.0
  0
ARC
  5
3CB4E
  8
0
 10
2956.3220636193250357
 20
1515.9598846356720969
 30
0.0
 40
1243.4275909884729572
 50
269.8117021284563748
 51
269.8740757897770095
  0
ARC
  5
3CB4F
  8
0
 10
2952.4732330356578132
 20
315.6076396888249747
 30
0.0
 40
43.0692865050580167
 50
268.1140399913842884
 51
269.6839356076897047
  0
ARC
  5
3CB50
  8
0
 10
2951.3675523954379969
 20
282.0290099681271272
 30
0.0
 40
9.4724577321232069
 50
262.5108863372265091
 51
268.1140399913842884
  0
ARC
  5
3CB51
  8
0
 10
2950.739004436813957
 20
277.2476943498722903
 30
0.0
 40
4.6500048730837626
 50
244.9801741948085976
 51
262.5108863372265091
  0
ARC
  5
3CB52
  8
0
 10
2950.214190756581047
 20
276.1232437829506239
 30
0.0
 40
3.4091106485788401
 50
218.8885182715455073
 51
244.9801741948085976
  0
ARC
  5
3CB53
  8
0
 10
2951.0252995133541845
 20
276.7774577172606882
 30
0.0
 40
4.4511726847161359
 50
197.4849019380401955
 51
218.8885182715455073
  0
ARC
  5
3CB54
  8
0
 10
2951.7294611316210649
 20
276.6229413962864783
 30
0.0
 40
5.089048737377408
 50
180.5116922332460092
 51
193.4403037014965889
  0
ARC
  5
3CB55
  8
0
 10
2950.8927397238157937
 20
276.4592860465605213
 30
0.0
 40
4.2537671201612222
 50
146.216020040136101
 51
178.4076136462869044
  0
ARC
  5
3CB56
  8
0
 10
2950.5502718307729992
 20
276.5162618916842803
 30
0.0
 40
3.940044932224982
 50
111.6488205952523032
 51
144.1349218695362993
  0
ARC
  5
3CB57
  8
0
 10
2951.0042988216969206
 20
274.7882634323344178
 30
0.0
 40
5.7177147967295481
 50
89.7903229811137891
 51
109.4889744361127981
  0
ARC
  5
3CB58
  8
0
 10
2952.8759673230752014
 20
219.6230124963134074
 30
0.0
 40
60.9110507930380365
 50
89.699365672889698
 51
91.7411644790040555
  0
ARC
  5
3CB59
  8
0
 10
2953.5821799671239205
 20
286.9227139022798951
 30
0.0
 40
11.4745031043419097
 50
268.1704136947947745
 51
270.0354053095668974
  0
ARC
  5
3CB5A
  8
0
 10
2953.2173240440188238
 20
275.4759098229865799
 30
0.0
 40
0.0219000941795163
 50
187.8310551308919969
 51
266.1010432976187872
  0
ARC
  5
3CB5B
  8
0
 10
2953.5892704432239952
 20
276.5774931604719882
 30
0.0
 40
0.4960629231999998
 50
142.5169043062651895
 51
217.4830956937348105
  0
LINE
  5
3CB5C
  8
0
 10
2952.7087662555918541
 20
276.9836056597299034
 30
0.0
 11
2953.1956281871548526
 21
277.4703934398801266
 31
0.0
  0
LINE
  5
3CB5D
  8
0
 10
2953.1956281871548526
 20
275.6845928810640203
 30
0.0
 11
2952.7087662555918541
 21
276.1713806612141866
 31
0.0
  0
ARC
  5
3CB5E
  8
0
 10
2952.778340263624159
 20
276.2409652673161986
 30
0.0
 40
0.0984
 50
180.0000000000065086
 51
225.0043635436072123
  0
ARC
  5
3CB5F
  8
0
 10
2952.778340263624159
 20
276.9140210536280051
 30
0.0
 40
0.0984
 50
134.9956364563927025
 51
180.0
  0
ARC
  5
3CB60
  8
0
 10
2953.5892704432239952
 20
276.5774931604719882
 30
0.0
 40
0.5037439690665813
 50
141.3919847566527892
 51
218.6080152433472108
  0
ARC
  5
3CB61
  8
0
 10
2953.5892704432239952
 20
276.5774931604719882
 30
0.0
 40
0.4335116586534158
 50
155.2347258120992137
 51
204.765274187900701
  0
LINE
  5
3CB62
  8
0
 10
2953.0867333841488289
 20
276.6123427031940878
 30
0.0
 11
2953.0945193631691836
 21
276.6135457964123248
 31
0.0
  0
LINE
  5
3CB63
  8
0
 10
2953.0944145029020547
 20
276.5429096079980127
 30
0.0
 11
2953.086687718570829
 21
276.5433084964901127
 31
0.0
  0
LINE
  5
3CB64
  8
0
 10
2954.4986006228241422
 20
276.2409652673161986
 30
0.0
 11
2954.4986006228241422
 21
276.9140210536280051
 31
0.0
  0
LINE
  5
3CB65
  8
0
 10
2953.9829126992931378
 20
275.4729258792663131
 30
0.0
 11
2953.9829126992931378
 21
293.5318416147219978
 31
0.0
  0
ARC
  5
3CB66
  8
0
 10
2953.5963609269838344
 20
286.9227135803951114
 30
0.0
 40
11.4745027823767192
 50
269.9645953402736041
 51
271.8295863182916037
  0
ARC
  5
3CB67
  8
0
 10
2953.9612168424291667
 20
275.4759098229865799
 30
0.0
 40
0.0219000941795163
 50
273.8989567023812128
 51
352.1689448691046778
  0
ARC
  5
3CB68
  8
0
 10
2953.5892704432239952
 20
276.5774931604719882
 30
0.0
 40
0.4960629231999998
 50
322.5169043062651895
 51
37.4830956937348034
  0
LINE
  5
3CB69
  8
0
 10
2954.4697746308561364
 20
276.9836056597299034
 30
0.0
 11
2953.9829126992931378
 21
277.4703934398801266
 31
0.0
  0
LINE
  5
3CB6A
  8
0
 10
2953.9829126992931378
 20
275.6845928810640203
 30
0.0
 11
2954.4697746308561364
 21
276.1713806612141866
 31
0.0
  0
ARC
  5
3CB6B
  8
0
 10
2954.400200622822922
 20
276.2409652673161986
 30
0.0
 40
0.0984
 50
314.9956364563926741
 51
359.9999999999902229
  0
ARC
  5
3CB6C
  8
0
 10
2954.400200622822922
 20
276.9140210536280051
 30
0.0
 40
0.0984
 50
0.0
 51
45.0043635436072265
  0
ARC
  5
3CB6D
  8
0
 10
2953.5892704432239952
 20
276.5774931604719882
 30
0.0
 40
0.5037439690665813
 50
321.3919847566529029
 51
38.6080152433471682
  0
ARC
  5
3CB6E
  8
0
 10
2953.5892704432239952
 20
276.5774931604719882
 30
0.0
 40
0.4335116586534158
 50
335.2347258120993274
 51
24.7652741879007294
  0
LINE
  5
3CB6F
  8
0
 10
2954.0918075022977973
 20
276.6123427031940878
 30
0.0
 11
2954.0840215232788069
 21
276.6135457964123248
 31
0.0
  0
LINE
  5
3CB70
  8
0
 10
2954.0841263835459358
 20
276.5429096079980127
 30
0.0
 11
2954.0918531678757972
 21
276.5433084964901127
 31
0.0
  0
ARC
  5
3CB71
  8
0
 10
2954.4429234336807895
 20
208.0460192514611037
 30
0.0
 40
64.4949271621522229
 50
89.5558347498254079
 51
90.7583873639663352
  0
ARC
  5
3CB72
  8
0
 10
2954.7053078507901773
 20
315.6076396888249747
 30
0.0
 40
43.0692865050580167
 50
270.3160643923104089
 51
271.8859600086155979
  0
ARC
  5
3CB73
  8
0
 10
2955.8109884910090841
 20
282.0290099681271272
 30
0.0
 40
9.4724577321232069
 50
271.8859600086155979
 51
277.4891136627736046
  0
ARC
  5
3CB74
  8
0
 10
2956.4395364496340335
 20
277.2476943498722903
 30
0.0
 40
4.6500048730837626
 50
277.4891136627736046
 51
295.019825805191374
  0
ARC
  5
3CB75
  8
0
 10
2956.964350129866034
 20
276.1232437829506239
 30
0.0
 40
3.4091106485788401
 50
295.019825805191374
 51
321.11148172845202
  0
ARC
  5
3CB76
  8
0
 10
2956.153241373093806
 20
276.7774577172606882
 30
0.0
 40
4.4511726847161359
 50
321.11148172845202
 51
342.5150980619596908
  0
ARC
  5
3CB77
  8
0
 10
2955.4484594467221541
 20
276.623017914280581
 30
0.0
 40
5.0896698425847626
 50
346.5604815736422779
 51
359.487508793504503
  0
ARC
  5
3CB78
  8
0
 10
2956.2856602979400122
 20
276.4592408617767205
 30
0.0
 40
4.2539093242306638
 50
1.5929419357872709
 51
33.7834307653065622
  0
ARC
  5
3CB79
  8
0
 10
2956.6282690556749913
 20
276.5162618916842803
 30
0.0
 40
3.940044932224982
 50
35.8650781304636581
 51
68.3511794047476542
  0
ARC
  5
3CB7A
  8
0
 10
2956.1742420647501604
 20
274.7882634323344178
 30
0.0
 40
5.7177147967295481
 50
70.5110255638872303
 51
90.2096770188861967
  0
ARC
  5
3CB7B
  8
0
 10
2954.3025735633727891
 20
219.6230124963134074
 30
0.0
 40
60.9110507930380365
 50
88.2588355209959445
 51
90.3006893202649366
  0
LINE
  5
3CB7C
  8
0
 10
2947.3491130318739124
 20
294.4767255745221064
 30
0.0
 11
2947.3491130318739124
 21
289.0042838422219802
 31
0.0
  0
LINE
  5
3CB7D
  8
0
 10
2959.8294279924739385
 20
289.0042838422219802
 30
0.0
 11
2959.8294279924739385
 21
292.052425036434272
 31
0.0
  0
LINE
  5
3CB7E
  8
0
 10
2959.8294279924739385
 20
292.6365739666994159
 30
0.0
 11
2959.8294279924739385
 21
294.4767255745221064
 31
0.0
  0
LINE
  5
3CB7F
  8
0
 10
2947.7428130318739932
 20
288.6105838422221268
 30
0.0
 11
2953.1956275987040499
 21
288.6105838422221268
 31
0.0
  0
LINE
  5
3CB80
  8
0
 10
2953.9829121108427898
 20
288.6105838422221268
 30
0.0
 11
2959.4357279924738577
 21
288.6105838422221268
 31
0.0
  0
LINE
  5
3CB81
  8
0
 10
2947.4081681499737897
 20
294.5357806926220974
 30
0.0
 11
2959.7703728743740612
 21
294.5357806926220974
 31
0.0
  0
LINE
  5
3CB82
  8
0
 10
2947.3491130318739124
 20
294.4767255745221064
 30
0.0
 11
2952.9002941342741906
 21
294.4767255745221064
 31
0.0
  0
LINE
  5
3CB83
  8
0
 10
2954.2782468901741595
 20
294.4767255745221064
 30
0.0
 11
2959.8294279924739385
 21
294.4767255745221064
 31
0.0
  0
LINE
  5
3CB84
  8
0
 10
2947.4081681499737897
 20
294.5357806926220974
 30
0.0
 11
2947.4081681499737897
 21
294.4767255745221064
 31
0.0
  0
ARC
  5
3CB85
  8
0
 10
2947.7428130318739932
 20
289.0042838422219802
 30
0.0
 40
0.3937
 50
180.0
 51
270.0
  0
LINE
  5
3CB86
  8
0
 10
2951.3530614913729551
 20
292.7641271493220074
 30
0.0
 11
2953.1956275987040499
 21
292.7641271493220074
 31
0.0
  0
LINE
  5
3CB87
  8
0
 10
2953.9829121108427898
 20
292.7641271493220074
 30
0.0
 11
2955.5348447146689068
 21
292.7641271493220074
 31
0.0
  0
LINE
  5
3CB88
  8
0
 10
2951.3530614913729551
 20
294.2995602201219754
 30
0.0
 11
2952.9002941342741906
 21
294.2995602201219754
 31
0.0
  0
LINE
  5
3CB89
  8
0
 10
2951.3185464208090707
 20
294.2976149661415093
 30
0.0
 11
2950.6863423122549648
 21
294.2932012771279915
 31
0.0
  0
LINE
  5
3CB8A
  8
0
 10
2951.3186657815099352
 20
292.7660715699901743
 30
0.0
 11
2950.6863423148420225
 21
292.770486092315025
 31
0.0
  0
ARC
  5
3CB8B
  8
0
 10
2975.6021195550360972
 20
293.5318437289089957
 30
0.0
 40
24.9577450116193909
 50
178.3220856300000889
 51
181.6779147313403087
  0
ARC
  5
3CB8C
  8
0
 10
2950.6865622219547731
 20
294.2617020447607956
 30
0.0
 40
0.0315
 50
90.4000000010610023
 51
178.3220986989848029
  0
ARC
  5
3CB8D
  8
0
 10
2950.686562224543195
 20
292.8019853246822208
 30
0.0
 40
0.0315
 50
181.6779015042698973
 51
269.5999999970107979
  0
ARC
  5
3CB8E
  8
0
 10
2956.2667101520742108
 20
294.2601602201219748
 30
0.0
 40
0.0394
 50
0.0
 51
90.0
  0
LINE
  5
3CB8F
  8
0
 10
2956.3179267558739411
 20
294.2207495988640176
 30
0.0
 11
2956.3179267558739411
 21
293.2417959750054024
 31
0.0
  0
ARC
  5
3CB90
  8
0
 10
2956.3297376503210216
 20
294.2207536994009729
 30
0.0
 40
0.0118108951588665
 50
109.4994906692467964
 51
180.0198920965478067
  0
ARC
  5
3CB91
  8
0
 10
2956.3022113793731478
 20
294.1969607441221228
 30
0.0
 40
0.0157158214999822
 50
0.4311719374018601
 51
75.6361057130946506
  0
LINE
  5
3CB92
  8
0
 10
2954.2782468901741595
 20
294.2995602201219754
 30
0.0
 11
2956.2667101520742108
 21
294.2995602201219754
 31
0.0
  0
ARC
  5
3CB93
  8
0
 10
2949.5842424679131
 20
293.880964385022196
 30
0.0
 40
2.0655319073720362
 50
327.4528343783218247
 51
339.7445085742318724
  0
ARC
  5
3CB94
  8
0
 10
2951.3187209334669205
 20
292.7739713774727193
 30
0.0
 40
0.0079
 50
269.599999997036889
 51
327.4528343783547939
  0
ARC
  5
3CB95
  8
0
 10
2950.5332387192829628
 20
293.5307578463181244
 30
0.0
 40
1.05397938532207
 50
339.7445085742318724
 51
13.7164976222021107
  0
ARC
  5
3CB96
  8
0
 10
2949.7787870061752074
 20
293.2862574893313194
 30
0.0
 40
1.845821704974828
 50
15.5368323552462506
 51
33.0912561456006813
  0
ARC
  5
3CB97
  8
0
 10
2951.3186015727651466
 20
294.2897151586590212
 30
0.0
 40
0.0079
 50
33.0912561456285417
 51
90.4000000010610023
  0
LINE
  5
3CB98
  8
0
 10
2951.3451614913728918
 20
294.2916602201220257
 30
0.0
 11
2951.3451614913728918
 21
294.2627454506879872
 31
0.0
  0
LINE
  5
3CB99
  8
0
 10
2951.3451614913728918
 20
292.8013411853892762
 30
0.0
 11
2951.3451614913728918
 21
292.7720271493221276
 31
0.0
  0
ARC
  5
3CB9A
  8
0
 10
2951.3530614913729551
 20
294.2916602201220257
 30
0.0
 40
0.0079
 50
90.0000000000521254
 51
180.0
  0
ARC
  5
3CB9B
  8
0
 10
2951.3530614913729551
 20
292.7720271493220139
 30
0.0
 40
0.0079
 50
179.9999999998956923
 51
269.9999999999478746
  0
ARC
  5
3CB9C
  8
0
 10
2949.1073740666311096
 20
292.8549665011806269
 30
0.0
 40
2.6592821212466902
 50
21.8520878786661292
 51
32.7010828666706672
  0
ARC
  5
3CB9D
  8
0
 10
2950.5831801046037981
 20
293.5434303265321887
 30
0.0
 40
1.0371464395749519
 50
340.850344949033115
 51
16.8914287134918695
  0
ARC
  5
3CB9E
  8
0
 10
2949.6684246091881505
 20
293.889474201072801
 30
0.0
 40
2.0149775397135601
 50
326.3188647226355101
 51
340.0876361571949928
  0
ARC
  5
3CB9F
  8
0
 10
2953.5892704432239952
 20
293.5318416147219978
 30
0.0
 40
0.3936422560693873
 50
0.0
 51
180.0
  0
ARC
  5
3CBA0
  8
0
 10
2953.5892704432239952
 20
293.5318416147219978
 30
0.0
 40
0.4330701420061635
 50
335.3616500252117021
 51
204.6383499747882979
  0
LINE
  5
3CBA1
  8
0
 10
2954.2782474786240527
 20
293.5318436847221051
 30
0.0
 11
2954.2782474786240527
 21
294.5161066769219929
 31
0.0
  0
LINE
  5
3CBA2
  8
0
 10
2952.9002947227240838
 20
293.5318436847221051
 30
0.0
 11
2952.9002947227240838
 21
294.5161066769219929
 31
0.0
  0
ARC
  5
3CBA3
  8
0
 10
2953.5892711006240461
 20
293.5318436847221051
 30
0.0
 40
0.6889763779999547
 50
180.0000000001531077
 51
235.1559598682511876
  0
ARC
  5
3CBA4
  8
0
 10
2953.5892711006240461
 20
293.5318436847221051
 30
0.0
 40
0.6889763779999952
 50
304.8439069061325881
 51
0.0
  0
LINE
  5
3CBA5
  8
0
 10
2954.0023550375140076
 20
294.5279066769219867
 30
0.0
 11
2953.1761861313239024
 21
294.5279066769219867
 31
0.0
  0
ARC
  5
3CBA6
  8
0
 10
2954.2664474786229221
 20
294.5161066769219929
 30
0.0
 40
0.0118
 50
0.0000000000683946
 51
90.0000000000521254
  0
ARC
  5
3CBA7
  8
0
 10
2952.9120947227229408
 20
294.5161066769219929
 30
0.0
 40
0.0118
 50
90.0
 51
180.0
  0
LINE
  5
3CBA8
  8
0
 10
2953.1682861313238391
 20
293.7064200845945834
 30
0.0
 11
2953.1682861313238391
 21
294.5200066769220939
 31
0.0
  0
LINE
  5
3CBA9
  8
0
 10
2954.0102550375140709
 20
293.7064194227160101
 30
0.0
 11
2954.0102550375140709
 21
294.5200066769220939
 31
0.0
  0
ARC
  5
3CBAA
  8
0
 10
2953.9984550375138497
 20
293.7064194227157259
 30
0.0
 40
0.0118
 50
203.1054243196570894
 51
0.0000000013125259
  0
ARC
  5
3CBAB
  8
0
 10
2953.1800861313231508
 20
293.7064200845944129
 30
0.0
 40
0.0118
 50
179.9999999986875139
 51
336.8944830012271723
  0
LINE
  5
3CBAC
  8
0
 10
2953.1976019358990015
 20
293.5712117319873755
 30
0.0
 11
2953.1581216484278229
 21
293.5725904140134048
 31
0.0
  0
LINE
  5
3CBAD
  8
0
 10
2953.1956281871548526
 20
293.4924067125700731
 30
0.0
 11
2953.1581212584537752
 21
293.4910969418252193
 31
0.0
  0
ARC
  5
3CBAE
  8
0
 10
2954.0023550375140076
 20
294.5200066769220939
 30
0.0
 40
0.0079
 50
359.999999999895806
 51
90.0
  0
ARC
  5
3CBAF
  8
0
 10
2953.1761861313239024
 20
294.5200066769220939
 30
0.0
 40
0.0079
 50
90.0000000000521254
 51
180.000000000104194
  0
LINE
  5
3CBB0
  8
0
 10
2953.1562003012168134
 20
294.5279066769219867
 30
0.0
 11
2953.1562003012168134
 21
293.5318416147219978
 31
0.0
  0
LINE
  5
3CBB1
  8
0
 10
2954.0223405852298129
 20
294.5279066769219867
 30
0.0
 11
2954.0223405852298129
 21
293.5318416147219978
 31
0.0
  0
LINE
  5
3CBB2
  8
0
 10
2954.2664474786229221
 20
294.5279066769219867
 30
0.0
 11
2954.0223405852298129
 21
294.5279066769219867
 31
0.0
  0
LINE
  5
3CBB3
  8
0
 10
2952.9120947227229408
 20
294.5279066769219867
 30
0.0
 11
2953.1562003012168134
 21
294.5279066769219867
 31
0.0
  0
LINE
  5
3CBB4
  8
0
 10
2954.0223405852298129
 20
294.5271155506105742
 30
0.0
 11
2954.0058008922519548
 21
294.5271155506105742
 31
0.0
  0
LINE
  5
3CBB5
  8
0
 10
2953.1727402765850456
 20
294.5271155506105742
 30
0.0
 11
2953.1562003012168134
 21
294.5271155506105742
 31
0.0
  0
LINE
  5
3CBB6
  8
0
 10
2953.1168301557240738
 20
294.5357806926220974
 30
0.0
 11
2953.1147304182240987
 21
294.5279066769219867
 31
0.0
  0
LINE
  5
3CBB7
  8
0
 10
2954.0638117830239935
 20
294.5279066769219867
 30
0.0
 11
2954.0617120455240183
 21
294.5357806926220974
 31
0.0
  0
LINE
  5
3CBB8
  8
0
 10
2956.3061101520738703
 20
294.2601602201219748
 30
0.0
 11
2956.3061101520738703
 21
293.232269755757784
 31
0.0
  0
LINE
  5
3CBB9
  8
0
 10
2956.3257951914738442
 20
293.2473564146737885
 30
0.0
 11
2956.3257951914738442
 21
294.2601602201219748
 31
0.0
  0
ARC
  5
3CBBA
  8
0
 10
2952.3976679943161798
 20
293.2356694062502243
 30
0.0
 40
5.200539182959413
 50
359.9663242043260993
 51
4.097954704495093
  0
ARC
  5
3CBBB
  8
0
 10
2934.7337011230110875
 20
291.9701343085077951
 30
0.0
 40
22.9097826652250305
 50
4.097954704495093
 51
4.663213717929767
  0
ARC
  5
3CBBC
  8
0
 10
2949.9722951801581985
 20
293.2131253704579876
 30
0.0
 40
7.6205781202327536
 50
4.663213717929767
 51
7.9384821492400919
  0
LINE
  5
3CBBD
  8
0
 10
2957.4808223136437846
 20
294.2995602201219754
 30
0.0
 11
2956.3651951914730489
 21
294.2995602201219754
 31
0.0
  0
ARC
  5
3CBBE
  8
0
 10
2957.4808223136437846
 20
294.2601602201220885
 30
0.0
 40
0.0394
 50
7.9384821491949333
 51
90.0
  0
ARC
  5
3CBBF
  8
0
 10
2956.3651951914730489
 20
294.2601602201219748
 30
0.0
 40
0.0394
 50
90.0000000000260485
 51
179.9999999999575948
  0
ARC
  5
3CBC0
  8
0
 10
2959.4357279924738577
 20
289.0042838422219802
 30
0.0
 40
0.3937
 50
270.0
 51
0.0
  0
LINE
  5
3CBC1
  8
0
 10
2959.7703728743740612
 20
294.4767255745221064
 30
0.0
 11
2959.7703728743740612
 21
294.5357806926220974
 31
0.0
  0
LINE
  5
3CBC2
  8
0
 10
2965.3893989423490893
 20
292.2411465212475719
 30
0.0
 11
2958.4975419920128843
 21
292.7312982527690792
 31
0.0
  0
LINE
  5
3CBC3
  8
0
 10
2965.3475075798742182
 20
291.6599774181220255
 30
0.0
 11
2959.425390658419019
 21
292.0811603396061855
 31
0.0
  0
LINE
  5
3CBC4
  8
0
 10
2961.542136653974012
 20
289.8310862044219789
 30
0.0
 11
2961.542136653974012
 21
291.7995302989219795
 31
0.0
  0
LINE
  5
3CBC5
  8
0
 10
2961.4633964964741608
 20
289.7916862044219783
 30
0.0
 11
2961.4633964964741608
 21
291.83893029892198
 31
0.0
  0
LINE
  5
3CBC6
  8
0
 10
2961.5027366539738978
 20
291.83893029892198
 30
0.0
 11
2961.4633964964741608
 21
291.83893029892198
 31
0.0
  0
LINE
  5
3CBC7
  8
0
 10
2961.4554964964740975
 20
291.83893029892198
 30
0.0
 11
2960.5757447031091942
 21
291.83893029892198
 31
0.0
  0
ARC
  5
3CBC8
  8
0
 10
2961.5027366539738978
 20
291.7995302989219795
 30
0.0
 40
0.0394
 50
0.0
 51
90.0
  0
ARC
  5
3CBC9
  8
0
 10
2961.4554964964740975
 20
291.8310302989219736
 30
0.0
 40
0.0079
 50
0.0000000000065138
 51
89.9999999999739515
  0
ARC
  5
3CBCA
  8
0
 10
2960.2749127571528334
 20
291.1835088896266939
 30
0.0
 40
0.6004480354141279
 50
118.2662351348023009
 51
137.8952789410384128
  0
ARC
  5
3CBCB
  8
0
 10
2960.4415123594540091
 20
290.8736625569644048
 30
0.0
 40
0.9522436825607575
 50
102.5066835126839067
 51
118.2662351348023009
  0
ARC
  5
3CBCC
  8
0
 10
2960.5447389508158267
 20
290.4082943980469054
 30
0.0
 40
1.4289230847781269
 50
92.9477029335470064
 51
102.5066835126839067
  0
ARC
  5
3CBCD
  8
0
 10
2960.6296372850711123
 20
288.7595448604178046
 30
0.0
 40
3.0798569916900931
 50
91.0026358698195139
 51
92.9477029335470064
  0
LINE
  5
3CBCE
  8
0
 10
2961.5027366539738978
 20
289.7916862044219783
 30
0.0
 11
2961.4633964964741608
 21
289.7916862044219783
 31
0.0
  0
LINE
  5
3CBCF
  8
0
 10
2961.4554964964740975
 20
289.7916862044219783
 30
0.0
 11
2960.5757447031091942
 21
289.7916862044219783
 31
0.0
  0
ARC
  5
3CBD0
  8
0
 10
2961.5027366539738978
 20
289.8310862044219789
 30
0.0
 40
0.0394
 50
270.0
 51
0.0
  0
ARC
  5
3CBD1
  8
0
 10
2961.4554964964740975
 20
289.7995862044219848
 30
0.0
 40
0.0079
 50
270.0000000000259774
 51
359.9999999999935199
  0
ARC
  5
3CBD2
  8
0
 10
2960.2749127571528334
 20
290.4471076137173782
 30
0.0
 40
0.6004480354141279
 50
222.1047210589615872
 51
241.7337648651977133
  0
ARC
  5
3CBD3
  8
0
 10
2960.4415123594540091
 20
290.7569539463797241
 30
0.0
 40
0.9522436825607575
 50
241.7337648651977133
 51
257.4933164873161218
  0
ARC
  5
3CBD4
  8
0
 10
2960.5447389508158267
 20
291.2223221052972235
 30
0.0
 40
1.4289230847781269
 50
257.4933164873161218
 51
267.0522970664529794
  0
ARC
  5
3CBD5
  8
0
 10
2960.6296372850711123
 20
292.8710716429263243
 30
0.0
 40
3.0798569916900931
 50
267.0522970664529794
 51
268.9973641301804719
  0
LINE
  5
3CBD6
  8
0
 10
2948.1386036515941669
 20
288.5385358005016769
 30
0.0
 11
2948.1375976057738626
 21
288.6105838422221268
 31
0.0
  0
LINE
  5
3CBD7
  8
0
 10
2948.1458777334742081
 20
288.5313625823221173
 30
0.0
 11
2949.5838443933730559
 21
288.5313625823221173
 31
0.0
  0
LINE
  5
3CBD8
  8
0
 10
2948.1526570225742034
 20
288.5306625823221225
 30
0.0
 11
2949.5770651042730606
 21
288.5306625823221225
 31
0.0
  0
LINE
  5
3CBD9
  8
0
 10
2948.1526570225742034
 20
288.5306625823221225
 30
0.0
 11
2948.1526570225742034
 21
288.5313625823221173
 31
0.0
  0
LINE
  5
3CBDA
  8
0
 10
2948.1386036515941669
 20
288.5385358005016769
 30
0.0
 11
2948.1458777334742081
 21
288.5313625823221173
 31
0.0
  0
LINE
  5
3CBDB
  8
0
 10
2949.5911184752530971
 20
288.5385358005016769
 30
0.0
 11
2949.5921245210729467
 21
288.6105838422221268
 31
0.0
  0
LINE
  5
3CBDC
  8
0
 10
2949.5770651042730606
 20
288.5306625823221225
 30
0.0
 11
2949.5770651042730606
 21
288.5313625823221173
 31
0.0
  0
LINE
  5
3CBDD
  8
0
 10
2949.5911184752530971
 20
288.5385358005016769
 30
0.0
 11
2949.5838443933730559
 21
288.5313625823221173
 31
0.0
  0
LINE
  5
3CBDE
  8
0
 10
2950.0395945726440914
 20
288.5385358005016769
 30
0.0
 11
2950.0385885268237871
 21
288.6105838422221268
 31
0.0
  0
LINE
  5
3CBDF
  8
0
 10
2950.0468686545241326
 20
288.5313625823221173
 30
0.0
 11
2951.4848353144238899
 21
288.5313625823221173
 31
0.0
  0
LINE
  5
3CBE0
  8
0
 10
2950.0536479436241279
 20
288.5306625823221225
 30
0.0
 11
2951.4780560253238946
 21
288.5306625823221225
 31
0.0
  0
LINE
  5
3CBE1
  8
0
 10
2950.0536479436241279
 20
288.5306625823221225
 30
0.0
 11
2950.0536479436241279
 21
288.5313625823221173
 31
0.0
  0
LINE
  5
3CBE2
  8
0
 10
2950.0395945726440914
 20
288.5385358005016769
 30
0.0
 11
2950.0468686545241326
 21
288.5313625823221173
 31
0.0
  0
LINE
  5
3CBE3
  8
0
 10
2951.4921093963030216
 20
288.5385358005016769
 30
0.0
 11
2951.4931154421237807
 21
288.6105838422221268
 31
0.0
  0
LINE
  5
3CBE4
  8
0
 10
2951.4780560253238946
 20
288.5306625823221225
 30
0.0
 11
2951.4780560253238946
 21
288.5313625823221173
 31
0.0
  0
LINE
  5
3CBE5
  8
0
 10
2951.4921093963030216
 20
288.5385358005016769
 30
0.0
 11
2951.4848353144238899
 21
288.5313625823221173
 31
0.0
  0
ARC
  5
3CBE6
  8
0
 10
2953.5967642947221066
 20
260.192119332967593
 30
0.0
 40
15.3482991307229408
 50
88.5583413254485237
 51
91.4976267477744756
  0
ARC
  5
3CBE7
  8
0
 10
2965.3681955079628096
 20
291.9505805488394117
 30
0.0
 40
0.291338583011821
 50
265.9280045401463894
 51
85.8263600198547039
  0
ENDSEC
  0
EOF
