  0
SECTION
  2
HEADER
  9
$ACADVER
  1
AC1009
  9
$INSBASE
 10
5222.0720680117037773
 20
360.6929261947288978
 30
0.0
  9
$EXTMIN
 10
5214.9341333779866545
 20
338.6718809595313928
 30
-0.0015258207003583
  9
$EXTMAX
 10
5234.3875037887992221
 20
360.7109676860217746
 30
0.0000000349246037
  9
$LIMMIN
 10
0.0
 20
0.0
  9
$LIMMAX
 10
11.6929133858000007
 20
8.2677165353999982
  9
$ORTHOMODE
 70
     0
  9
$REGENMODE
 70
     1
  9
$FILLMODE
 70
     1
  9
$QTEXTMODE
 70
     0
  9
$MIRRTEXT
 70
     0
  9
$DRAGMODE
 70
     2
  9
$LTSCALE
 40
0.6431102362
  9
$OSMODE
 70
  4095
  9
$ATTMODE
 70
     1
  9
$TEXTSIZE
 40
0.2
  9
$TRACEWID
 40
0.05
  9
$TEXTSTYLE
  7
STANDARD
  9
$CLAYER
  8
0
  9
$CELTYPE
  6
BYLAYER
  9
$CECOLOR
 62
   256
  9
$DIMSCALE
 40
1.0
  9
$DIMASZ
 40
0.1875
  9
$DIMEXO
 40
0.0625
  9
$DIMDLI
 40
0.4443307087
  9
$DIMRND
 40
0.0
  9
$DIMDLE
 40
0.0
  9
$DIMEXE
 40
0.125
  9
$DIMTP
 40
0.01
  9
$DIMTM
 40
0.01
  9
$DIMTXT
 40
2.0
  9
$DIMCEN
 40
0.1052362205
  9
$DIMTSZ
 40
0.0
  9
$DIMTOL
 70
     1
  9
$DIMLIM
 70
     0
  9
$DIMTIH
 70
     1
  9
$DIMTOH
 70
     1
  9
$DIMSE1
 70
     0
  9
$DIMSE2
 70
     0
  9
$DIMTAD
 70
     0
  9
$DIMZIN
 70
     0
  9
$DIMBLK
  1

  9
$DIMASO
 70
     1
  9
$DIMSHO
 70
     1
  9
$DIMPOST
  1
\X
  9
$DIMAPOST
  1

  9
$DIMALT
 70
     1
  9
$DIMALTD
 70
     2
  9
$DIMALTF
 40
25.3999999999999986
  9
$DIMLFAC
 40
1.0
  9
$DIMTOFL
 70
     0
  9
$DIMTVP
 40
0.0
  9
$DIMTIX
 70
     0
  9
$DIMSOXD
 70
     0
  9
$DIMSAH
 70
     0
  9
$DIMBLK1
  1

  9
$DIMBLK2
  1

  9
$DIMSTYLE
  2
STANDARD
  9
$DIMCLRD
 70
     0
  9
$DIMCLRE
 70
     0
  9
$DIMCLRT
 70
     0
  9
$DIMTFAC
 40
1.0
  9
$DIMGAP
 40
0.09
  9
$LUNITS
 70
     2
  9
$LUPREC
 70
     4
  9
$SKETCHINC
 40
0.1
  9
$FILLETRAD
 40
0.0
  9
$AUNITS
 70
     0
  9
$AUPREC
 70
     0
  9
$MENU
  1
.
  9
$ELEVATION
 40
0.0
  9
$PELEVATION
 40
0.0
  9
$THICKNESS
 40
0.0
  9
$LIMCHECK
 70
     0
  9
$BLIPMODE
 70
     0
  9
$CHAMFERA
 40
0.0
  9
$CHAMFERB
 40
0.0
  9
$SKPOLY
 70
     0
  9
$TDCREATE
 40
2458060.468368056230247
  9
$TDUPDATE
 40
2459446.5729513890109956
  9
$TDINDWG
 40
0.4111181713
  9
$TDUSRTIMER
 40
0.4111181713
  9
$USRTIMER
 70
     1
  9
$ANGBASE
 50
0.0
  9
$ANGDIR
 70
     0
  9
$PDMODE
 70
     0
  9
$PDSIZE
 40
0.3125
  9
$PLINEWID
 40
0.0
  9
$COORDS
 70
     1
  9
$SPLFRAME
 70
     0
  9
$SPLINETYPE
 70
     6
  9
$SPLINESEGS
 70
     8
  9
$ATTDIA
 70
     1
  9
$ATTREQ
 70
     1
  9
$HANDLING
 70
     1
  9
$HANDSEED
  5
BE43
  9
$SURFTAB1
 70
     6
  9
$SURFTAB2
 70
     6
  9
$SURFTYPE
 70
     6
  9
$SURFU
 70
     6
  9
$SURFV
 70
     6
  9
$UCSNAME
  2

  9
$UCSORG
 10
0.0
 20
0.0
 30
0.0
  9
$UCSXDIR
 10
1.0
 20
0.0
 30
0.0
  9
$UCSYDIR
 10
0.0
 20
1.0
 30
0.0
  9
$PUCSNAME
  2

  9
$PUCSORG
 10
0.0
 20
0.0
 30
0.0
  9
$PUCSXDIR
 10
1.0
 20
0.0
 30
0.0
  9
$PUCSYDIR
 10
0.0
 20
1.0
 30
0.0
  9
$USERI1
 70
     0
  9
$USERI2
 70
     0
  9
$USERI3
 70
     0
  9
$USERI4
 70
     0
  9
$USERI5
 70
     0
  9
$USERR1
 40
0.0
  9
$USERR2
 40
0.0
  9
$USERR3
 40
0.0
  9
$USERR4
 40
0.0
  9
$USERR5
 40
0.0
  9
$WORLDVIEW
 70
     1
  9
$SHADEDGE
 70
     3
  9
$SHADEDIF
 70
    70
  9
$TILEMODE
 70
     1
  9
$MAXACTVP
 70
    64
  9
$PLIMCHECK
 70
     0
  9
$PEXTMIN
 10
1.0000000000000000E+20
 20
1.0000000000000000E+20
 30
1.0000000000000000E+20
  9
$PEXTMAX
 10
-1.0000000000000000E+20
 20
-1.0000000000000000E+20
 30
-1.0000000000000000E+20
  9
$PLIMMIN
 10
0.0
 20
0.0
  9
$PLIMMAX
 10
12.0
 20
9.0
  9
$UNITMODE
 70
     0
  9
$VISRETAIN
 70
     1
  9
$PLINEGEN
 70
     0
  9
$PSLTSCALE
 70
     1
  0
ENDSEC
  0
SECTION
  2
TABLES
  0
TABLE
  2
VPORT
 70
     1
  0
VPORT
  2
*ACTIVE
 70
     0
 10
0.0
 20
0.0
 11
1.0
 21
1.0
 12
1421.1167512005799836
 22
223.6961621260267066
 13
0.0
 23
0.0
 14
1.0
 24
1.0
 15
0.0
 25
0.0
 16
0.0
 26
0.0
 36
17.1152628219792007
 17
3803.5440673828129547
 27
125.9952621967499056
 37
0.0
 40
22.2370425952913209
 41
2.8440779610194902
 42
50.0
 43
0.0
 44
0.0
 50
0.0
 51
0.0
 71
     0
 72
   100
 73
     1
 74
     1
 75
     0
 76
     0
 77
     0
 78
     0
  0
ENDTAB
  0
TABLE
  2
LTYPE
 70
     2
  0
LTYPE
  2
CONTINUOUS
 70
     0
  3
Solid line
 72
    65
 73
     0
 40
0.0
  0
LTYPE
  2
PHANTOM2
 70
     0
  3
___ _ _ ___ _ _ ___ _ _ ___ _ _
 72
    65
 73
     6
 40
1.25
 49
0.625
 49
-0.125
 49
0.125
 49
-0.125
 49
0.125
 49
-0.125
  0
ENDTAB
  0
TABLE
  2
LAYER
 70
     2
  0
LAYER
  2
0
 70
     0
 62
   255
  6
CONTINUOUS
  0
LAYER
  2
DEFPOINTS
 70
     0
 62
     7
  6
CONTINUOUS
  0
ENDTAB
  0
TABLE
  2
STYLE
 70
     1
  0
STYLE
  2
STANDARD
 70
     0
 40
0.0
 41
0.8
 50
0.0
 71
     0
 42
0.2
  3
txt
  4

  0
ENDTAB
  0
TABLE
  2
VIEW
 70
     0
  0
ENDTAB
  0
TABLE
  2
UCS
 70
     0
  0
ENDTAB
  0
TABLE
  2
APPID
 70
     9
  0
APPID
  2
ACAD
 70
     0
  0
APPID
  2
ACAD_MLEADERVER
 70
     0
  0
APPID
  2
ACAD_EXEMPT_FROM_CAD_STANDARDS
 70
     0
  0
APPID
  2
ACAD_NAV_VCDISPLAY
 70
     0
  0
APPID
  2
ACAECLAYERSTANDARD
 70
     0
  0
APPID
  2
ACCMTRANSPARENCY
 70
     0
  0
APPID
  2
ACAD_DSTYLE_DIMJAG
 70
     0
  0
APPID
  2
ACAD_DSTYLE_DIMTALN
 70
     0
  0
APPID
  2
ACDBATTR
 70
     0
  0
ENDTAB
  0
TABLE
  2
DIMSTYLE
 70
     1
  0
DIMSTYLE
  2
STANDARD
 70
     0
  3

  4

  5

  6

  7

 40
1.0
 41
0.1875
 42
0.0625
 43
0.38
 44
0.125
 45
0.0
 46
0.0
 47
0.01
 48
0.01
140
0.15625
141
0.09
142
0.0
143
25.3999999999999986
144
1.0
145
0.0
146
1.0
147
0.09
 71
     1
 72
     0
 73
     1
 74
     1
 75
     0
 76
     0
 77
     0
 78
     4
170
     0
171
     2
172
     0
173
     0
174
     0
175
     0
176
     0
177
     0
178
     0
  0
ENDTAB
  0
ENDSEC
  0
SECTION
  2
BLOCKS
  0
BLOCK
  8
0
  2
$MODEL_SPACE
 70
     0
 10
0.0
 20
0.0
 30
0.0
  3
$MODEL_SPACE
  1

  0
ENDBLK
  5
21
  8
0
  0
BLOCK
 67
     1
  8
0
  2
$PAPER_SPACE
 70
     0
 10
0.0
 20
0.0
 30
0.0
  3
$PAPER_SPACE
  1

  0
ENDBLK
  5
1D
 67
     1
  8
0
  0
ENDSEC
  0
SECTION
  2
ENTITIES
  0
ATTDEF
  5
3930
  8
DEFPOINTS
 10
5222.068839487198602
 20
360.698678083314519
 30
0.0
 40
0.001
  1
K-26334IN-9
  3

  2
MODELNUMBER
 70
     0
1001
ACDBATTR
1070
     0
1070
     1
  0
ATTDEF
  5
3931
  8
DEFPOINTS
 10
5222.068839487198602
 20
360.697011416647797
 30
0.0
 40
0.001
  1

  3

  2
TRADENAME
 70
     0
1001
ACDBATTR
1070
     0
1070
     1
  0
ATTDEF
  5
3932
  8
DEFPOINTS
 10
5222.068839487198602
 20
360.6953447499811887
 30
0.0
 40
0.001
  1
BATH AND SHOWER FAUCET
  3

  2
PRODUCT
 70
     0
1001
ACDBATTR
1070
     0
1070
     1
  0
ARC
  5
BC11
  8
0
 10
5224.8048538402535996
 20
1582.1105436341090353
 30
0.0
 40
1243.4275909884729572
 50
269.8117021284302837
 51
269.8740757897770095
  0
ARC
  5
BC12
  8
0
 10
5220.9560232565872866
 20
381.7582986872624247
 30
0.0
 40
43.0692865050580167
 50
268.114039991358311
 51
269.6839356076897047
  0
ARC
  5
BC13
  8
0
 10
5219.8503426163670156
 20
348.179668966564293
 30
0.0
 40
9.4724577321232069
 50
262.5108863372262249
 51
268.114039991358311
  0
ARC
  5
BC14
  8
0
 10
5219.2217946577429757
 20
343.3983533483096267
 30
0.0
 40
4.6500048730837626
 50
244.9801741947823075
 51
262.5108863372262249
  0
ARC
  5
BC15
  8
0
 10
5218.6969809775118847
 20
342.273902781388017
 30
0.0
 40
3.4091106485788401
 50
218.8885182715542044
 51
244.9801741947823075
  0
ARC
  5
BC16
  8
0
 10
5219.5080897342832031
 20
342.9281167156980246
 30
0.0
 40
4.4511726847161359
 50
197.4849019380417872
 51
218.8885182715542044
  0
ARC
  5
BC17
  8
0
 10
5220.2128609604669691
 20
342.7736749859537895
 30
0.0
 40
5.0896589875968612
 50
180.5124706085258879
 51
193.4395253262221104
  0
ARC
  5
BC18
  8
0
 10
5219.3756692085953546
 20
342.6099006318794977
 30
0.0
 40
4.2539075646101336
 50
146.2165658837417084
 51
178.407067802687294
  0
ARC
  5
BC19
  8
0
 10
5219.0330620517015632
 20
342.6669208901216166
 30
0.0
 40
3.940044932224982
 50
111.6488205952540937
 51
144.1349218695237084
  0
ARC
  5
BC1A
  8
0
 10
5219.4870890426273036
 20
340.9389224307716972
 30
0.0
 40
5.7177147967295481
 50
89.7903229811137891
 51
109.4889744361384061
  0
ARC
  5
BC1B
  8
0
 10
5221.3587575440051296
 20
285.7736714947507721
 30
0.0
 40
60.9110507930380365
 50
90.217729906083278
 51
91.7411644790041123
  0
ARC
  5
BC1C
  8
0
 10
5222.9257136546111724
 20
274.1966782498985253
 30
0.0
 40
64.4949271621522229
 50
89.5558347498254079
 51
90.7583873639402441
  0
ARC
  5
BC1D
  8
0
 10
5223.1880980717196508
 20
381.7582986872624247
 30
0.0
 40
43.0692865050580167
 50
270.3160643923104089
 51
271.8859600085896773
  0
ARC
  5
BC1E
  8
0
 10
5224.2937787119381028
 20
348.179668966564293
 30
0.0
 40
9.4724577321232069
 50
271.8859600085896773
 51
277.4891136627737751
  0
ARC
  5
BC1F
  8
0
 10
5224.9223266705630522
 20
343.3983533483096267
 30
0.0
 40
4.6500048730837626
 50
277.4891136627737751
 51
295.0198258052129177
  0
ARC
  5
BC20
  8
0
 10
5225.4471403507959621
 20
342.273902781388017
 30
0.0
 40
3.4091106485788401
 50
295.0198258052178062
 51
321.111481728445824
  0
ARC
  5
BC21
  8
0
 10
5224.6360315940228247
 20
342.9281167156980246
 30
0.0
 40
4.4511726847161359
 50
321.111481728445824
 51
342.5150980619566212
  0
ARC
  5
BC22
  8
0
 10
5223.9312496676520823
 20
342.7736769127179173
 30
0.0
 40
5.0896698425847626
 50
346.5604815736468254
 51
359.4875087935060947
  0
ARC
  5
BC23
  8
0
 10
5224.7684505188699404
 20
342.609899860214
 30
0.0
 40
4.2539093242306638
 50
1.592941935788899
 51
33.7834307653024979
  0
ARC
  5
BC24
  8
0
 10
5225.1110592766053742
 20
342.6669208901216166
 30
0.0
 40
3.940044932224982
 50
35.8650781304762774
 51
68.3511794047458636
  0
ARC
  5
BC25
  8
0
 10
5224.6570322856796338
 20
340.9389224307716972
 30
0.0
 40
5.7177147967295481
 50
70.5110255638615797
 51
90.2096770188861967
  0
ARC
  5
BC26
  8
0
 10
5222.7853637843018078
 20
285.7736714947507721
 30
0.0
 40
60.9110507930380365
 50
88.2588355209959019
 51
89.7822688797401298
  0
LINE
  5
BC27
  8
0
 10
5215.8319105314030821
 20
360.6338710766289068
 30
0.0
 11
5215.8319105314030821
 21
355.1614293443288943
 31
0.0
  0
LINE
  5
BC28
  8
0
 10
5228.312225492003563
 20
355.1614293443288943
 30
0.0
 11
5228.312225492003563
 21
358.2495048858853011
 31
0.0
  0
LINE
  5
BC29
  8
0
 10
5228.312225492003563
 20
358.8335372273730854
 30
0.0
 11
5228.312225492003563
 21
360.6338710766289068
 31
0.0
  0
LINE
  5
BC2A
  8
0
 10
5216.2256105314027081
 20
354.7677293443289273
 30
0.0
 11
5221.1272897891140019
 21
354.7677293443289273
 31
0.0
  0
LINE
  5
BC2B
  8
0
 10
5223.0168328300023859
 20
354.7677293443289273
 30
0.0
 11
5227.9185254920030275
 21
354.7677293443289273
 31
0.0
  0
LINE
  5
BC2C
  8
0
 10
5215.8909656495034142
 20
360.6929261947288978
 30
0.0
 11
5228.2531703739032309
 21
360.6929261947288978
 31
0.0
  0
LINE
  5
BC2D
  8
0
 10
5215.8319105314030821
 20
360.6338710766289068
 30
0.0
 11
5221.3240365171031954
 21
360.6338710766289068
 31
0.0
  0
LINE
  5
BC2E
  8
0
 10
5222.8200981301852153
 20
360.6338710766289068
 30
0.0
 11
5228.312225492003563
 21
360.6338710766289068
 31
0.0
  0
LINE
  5
BC2F
  8
0
 10
5215.8909656495034142
 20
360.6929261947288978
 30
0.0
 11
5215.8909656495034142
 21
360.6338710766289068
 31
0.0
  0
ARC
  5
BC30
  8
0
 10
5216.2256105314027081
 20
355.1614293443288943
 30
0.0
 40
0.3937
 50
180.0000000000015916
 51
270.0
  0
LINE
  5
BC31
  8
0
 10
5219.3571767902403735
 20
358.9212726514289216
 30
0.0
 11
5221.1272897891140019
 21
358.9212726514289216
 31
0.0
  0
LINE
  5
BC32
  8
0
 10
5223.0168481179043738
 20
358.9212726514289216
 30
0.0
 11
5224.7404357968580371
 21
358.9212726514289216
 31
0.0
  0
LINE
  5
BC33
  8
0
 10
5219.3571767902403735
 20
360.4567057222288895
 30
0.0
 11
5221.3240456798912419
 21
360.4567057222288895
 31
0.0
  0
LINE
  5
BC34
  8
0
 10
5219.3226617196760344
 20
360.4547604682484234
 30
0.0
 11
5218.690457611121019
 21
360.4503467792349056
 31
0.0
  0
LINE
  5
BC35
  8
0
 10
5219.3227810803782631
 20
358.9232170720969748
 30
0.0
 11
5218.6904576137094409
 21
358.9276315944218823
 31
0.0
  0
ARC
  5
BC36
  8
0
 10
5243.6062348539026061
 20
359.6889892310159098
 30
0.0
 40
24.9577450116193909
 50
178.3220856299992931
 51
181.6779147313395981
  0
ARC
  5
BC37
  8
0
 10
5218.6906775208208273
 20
360.4188475468677098
 30
0.0
 40
0.0315
 50
90.4000000010349538
 51
178.3220986989848029
  0
ARC
  5
BC38
  8
0
 10
5218.6906775234101588
 20
358.9591308267891918
 30
0.0
 40
0.0315
 50
181.6779015042683056
 51
269.5999999969848204
  0
ARC
  5
BC39
  8
0
 10
5225.1825885827038292
 20
360.417305722228889
 30
0.0
 40
0.0394
 50
0.0
 51
90.0
  0
LINE
  5
BC3A
  8
0
 10
5225.2338051865035595
 20
360.3778951009708749
 30
0.0
 11
5225.2338051865035595
 21
359.3477689371442807
 31
0.0
  0
ARC
  5
BC3B
  8
0
 10
5225.2456160809497305
 20
360.377899201507887
 30
0.0
 40
0.0118108951588665
 50
109.4994906692703012
 51
180.0198920965478067
  0
ARC
  5
BC3C
  8
0
 10
5225.2180898100041304
 20
360.3541062462289233
 30
0.0
 40
0.0157158214999822
 50
0.4311719374036846
 51
75.6361057130946506
  0
LINE
  5
BC3D
  8
0
 10
5222.8201037660401198
 20
360.4567057222288895
 30
0.0
 11
5225.1825885827038292
 21
360.4567057222288895
 31
0.0
  0
ARC
  5
BC3E
  8
0
 10
5217.5883577667782447
 20
360.0381098871292238
 30
0.0
 40
2.0655319073720362
 50
327.4528343783147193
 51
339.7445085742260176
  0
ARC
  5
BC3F
  8
0
 10
5219.322836232334339
 20
358.9311168795795766
 30
0.0
 40
0.0079
 50
269.599999997036889
 51
327.4528343783592277
  0
ARC
  5
BC40
  8
0
 10
5218.5373540181499266
 20
359.6879033484249248
 30
0.0
 40
1.05397938532207
 50
339.7445085742260176
 51
13.7164976221989505
  0
ARC
  5
BC41
  8
0
 10
5217.7829023050417163
 20
359.4434029914381767
 30
0.0
 40
1.845821704974828
 50
15.5368323552532299
 51
33.0912561456094423
  0
ARC
  5
BC42
  8
0
 10
5219.3227168716321103
 20
360.4468606607658785
 30
0.0
 40
0.0079
 50
33.0912561456353629
 51
90.4000000010349538
  0
LINE
  5
BC43
  8
0
 10
5219.3492767902398555
 20
360.448805722228883
 30
0.0
 11
5219.3492767902398555
 21
360.4198909527947876
 31
0.0
  0
LINE
  5
BC44
  8
0
 10
5219.3492767902398555
 20
358.9584866874961904
 30
0.0
 11
5219.3492767902398555
 21
358.929172651428928
 31
0.0
  0
ARC
  5
BC45
  8
0
 10
5219.3571767902403735
 20
360.448805722228883
 30
0.0
 40
0.0079
 50
90.0000000000521254
 51
180.0
  0
ARC
  5
BC46
  8
0
 10
5219.3571767902403735
 20
358.929172651428928
 30
0.0
 40
0.0079
 50
179.9999999998973976
 51
269.9999999999478746
  0
ARC
  5
BC47
  8
0
 10
5217.1114893654976186
 20
359.0121120032874842
 30
0.0
 40
2.6592821212466902
 50
21.8520878786630988
 51
32.701082866673417
  0
ARC
  5
BC48
  8
0
 10
5218.5872954034712166
 20
359.7005758286391028
 30
0.0
 40
1.0371464395749519
 50
340.8503449490253843
 51
16.8914287134981009
  0
ARC
  5
BC49
  8
0
 10
5217.6725399080542047
 20
360.0466197031797151
 30
0.0
 40
2.0149775397135601
 50
326.3188647226286889
 51
340.0876361571935149
  0
LINE
  5
BC4A
  8
0
 10
5225.2219885827043981
 20
360.417305722228889
 30
0.0
 11
5225.2219885827043981
 21
359.3382465281998179
 31
0.0
  0
LINE
  5
BC4B
  8
0
 10
5225.2416736221039173
 20
359.3533271811484155
 30
0.0
 11
5225.2416736221039173
 21
360.417305722228889
 31
0.0
  0
ARC
  5
BC4C
  8
0
 10
5221.313546424946253
 20
359.3928149083570815
 30
0.0
 40
5.200539182959413
 50
359.4046729698061995
 51
4.097954704495093
  0
ARC
  5
BC4D
  8
0
 10
5203.6495795536411606
 20
358.1272798106147093
 30
0.0
 40
22.9097826652250305
 50
4.097954704495093
 51
4.663213717926026
  0
ARC
  5
BC4E
  8
0
 10
5218.8881736107887264
 20
359.3702708725647881
 30
0.0
 40
7.6205781202327536
 50
4.663213717926026
 51
7.9384821492404649
  0
LINE
  5
BC4F
  8
0
 10
5226.3967007442743125
 20
360.4567057222288895
 30
0.0
 11
5225.2810736221026673
 21
360.4567057222288895
 31
0.0
  0
ARC
  5
BC50
  8
0
 10
5226.3967007442743125
 20
360.417305722228889
 30
0.0
 40
0.0394
 50
7.9384821491985322
 51
90.0
  0
ARC
  5
BC51
  8
0
 10
5225.2810736221026673
 20
360.417305722228889
 30
0.0
 40
0.0394
 50
90.0
 51
179.9999999999593001
  0
ARC
  5
BC52
  8
0
 10
5227.9185254920030275
 20
355.1614293443288943
 30
0.0
 40
0.3937
 50
270.0
 51
359.9999999999984084
  0
LINE
  5
BC53
  8
0
 10
5228.2531703739032309
 20
360.6338710766289068
 30
0.0
 11
5228.2531703739032309
 21
360.6929261947288978
 31
0.0
  0
LINE
  5
BC54
  8
0
 10
5230.0249341535036365
 20
355.9882317065290067
 30
0.0
 11
5230.0249341535036365
 21
357.9566758010288936
 31
0.0
  0
LINE
  5
BC55
  8
0
 10
5229.9461939960037853
 20
355.9488317065290062
 30
0.0
 11
5229.9461939960037853
 21
357.9960758010288941
 31
0.0
  0
LINE
  5
BC56
  8
0
 10
5229.985534153502158
 20
357.9960758010288941
 30
0.0
 11
5229.9461939960037853
 21
357.9960758010288941
 31
0.0
  0
LINE
  5
BC57
  8
0
 10
5229.9382939960032672
 20
357.9960758010288941
 30
0.0
 11
5229.0585422026388187
 21
357.9960758010288941
 31
0.0
  0
ARC
  5
BC58
  8
0
 10
5229.985534153502158
 20
357.9566758010288936
 30
0.0
 40
0.0394
 50
359.9999999999984084
 51
90.0
  0
ARC
  5
BC59
  8
0
 10
5229.9382939960032672
 20
357.9881758010288877
 30
0.0
 40
0.0079
 50
0.0000000000065138
 51
89.9999999999478888
  0
ARC
  5
BC5A
  8
0
 10
5228.9243098589840884
 20
357.0308080590713189
 30
0.0
 40
0.9522436825607575
 50
102.5066835126587961
 51
129.9995229507468935
  0
ARC
  5
BC5B
  8
0
 10
5229.0275364503449964
 20
356.5654399001538195
 30
0.0
 40
1.4289230847781269
 50
92.9477029335470917
 51
102.5066835126587961
  0
ARC
  5
BC5C
  8
0
 10
5229.1124347845998273
 20
354.9166903625247187
 30
0.0
 40
3.0798569916900931
 50
91.0026358698455624
 51
92.9477029335470917
  0
LINE
  5
BC5D
  8
0
 10
5229.985534153502158
 20
355.9488317065290062
 30
0.0
 11
5229.9461939960037853
 21
355.9488317065290062
 31
0.0
  0
LINE
  5
BC5E
  8
0
 10
5229.9382939960032672
 20
355.9488317065290062
 30
0.0
 11
5229.0585422026388187
 21
355.9488317065290062
 31
0.0
  0
ARC
  5
BC5F
  8
0
 10
5229.985534153502158
 20
355.9882317065290067
 30
0.0
 40
0.0394
 50
270.0
 51
0.0
  0
ARC
  5
BC60
  8
0
 10
5229.9382939960032672
 20
355.9567317065288989
 30
0.0
 40
0.0079
 50
270.0
 51
359.9999999999935199
  0
ARC
  5
BC61
  8
0
 10
5228.7577102566829126
 20
356.6042531158241786
 30
0.0
 40
0.6004480354141279
 50
222.1047210589603935
 51
241.7337648651999871
  0
ARC
  5
BC62
  8
0
 10
5228.9243098589840884
 20
356.9140994484865246
 30
0.0
 40
0.9522436825607575
 50
241.7337648651999871
 51
257.4933164872903149
  0
ARC
  5
BC63
  8
0
 10
5229.0275364503449964
 20
357.379467607404024
 30
0.0
 40
1.4289230847781269
 50
257.4933164872903149
 51
267.0522970664529225
  0
ARC
  5
BC64
  8
0
 10
5229.1124347845998273
 20
359.0282171450331816
 30
0.0
 40
3.0798569916900931
 50
267.0522970664529225
 51
268.9973641302065062
  0
LINE
  5
BC65
  8
0
 10
5216.6214011511228819
 20
354.6956813026085911
 30
0.0
 11
5216.6203951053030323
 21
354.7677293443289273
 31
0.0
  0
LINE
  5
BC66
  8
0
 10
5216.6286752330033778
 20
354.6885080844289178
 30
0.0
 11
5218.0666418929031352
 21
354.6885080844289178
 31
0.0
  0
LINE
  5
BC67
  8
0
 10
5216.6354545221038279
 20
354.6878080844289229
 30
0.0
 11
5218.059862603802685
 21
354.6878080844289229
 31
0.0
  0
LINE
  5
BC68
  8
0
 10
5216.6354545221038279
 20
354.6878080844289229
 30
0.0
 11
5216.6354545221038279
 21
354.6885080844289178
 31
0.0
  0
LINE
  5
BC69
  8
0
 10
5216.6214011511228819
 20
354.6956813026085911
 30
0.0
 11
5216.6286752330033778
 21
354.6885080844289178
 31
0.0
  0
LINE
  5
BC6A
  8
0
 10
5218.0739159747827216
 20
354.6956813026085911
 30
0.0
 11
5218.0749220206043901
 21
354.7677293443289273
 31
0.0
  0
LINE
  5
BC6B
  8
0
 10
5218.059862603802685
 20
354.6878080844289229
 30
0.0
 11
5218.059862603802685
 21
354.6885080844289178
 31
0.0
  0
LINE
  5
BC6C
  8
0
 10
5218.0739159747827216
 20
354.6956813026085911
 30
0.0
 11
5218.0666418929031352
 21
354.6885080844289178
 31
0.0
  0
LINE
  5
BC6D
  8
0
 10
5218.5223920721728064
 20
354.6956813026085911
 30
0.0
 11
5218.5213860263529568
 21
354.7677293443289273
 31
0.0
  0
LINE
  5
BC6E
  8
0
 10
5218.5296661540533023
 20
354.6885080844289178
 30
0.0
 11
5219.9676328139530597
 21
354.6885080844289178
 31
0.0
  0
LINE
  5
BC6F
  8
0
 10
5218.5364454431528429
 20
354.6878080844289229
 30
0.0
 11
5219.9608535248526096
 21
354.6878080844289229
 31
0.0
  0
LINE
  5
BC70
  8
0
 10
5218.5364454431528429
 20
354.6878080844289229
 30
0.0
 11
5218.5364454431528429
 21
354.6885080844289178
 31
0.0
  0
LINE
  5
BC71
  8
0
 10
5218.5223920721728064
 20
354.6956813026085911
 30
0.0
 11
5218.5296661540533023
 21
354.6885080844289178
 31
0.0
  0
LINE
  5
BC72
  8
0
 10
5219.9749068958317366
 20
354.6956813026085911
 30
0.0
 11
5219.9759129416534051
 21
354.7677293443289273
 31
0.0
  0
LINE
  5
BC73
  8
0
 10
5219.9608535248526096
 20
354.6878080844289229
 30
0.0
 11
5219.9608535248526096
 21
354.6885080844289178
 31
0.0
  0
LINE
  5
BC74
  8
0
 10
5219.9749068958317366
 20
354.6956813026085911
 30
0.0
 11
5219.9676328139530597
 21
354.6885080844289178
 31
0.0
  0
LINE
  5
BC75
  8
0
 10
5220.3903844309243141
 20
354.6956813026085911
 30
0.0
 11
5220.3893783851026456
 21
354.7677293443289273
 31
0.0
  0
LINE
  5
BC76
  8
0
 10
5220.3976585128039005
 20
354.6885080844289178
 30
0.0
 11
5221.1272897891140019
 21
354.6885080844289178
 31
0.0
  0
LINE
  5
BC77
  8
0
 10
5220.4044378019034411
 20
354.6878080844289229
 30
0.0
 11
5221.1272897891140019
 21
354.6878080844289798
 31
0.0
  0
LINE
  5
BC78
  8
0
 10
5220.4044378019034411
 20
354.6878080844289229
 30
0.0
 11
5220.4044378019034411
 21
354.6885080844289178
 31
0.0
  0
LINE
  5
BC79
  8
0
 10
5220.3903844309243141
 20
354.6956813026085911
 30
0.0
 11
5220.3976585128039005
 21
354.6885080844289178
 31
0.0
  0
LINE
  5
BC7A
  8
0
 10
5222.0720678595962454
 20
360.6880284758914854
 30
0.0
 11
5222.0720771747037361
 21
360.5027220314289025
 31
0.0
  0
ARC
  5
BC7B
  8
0
 10
5222.0641800195726319
 20
360.5027420324141758
 30
0.0
 40
0.0078971804581892
 50
286.6572762026806913
 51
359.8548883020943094
  0
ARC
  5
BC7C
  8
0
 10
5222.0720680015092512
 20
360.4763117886689088
 30
0.0
 40
0.019685027405772
 50
106.6015236832769943
 51
180.0000210728501884
  0
LINE
  5
BC7D
  8
0
 10
5222.0523829741032387
 20
360.4763117814289899
 30
0.0
 11
5222.0523830320244087
 21
360.3188314652289819
 31
0.0
  0
ARC
  5
BC7E
  8
0
 10
5222.0720681048424012
 20
360.3188314724690144
 30
0.0
 40
0.0196850728183082
 50
180.0000210728535137
 51
253.398201299155204
  0
ARC
  5
BC7F
  8
0
 10
5222.064193951498055
 20
360.2924211786163937
 30
0.0
 40
0.0078740620058791
 50
0.0002282097167037
 51
73.3982012992070167
  0
LINE
  5
BC80
  8
0
 10
5222.0720680135027578
 20
360.2924212099788974
 30
0.0
 11
5222.0720686453641974
 21
360.1337823435354153
 31
0.0
  0
ARC
  5
BC81
  8
0
 10
5222.0838149533774413
 20
360.1337583521403189
 30
0.0
 40
0.0117463325137177
 50
179.8829756740622088
 51
269.9717087764680059
  0
ARC
  5
BC82
  8
0
 10
5221.3319105493292227
 20
360.0397225213530987
 30
0.0
 40
0.0078740468269967
 50
179.8896609355647058
 51
294.1469693979905173
  0
ARC
  5
BC83
  8
0
 10
5221.5535146319198248
 20
359.6413770894345134
 30
0.0
 40
0.447992813599934
 50
115.5882997216201034
 51
119.1744157103772039
  0
ARC
  5
BC84
  8
0
 10
5221.6039079167248929
 20
359.5265505067873164
 30
0.0
 40
0.5733371989135972
 50
102.0569997244868006
 51
115.1742669453885952
  0
ARC
  5
BC85
  8
0
 10
5221.8368069868893144
 20
358.1975873143617264
 30
0.0
 40
1.9222790714461431
 50
89.9503600054171386
 51
100.5713332777572049
  0
ARC
  5
BC86
  8
0
 10
5222.0438341263288748
 20
350.3411775837943196
 30
0.0
 40
9.7808442381084753
 50
89.8346068418431543
 51
91.2030887961381467
  0
ARC
  5
BC87
  8
0
 10
5222.1024995651596328
 20
350.8045609342091211
 30
0.0
 40
9.3174698329173165
 50
88.5138294581655742
 51
90.1871326345329152
  0
ARC
  5
BC88
  8
0
 10
5222.2980472701792678
 20
357.8894555298286946
 30
0.0
 40
2.2299176909144238
 50
82.7556908044856669
 51
88.8152358447565291
  0
ARC
  5
BC89
  8
0
 10
5222.5085985883670219
 20
359.4473505221499181
 30
0.0
 40
0.6580252236128386
 50
63.5040965165170732
 51
83.8371361315541037
  0
ARC
  5
BC8A
  8
0
 10
5222.6119627001553454
 20
359.6739633031921244
 30
0.0
 40
0.4091904238649838
 50
18.9664560928566992
 51
62.300903766358509
  0
ARC
  5
BC8B
  8
0
 10
5222.6414987332091187
 20
359.6928410549414252
 30
0.0
 40
0.3752131674212272
 50
2.961561554288918
 51
17.706071752852889
  0
ARC
  5
BC8C
  8
0
 10
5222.3535725974943489
 20
359.6815623291349198
 30
0.0
 40
0.6633473172586652
 50
0.9284167080240076
 51
2.649549984803405
  0
ARC
  5
BC8D
  8
0
 10
5222.8121277847267265
 20
360.0397626462431049
 30
0.0
 40
0.007989256576001
 50
253.9152815948015984
 51
0.1002124815063223
  0
ARC
  5
BC8E
  8
0
 10
5222.0799400132564188
 20
360.5027202543892031
 30
0.0
 40
0.0078717371921939
 50
181.8499963768373959
 51
253.3995094583895877
  0
ARC
  5
BC8F
  8
0
 10
5222.0720667866826261
 20
360.4763108668186078
 30
0.0
 40
0.0196862643413785
 50
0.0026569748590968
 51
73.399509458390952
  0
LINE
  5
BC90
  8
0
 10
5222.091753051003252
 20
360.4763117797289169
 30
0.0
 11
5222.0917603538318872
 21
360.3188314697982833
 31
0.0
  0
ARC
  5
BC91
  8
0
 10
5222.0719833859866412
 20
360.3188305526817885
 30
0.0
 40
0.0197769678660546
 50
286.8756608427287915
 51
0.0026569748542114
  0
ARC
  5
BC92
  8
0
 10
5222.0800393697136315
 20
360.2922746360214887
 30
0.0
 40
0.0079739885767592
 50
106.8756608427287063
 51
178.5758745606497087
  0
ARC
  5
BC93
  8
0
 10
5222.5877944843214209
 20
359.6601126340253813
 30
0.0
 40
0.5058191431722049
 50
54.2878407390571311
 51
62.6583594596207192
  0
ARC
  5
BC94
  8
0
 10
5222.5886215350437851
 20
359.6612630816126739
 30
0.0
 40
0.5044022654259843
 50
31.7464219245107984
 51
54.2878407390571311
  0
ARC
  5
BC95
  8
0
 10
5222.6443759267067435
 20
359.6957601311117969
 30
0.0
 40
0.4388385665229022
 50
356.8891423792039745
 51
31.7464219245121804
  0
ARC
  5
BC96
  8
0
 10
5222.5594495050299884
 20
359.7003757227312803
 30
0.0
 40
0.5238903200910752
 50
338.7133438852060863
 51
356.8891423792039745
  0
ARC
  5
BC97
  8
0
 10
5222.7380907944889259
 20
359.6307743189569237
 30
0.0
 40
0.3321689970525811
 50
327.0512382647967797
 51
338.7133438852060863
  0
ARC
  5
BC98
  8
0
 10
5222.5947237074697114
 20
359.6558655288412751
 30
0.0
 40
0.4506972265824019
 50
38.4684523132878482
 51
59.9934666750872765
  0
ARC
  5
BC99
  8
0
 10
5222.6396849286256838
 20
359.6915888968889021
 30
0.0
 40
0.3932718799794401
 50
18.8383863157346312
 51
38.4684523132891272
  0
ARC
  5
BC9A
  8
0
 10
5222.6368022501783344
 20
359.6906053974838073
 30
0.0
 40
0.3963177142023609
 50
352.5517905561673047
 51
18.8383863157346312
  0
ARC
  5
BC9B
  8
0
 10
5222.563709642368849
 20
359.7001610151360182
 30
0.0
 40
0.4700322931199173
 50
344.5849574928258221
 51
352.5517905561673047
  0
ARC
  5
BC9C
  8
0
 10
5221.5321824870397904
 20
359.6739633031921244
 30
0.0
 40
0.4091904238649838
 50
117.6990962336414981
 51
161.0335439071432972
  0
ARC
  5
BC9D
  8
0
 10
5221.5026464539860171
 20
359.6928410549414252
 30
0.0
 40
0.3752131674212272
 50
162.2939282471471074
 51
177.0384384457109945
  0
ARC
  5
BC9E
  8
0
 10
5221.7905725897007869
 20
359.6815623291349198
 30
0.0
 40
0.6633473172586652
 50
177.3504500151950083
 51
180.7991101307642907
  0
LINE
  5
BC9F
  8
0
 10
5221.1272897891140019
 20
342.1079517458185251
 30
0.0
 11
5221.1272897906919752
 21
342.1038173228874939
 31
0.0
  0
LINE
  5
BCA0
  8
0
 10
5221.3240456798912419
 20
360.6805646482762882
 30
0.0
 11
5221.3240456798912419
 21
360.0397528237845108
 31
0.0
  0
ARC
  5
BCA1
  8
0
 10
5221.5563507028737149
 20
359.6601126340253813
 30
0.0
 40
0.5058191431722049
 50
117.3396887196811065
 51
125.7121592609428973
  0
ARC
  5
BCA2
  8
0
 10
5221.5555236521522602
 20
359.6612630816126739
 30
0.0
 40
0.5044022654259843
 50
125.7121592609428973
 51
148.2535780754892016
  0
ARC
  5
BCA3
  8
0
 10
5221.4997692604883923
 20
359.6957601311117969
 30
0.0
 40
0.4388385665229022
 50
148.253578075487809
 51
183.1108576207942917
  0
ARC
  5
BCA4
  8
0
 10
5221.5846956821660569
 20
359.7003757227312803
 30
0.0
 40
0.5238903200910752
 50
183.1108576207942917
 51
201.2866561147939137
  0
ARC
  5
BCA5
  8
0
 10
5221.4060543927053004
 20
359.6307743189569237
 30
0.0
 40
0.3321689970525811
 50
201.2866561147924074
 51
212.9416037653670912
  0
ARC
  5
BCA6
  8
0
 10
5221.5494214797254244
 20
359.6558655288412751
 30
0.0
 40
0.4506972265824019
 50
120.0039275820531941
 51
141.5315476867120879
  0
ARC
  5
BCA7
  8
0
 10
5221.504460258567633
 20
359.6915888968889021
 30
0.0
 40
0.3932718799794401
 50
141.5315476867108941
 51
161.1616136842654043
  0
ARC
  5
BCA8
  8
0
 10
5221.5073429370168014
 20
359.6906053974838073
 30
0.0
 40
0.3963177142023609
 50
161.1616136842654043
 51
187.4482094438390902
  0
ARC
  5
BCA9
  8
0
 10
5221.5804355448262868
 20
359.7001610151360182
 30
0.0
 40
0.4700322931199173
 50
187.4482094438390902
 51
195.4046896119153871
  0
LINE
  5
BCAA
  8
0
 10
5226.9929282126722683
 20
358.9224280051515734
 30
0.0
 11
5234.037657814130398
 21
358.4477726690701047
 31
0.0
  0
ARC
  5
BCAB
  8
0
 10
5234.01805555080864
 20
358.1570943711939208
 30
0.0
 40
0.2913385000021585
 50
266.1420270143531752
 51
86.1420268879080737
  0
LINE
  5
BCAC
  8
0
 10
5233.9984532881298946
 20
357.8664160732744222
 30
0.0
 11
5227.6069291406738557
 21
358.2970216494509259
 31
0.0
  0
LINE
  5
BCAD
  8
0
 10
5221.1272897906919752
 20
342.1233685831593903
 30
0.0
 11
5223.0168328300023859
 21
342.1233685831593903
 31
0.0
  0
ARC
  5
BCAE
  8
0
 10
5221.1405551778098015
 20
342.0490362407978751
 30
0.0
 40
0.0122074904849578
 50
183.2690115911495923
 51
254.7659804495978051
  0
ARC
  5
BCAF
  8
0
 10
5221.1562598184564195
 20
342.1355635401155268
 30
0.0
 40
0.1001084954835532
 50
259.1103475736362043
 51
268.1496995426144281
  0
ARC
  5
BCB0
  8
0
 10
5222.0420414736599923
 20
410.5969587596864017
 30
0.0
 40
68.567215053341954
 50
269.2571059475762922
 51
270.0250920463079183
  0
ARC
  5
BCB1
  8
0
 10
5222.0420414736609018
 20
410.5969587596696897
 30
0.0
 40
68.5672150533252704
 50
270.0250920463079183
 51
270.8021895575939197
  0
ARC
  5
BCB2
  8
0
 10
5215.1184136660185686
 20
341.9593332753699997
 30
0.0
 40
6.0106129405952338
 50
0.8484830081933045
 51
1.3774175224950831
  0
ARC
  5
BCB3
  8
0
 10
5221.1584558722106522
 20
342.0907522167499906
 30
0.0
 40
0.0355970298738167
 50
113.6137663119103962
 51
151.1071486239954993
  0
CIRCLE
  5
BCB4
  8
0
 10
5220.5326906544032681
 20
342.719612565459272
 30
0.0
 40
0.1332176238954719
  0
CIRCLE
  5
BCB5
  8
0
 10
5223.6114308067108141
 20
342.719612565459272
 30
0.0
 40
0.1332176238954719
  0
CIRCLE
  5
BCB6
  8
0
 10
5222.0720459988033326
 20
343.5639909693592813
 30
0.0
 40
0.1124905040865352
  0
CIRCLE
  5
BCB7
  8
0
 10
5222.0720459986841888
 20
342.6586131574495084
 30
0.0
 40
0.1124905040865352
  0
CIRCLE
  5
BCB8
  8
0
 10
5222.072078623703419
 20
341.6441298956593755
 30
0.0
 40
0.1308238606429608
  0
LINE
  5
BCB9
  8
0
 10
5223.0168328300023859
 20
342.1079517458185251
 30
0.0
 11
5223.0168022066764024
 21
342.1038173228874939
 31
0.0
  0
ARC
  5
BCBA
  8
0
 10
5223.0035368195567571
 20
342.0490362407978751
 30
0.0
 40
0.0122074904849578
 50
285.2340195504021949
 51
356.730988408850294
  0
ARC
  5
BCBB
  8
0
 10
5222.9878321789119582
 20
342.1355635401155268
 30
0.0
 40
0.1001084954835532
 50
278.1414785892681039
 51
280.8896524263637957
  0
ARC
  5
BCBC
  8
0
 10
5229.0256783313488995
 20
341.9593332753699997
 30
0.0
 40
6.0106129405952338
 50
178.622582477504892
 51
179.1515169918083075
  0
ARC
  5
BCBD
  8
0
 10
5222.9854959958347536
 20
342.0905363302168212
 30
0.0
 40
0.0358509954696527
 50
29.0630747954801087
 51
66.3192413291236988
  0
ARC
  5
BCBE
  8
0
 10
5221.3319090472878088
 20
360.6801547408982174
 30
0.0
 40
0.0078740436841655
 50
90.4961393770042406
 51
179.9997028505854075
  0
LINE
  5
BCBF
  8
0
 10
5221.3318393250174267
 20
360.6880284758914854
 30
0.0
 11
5222.8121966586750204
 21
360.6880284758914854
 31
0.0
  0
ARC
  5
BCC0
  8
0
 10
5222.8121966586750204
 20
360.680128475891479
 30
0.0
 40
0.0079
 50
0.0018226513635838
 51
90.0
  0
ARC
  5
BCC1
  8
0
 10
5221.4659655472933082
 20
360.6683273818243833
 30
0.0
 40
0.024808689985594
 50
97.4580427595257248
 51
127.4277184551044968
  0
ARC
  5
BCC2
  8
0
 10
5222.6781880569678833
 20
360.6683273818243833
 30
0.0
 40
0.024808689985594
 50
52.5722815448954321
 51
82.5419572404742468
  0
LINE
  5
BCC3
  8
0
 10
5223.7442020205044173
 20
354.7677293443289273
 30
0.0
 11
5223.7431959755222124
 21
354.6956813627477914
 31
0.0
  0
LINE
  5
BCC4
  8
0
 10
5223.7431959755222124
 20
354.6956813627477914
 30
0.0
 11
5223.0168328300023859
 21
354.6956813627477914
 31
0.0
  0
LINE
  5
BCC5
  8
0
 10
5223.0168328300023859
 20
354.688508084529019
 30
0.0
 11
5223.735921832603708
 21
354.688508084529019
 31
0.0
  0
LINE
  5
BCC6
  8
0
 10
5223.735921832603708
 20
354.688508084529019
 30
0.0
 11
5223.7431959751029353
 21
354.6956813327290092
 31
0.0
  0
LINE
  5
BCC7
  8
0
 10
5223.7291426037036217
 20
354.688508084529019
 30
0.0
 11
5223.7291426037036217
 21
354.6878080845289105
 31
0.0
  0
LINE
  5
BCC8
  8
0
 10
5223.7291426037036217
 20
354.6878080845289105
 30
0.0
 11
5223.0168328300023859
 21
354.6878080845289105
 31
0.0
  0
ARC
  5
BCC9
  8
0
 10
5225.8674993356989944
 20
350.5782948754787185
 30
0.0
 40
8.8400365963313394
 50
89.9352156515064252
 51
90.0556494768856766
  0
LINE
  5
BCCA
  8
0
 10
5225.0800141546005761
 20
359.170561099392728
 30
0.0
 11
5225.0782595307500742
 21
359.0764230634338787
 31
0.0
  0
LINE
  5
BCCB
  8
0
 10
5225.2526825970999198
 20
359.1510970316928137
 30
0.0
 11
5225.2519728868001039
 21
359.0636520216928034
 31
0.0
  0
LINE
  5
BCCC
  8
0
 10
5225.1732181186007438
 20
359.2514293163926027
 30
0.0
 11
5225.1720652353005789
 21
359.1257882750928161
 31
0.0
  0
LINE
  5
BCCD
  8
0
 10
5225.6009916190014337
 20
359.1594235017926735
 30
0.0
 11
5225.6017741188570653
 21
359.0699387759839283
 31
0.0
  0
LINE
  5
BCCE
  8
0
 10
5225.2975320220002686
 20
359.0646303933926902
 30
0.0
 11
5225.6100526447999073
 21
359.0700832187927176
 31
0.0
  0
LINE
  5
BCCF
  8
0
 10
5225.277393135001148
 20
359.1491568105926717
 30
0.0
 11
5225.5918496153999513
 21
359.1544440310926802
 31
0.0
  0
ARC
  5
BCD0
  8
0
 10
5225.1775782995500776
 20
359.1734685917055003
 30
0.0
 40
0.0976074581743703
 50
181.7069564860213973
 51
223.1319803619140885
  0
ARC
  5
BCD1
  8
0
 10
5225.416267940506259
 20
359.4380501721564087
 30
0.0
 40
0.4536743293831392
 50
226.9107372045399984
 51
256.8556067548087185
  0
ARC
  5
BCD2
  8
0
 10
5225.7615595746692634
 20
360.5279032501786105
 30
0.0
 40
1.595945144308156
 50
253.6801307702525889
 51
264.1237258885263941
  0
ARC
  5
BCD3
  8
0
 10
5225.8868810730436962
 20
361.7501273392539929
 30
0.0
 40
2.8245773421351479
 50
264.1332413917036206
 51
269.6211387703178843
  0
ARC
  5
BCD4
  8
0
 10
5225.1973046478387914
 20
359.1615952808818975
 30
0.0
 40
0.1176326727814848
 50
130.2389961286143887
 51
175.6287464216711953
  0
ARC
  5
BCD5
  8
0
 10
5225.3299875800139489
 20
359.0244189605173233
 30
0.0
 40
0.3083177940288064
 50
117.7534978849372038
 51
132.5944645634911012
  0
ARC
  5
BCD6
  8
0
 10
5225.2291733457077498
 20
359.1627434785472133
 30
0.0
 40
0.0692626025345171
 50
144.5175826052008858
 51
194.7295193791009922
  0
ARC
  5
BCD7
  8
0
 10
5225.2320390292807133
 20
359.1686081431111006
 30
0.0
 40
0.0736912278467113
 50
198.57589256253641
 51
215.525937488593712
  0
ARC
  5
BCD8
  8
0
 10
5225.3450012353423517
 20
359.2657361440072918
 30
0.0
 40
0.2224685733399309
 50
218.9813974804787904
 51
245.2812726977711861
  0
ARC
  5
BCD9
  8
0
 10
5225.6558992543450586
 20
359.9306808475537878
 30
0.0
 40
0.9565016964292768
 50
245.0204025911534984
 51
261.5792542452670091
  0
ARC
  5
BCDA
  8
0
 10
5225.8388310397040186
 20
360.8835398366423988
 30
0.0
 40
1.9263224221314561
 50
260.3471243934026802
 51
266.0890536926207233
  0
ARC
  5
BCDB
  8
0
 10
5225.8765605134276484
 20
361.5077460375355258
 30
0.0
 40
2.5516531538652099
 50
266.1998196597515971
 51
269.8123603147993776
  0
ARC
  5
BCDC
  8
0
 10
5225.2665551992777182
 20
359.2493786690026809
 30
0.0
 40
0.0933596046698338
 50
149.1393617269725951
 51
178.7413947296298034
  0
ARC
  5
BCDD
  8
0
 10
5225.3508093536502201
 20
359.1904824675568761
 30
0.0
 40
0.1960331825096723
 50
118.8308286140943011
 51
146.9937821701099949
  0
ARC
  5
BCDE
  8
0
 10
5225.5855542166018495
 20
358.7723776152985238
 30
0.0
 40
0.6755246967545333
 50
103.4463184872973045
 51
119.1723836297174017
  0
ARC
  5
BCDF
  8
0
 10
5225.8013633554182888
 20
357.9436035372663127
 30
0.0
 40
1.5318598939332939
 50
95.4915158627591296
 51
104.0887273588905941
  0
ARC
  5
BCE0
  8
0
 10
5225.865385513900037
 20
357.3736468534065125
 30
0.0
 40
2.1053475417258989
 50
90.6922095296289257
 51
95.7414647096475164
  0
ARC
  5
BCE1
  8
0
 10
5225.8399760514739683
 20
359.4603911183234004
 30
0.0
 40
0.0184496492055265
 50
359.3006163337529983
 51
90.0786586088176051
  0
ARC
  5
BCE2
  8
0
 10
5194.9671357545512365
 20
359.1086986733695881
 30
0.0
 40
30.8933292168407192
 50
0.1693495229572601
 51
0.6516127673943176
  0
ARC
  5
BCE3
  8
0
 10
5225.8806142747789636
 20
354.9353469964445935
 30
0.0
 40
4.2647114053102531
 50
90.1667299123335226
 51
90.2725169653744643
  0
ARC
  5
BCE4
  8
0
 10
5225.8668186949980736
 20
358.3875497929012113
 30
0.0
 40
0.8124862798708015
 50
90.4575797675004623
 51
93.8151731251910377
  0
ARC
  5
BCE5
  8
0
 10
5225.8539340625366094
 20
358.5324712553712061
 30
0.0
 40
0.6670364005419654
 50
93.5391645307178834
 51
102.097562234482794
  0
ARC
  5
BCE6
  8
0
 10
5225.7664223242891239
 20
358.9103695810165959
 30
0.0
 40
0.2792625866911651
 50
100.7906288361853058
 51
120.5916136248009991
  0
ARC
  5
BCE7
  8
0
 10
5225.6708938625679366
 20
359.0776321541920879
 30
0.0
 40
0.0867124658870795
 50
122.5015684218676029
 51
143.4272032636195036
  0
ARC
  5
BCE8
  8
0
 10
5225.5811604406808328
 20
359.159255672548511
 30
0.0
 40
0.0198318884673371
 50
0.4848767765370695
 51
60.6001499040661287
  0
ARC
  5
BCE9
  8
0
 10
5225.6239653565653498
 20
359.2283413974233213
 30
0.0
 40
0.0614625326698044
 50
218.4192360674915108
 51
237.4495640953909117
  0
ARC
  5
BCEA
  8
0
 10
5225.5915032774855717
 20
359.2024220112531907
 30
0.0
 40
0.0199228552504548
 50
157.3545106918072918
 51
218.0305328365506057
  0
ARC
  5
BCEB
  8
0
 10
5225.6304283262343233
 20
359.1850796776383277
 30
0.0
 40
0.0625325455450941
 50
120.3043947299159981
 51
156.4216456101536039
  0
ARC
  5
BCEC
  8
0
 10
5225.7787312016362193
 20
358.9099252872031798
 30
0.0
 40
0.3750772956195036
 50
97.0928007445205168
 51
118.6539437099093988
  0
ARC
  5
BCED
  8
0
 10
5225.8582599042556467
 20
358.4783209604099738
 30
0.0
 40
0.8136024039693825
 50
91.1280070353553526
 51
98.897811716878536
  0
ARC
  5
BCEE
  8
0
 10
5225.8420549533411759
 20
359.3323794438717869
 30
0.0
 40
0.040614184810835
 50
270.2655570309843256
 51
288.3594194203661232
  0
ARC
  5
BCEF
  8
0
 10
5225.8523932091966344
 20
359.3018796611381163
 30
0.0
 40
0.0084130548519539
 50
286.9610855217724747
 51
332.9307327539983135
  0
ARC
  5
BCF0
  8
0
 10
5225.2774801008072245
 20
359.2621456543060958
 30
0.0
 40
0.1048112629065504
 50
185.8684130097136062
 51
229.1489782894815903
  0
ARC
  5
BCF1
  8
0
 10
5225.3793474332933329
 20
359.3715938130084737
 30
0.0
 40
0.2542888344134617
 50
227.9176731063627983
 51
240.1246965113051033
  0
ARC
  5
BCF2
  8
0
 10
5225.2697360452621069
 20
359.209962639717503
 30
0.0
 40
0.0612860496263377
 50
253.8436243070445073
 51
277.1773009515035255
  0
ARC
  5
BCF3
  8
0
 10
5225.5891290569970806
 20
359.1703206249079017
 30
0.0
 40
0.0161080001695033
 50
279.7235701895154989
 51
317.4289629518435163
  0
ARC
  5
BCF4
  8
0
 10
5225.2976017912187672
 20
359.0453505861713097
 30
0.0
 40
0.0192799334603073
 50
90.2073394364579002
 51
161.6049144805415096
  0
ARC
  5
BCF5
  8
0
 10
5225.6105148641181586
 20
359.0533876055695828
 30
0.0
 40
0.0167020102859609
 50
68.8481077252098146
 51
91.5858329190108833
  0
ARC
  5
BCF6
  8
0
 10
5225.7556239680234285
 20
359.3931702873283029
 30
0.0
 40
0.3527795068513307
 50
246.7809695500598934
 51
256.2908690481460212
  0
ARC
  5
BCF7
  8
0
 10
5225.838713304511657
 20
359.7306415266089061
 30
0.0
 40
0.7003286348942306
 50
256.2300067716760168
 51
264.5471713954510733
  0
ARC
  5
BCF8
  8
0
 10
5225.8974235941714142
 20
360.6057647467391121
 30
0.0
 40
1.5772643868442979
 50
265.4450076329811736
 51
268.9385084698321862
  0
ARC
  5
BCF9
  8
0
 10
5225.8700502145557039
 20
361.8959446500732042
 30
0.0
 40
5.5800292775739413
 50
264.9749033733970123
 51
269.9810434880355956
  0
ARC
  5
BCFA
  8
0
 10
5225.6560273385412074
 20
359.9641733654131031
 30
0.0
 40
3.6372022435116098
 50
252.683208600177295
 51
265.6679194209050934
  0
ARC
  5
BCFB
  8
0
 10
5224.85011846919042
 20
357.4715371862156985
 30
0.0
 40
1.018035473990029
 50
228.3563724978760092
 51
254.2274648502938987
  0
ARC
  5
BCFC
  8
0
 10
5224.6681293544497748
 20
357.060594366978421
 30
0.0
 40
0.6057229408037382
 50
184.3939113559372061
 51
215.2774794962595024
  0
ARC
  5
BCFD
  8
0
 10
5245.0919499825040475
 20
356.6307813070167185
 30
0.0
 40
21.0312583943038298
 50
175.5371985584907861
 51
178.9554212136706042
  0
ARC
  5
BCFE
  8
0
 10
5224.8623231046340152
 20
358.1580508945885981
 30
0.0
 40
0.7459044410488676
 50
117.4148813558577018
 51
171.5807885265078028
  0
ARC
  5
BCFF
  8
0
 10
5225.4128593830691898
 20
357.1541887264725119
 30
0.0
 40
1.890698039649241
 50
101.3653291828105978
 51
118.2179687538067014
  0
ARC
  5
BD00
  8
0
 10
5224.9922507818400845
 20
359.0792216130751058
 30
0.0
 40
0.0860542664207718
 50
303.9188568257047223
 51
358.1363694467298728
  0
LINE
  5
BD01
  8
0
 10
5226.6563939296011085
 20
359.170561099392728
 30
0.0
 11
5226.6581485534497915
 21
359.0764230634338787
 31
0.0
  0
LINE
  5
BD02
  8
0
 10
5226.4837254870990364
 20
359.1510970316928137
 30
0.0
 11
5226.4844351973997618
 21
359.0636520216928034
 31
0.0
  0
LINE
  5
BD03
  8
0
 10
5226.5631899656000314
 20
359.2514293163926027
 30
0.0
 11
5226.5643428489001963
 21
359.1257882750928161
 31
0.0
  0
LINE
  5
BD04
  8
0
 10
5226.1354164652011605
 20
359.1594235017926735
 30
0.0
 11
5226.1346339653446194
 21
359.0699387759839283
 31
0.0
  0
LINE
  5
BD05
  8
0
 10
5226.4388760621995971
 20
359.0646303933926902
 30
0.0
 11
5226.1263554393999584
 21
359.0700832187927176
 31
0.0
  0
LINE
  5
BD06
  8
0
 10
5226.4590149492014461
 20
359.1491568105926717
 30
0.0
 11
5226.1445584687990049
 21
359.1544440310926802
 31
0.0
  0
ARC
  5
BD07
  8
0
 10
5226.5588297846497881
 20
359.1734685917055003
 30
0.0
 40
0.0976074581743703
 50
316.8680196380857979
 51
358.2930435139786027
  0
ARC
  5
BD08
  8
0
 10
5226.3201401436963351
 20
359.4380501721564087
 30
0.0
 40
0.4536743293831392
 50
283.1443932451912815
 51
313.0892627954600016
  0
ARC
  5
BD09
  8
0
 10
5225.9748485095306023
 20
360.5279032501786105
 30
0.0
 40
1.595945144308156
 50
275.8762741114736059
 51
286.3198692297473826
  0
ARC
  5
BD0A
  8
0
 10
5225.8495270111561695
 20
361.7501273392539929
 30
0.0
 40
2.8245773421351479
 50
270.378861229682002
 51
275.8667586082963226
  0
ARC
  5
BD0B
  8
0
 10
5226.5391034363619838
 20
359.1615952808818975
 30
0.0
 40
0.1176326727814848
 50
4.37125357833043
 51
49.7610038713855616
  0
ARC
  5
BD0C
  8
0
 10
5226.4064205041859168
 20
359.0244189605173233
 30
0.0
 40
0.3083177940288064
 50
47.4055354365089201
 51
62.246502115062782
  0
ARC
  5
BD0D
  8
0
 10
5226.5072347384930254
 20
359.1627434785472133
 30
0.0
 40
0.0692626025345171
 50
345.2704806208989794
 51
35.4824173947990715
  0
ARC
  5
BD0E
  8
0
 10
5226.5043690549200619
 20
359.1686081431111006
 30
0.0
 40
0.0736912278467113
 50
324.4740625114063164
 51
341.42410743746359
  0
ARC
  5
BD0F
  8
0
 10
5226.391406848859333
 20
359.2657361440072918
 30
0.0
 40
0.2224685733399309
 50
294.7187273022286718
 51
321.0186025195213233
  0
ARC
  5
BD10
  8
0
 10
5226.0805088298557166
 20
359.9306808475537878
 30
0.0
 40
0.9565016964292768
 50
278.4207457547331046
 51
294.9795974088459047
  0
ARC
  5
BD11
  8
0
 10
5225.8975770444967566
 20
360.8835398366423988
 30
0.0
 40
1.9263224221314561
 50
273.9109463073792767
 51
279.6528756065973198
  0
ARC
  5
BD12
  8
0
 10
5225.8598475707740363
 20
361.5077460375355258
 30
0.0
 40
2.5516531538652099
 50
270.1876396852006224
 51
273.8001803402484029
  0
ARC
  5
BD13
  8
0
 10
5226.469852884923057
 20
359.2493786690026809
 30
0.0
 40
0.0933596046698338
 50
1.2586052703702371
 51
30.8606382730274014
  0
ARC
  5
BD14
  8
0
 10
5226.3855987305496456
 20
359.1904824675568761
 30
0.0
 40
0.1960331825096723
 50
33.0062178298899198
 51
61.1691713859057131
  0
ARC
  5
BD15
  8
0
 10
5226.1508538675989257
 20
358.7723776152985238
 30
0.0
 40
0.6755246967545333
 50
60.8276163702826196
 51
76.5536815127026529
  0
ARC
  5
BD16
  8
0
 10
5225.9350447287833958
 20
357.9436035372663127
 30
0.0
 40
1.5318598939332939
 50
75.9112726411093632
 51
84.5084841372408846
  0
ARC
  5
BD17
  8
0
 10
5225.8710225702998287
 20
357.3736468534065125
 30
0.0
 40
2.1053475417258989
 50
84.2585352903524836
 51
89.3077904703710743
  0
ARC
  5
BD18
  8
0
 10
5225.8964320327258974
 20
359.4603911183234004
 30
0.0
 40
0.0184496492055265
 50
89.9213413911823807
 51
180.6993836662470017
  0
ARC
  5
BD19
  8
0
 10
5256.7692723296486292
 20
359.1086986733695881
 30
0.0
 40
30.8933292168407192
 50
179.3483872326073083
 51
179.8306504770426955
  0
ARC
  5
BD1A
  8
0
 10
5225.8557938094209021
 20
354.9353469964445935
 30
0.0
 40
4.2647114053102531
 50
89.7274830346255641
 51
89.8332700876664774
  0
ARC
  5
BD1B
  8
0
 10
5225.8695893892017921
 20
358.3875497929012113
 30
0.0
 40
0.8124862798708015
 50
86.1848268748089765
 51
89.5424202324474265
  0
ARC
  5
BD1C
  8
0
 10
5225.8824740216632563
 20
358.5324712553712061
 30
0.0
 40
0.6670364005419654
 50
77.9024377655172344
 51
86.4608354692821166
  0
ARC
  5
BD1D
  8
0
 10
5225.9699857599116513
 20
358.9103695810165959
 30
0.0
 40
0.2792625866911651
 50
59.4083863751989512
 51
79.2093711638146516
  0
ARC
  5
BD1E
  8
0
 10
5226.0655142216328386
 20
359.0776321541920879
 30
0.0
 40
0.0867124658870795
 50
36.572796736380532
 51
57.4984315781323403
  0
ARC
  5
BD1F
  8
0
 10
5226.1552476435190329
 20
359.159255672548511
 30
0.0
 40
0.0198318884673371
 50
119.3998500959338998
 51
179.5151232234645136
  0
ARC
  5
BD20
  8
0
 10
5226.1124427276363349
 20
359.2283413974233213
 30
0.0
 40
0.0614625326698044
 50
302.5504359046091167
 51
321.5807639325086029
  0
ARC
  5
BD21
  8
0
 10
5226.144904806714294
 20
359.2024220112531907
 30
0.0
 40
0.0199228552504548
 50
321.9694671634493943
 51
22.6454893081926301
  0
ARC
  5
BD22
  8
0
 10
5226.1059797579664519
 20
359.1850796776383277
 30
0.0
 40
0.0625325455450941
 50
23.578354389846389
 51
59.6956052700839805
  0
ARC
  5
BD23
  8
0
 10
5225.9576768825645559
 20
358.9099252872031798
 30
0.0
 40
0.3750772956195036
 50
61.346056290090651
 51
82.9071992554794974
  0
ARC
  5
BD24
  8
0
 10
5225.878148179944219
 20
358.4783209604099738
 30
0.0
 40
0.8136024039693825
 50
81.102188283121464
 51
88.8719929646446616
  0
ARC
  5
BD25
  8
0
 10
5225.8943531308586898
 20
359.3323794438717869
 30
0.0
 40
0.040614184810835
 50
251.6405805796339052
 51
269.7344429690156744
  0
ARC
  5
BD26
  8
0
 10
5225.8840148750041408
 20
359.3018796611381163
 30
0.0
 40
0.0084130548519539
 50
207.0692672460016865
 51
253.0389144782274968
  0
ARC
  5
BD27
  8
0
 10
5226.4589279833926412
 20
359.2621456543060958
 30
0.0
 40
0.1048112629065504
 50
310.851021710518296
 51
354.1315869902863938
  0
ARC
  5
BD28
  8
0
 10
5226.3570606509083518
 20
359.3715938130084737
 30
0.0
 40
0.2542888344134617
 50
299.8753034886948967
 51
312.0823268936371733
  0
ARC
  5
BD29
  8
0
 10
5226.4666720389377588
 20
359.209962639717503
 30
0.0
 40
0.0612860496263377
 50
262.8226990484964745
 51
286.1563756929555211
  0
ARC
  5
BD2A
  8
0
 10
5226.1472790272036946
 20
359.1703206249079017
 30
0.0
 40
0.0161080001695033
 50
222.5710370481565121
 51
260.2764298104846148
  0
ARC
  5
BD2B
  8
0
 10
5226.4388062929810985
 20
359.0453505861713097
 30
0.0
 40
0.0192799334603073
 50
18.39508551945843
 51
89.792660563542114
  0
ARC
  5
BD2C
  8
0
 10
5226.1258932200844356
 20
359.0533876055695828
 30
0.0
 40
0.0167020102859609
 50
88.4141670809891451
 51
111.1518922747901996
  0
ARC
  5
BD2D
  8
0
 10
5225.9807841161782562
 20
359.3931702873283029
 30
0.0
 40
0.3527795068513307
 50
283.7091309518539788
 51
293.2190304499400781
  0
ARC
  5
BD2E
  8
0
 10
5225.8976947796882087
 20
359.7306415266089061
 30
0.0
 40
0.7003286348942306
 50
275.4528286045489267
 51
283.7699932283240969
  0
ARC
  5
BD2F
  8
0
 10
5225.838984490029361
 20
360.6057647467391121
 30
0.0
 40
1.5772643868442979
 50
271.0614915301678138
 51
274.5549923670188264
  0
ARC
  5
BD30
  8
0
 10
5225.8663578696441618
 20
361.8959446500732042
 30
0.0
 40
5.5800292775739413
 50
270.0189565119644044
 51
275.0250966266029877
  0
ARC
  5
BD31
  8
0
 10
5226.0803807456595678
 20
359.9641733654131031
 30
0.0
 40
3.6372022435116098
 50
274.3320805790947929
 51
287.3167913998221934
  0
ARC
  5
BD32
  8
0
 10
5226.8862896150112647
 20
357.4715371862156985
 30
0.0
 40
1.018035473990029
 50
285.7725351497060728
 51
311.6436275021239908
  0
ARC
  5
BD33
  8
0
 10
5227.0682787297510004
 20
357.060594366978421
 30
0.0
 40
0.6057229408037382
 50
324.7225205037404976
 51
355.6060886440611739
  0
ARC
  5
BD34
  8
0
 10
5206.6444581016958182
 20
356.6307813070167185
 30
0.0
 40
21.0312583943038298
 50
1.0445787863277869
 51
4.4628014415092299
  0
ARC
  5
BD35
  8
0
 10
5226.8740849795658505
 20
358.1580508945885981
 30
0.0
 40
0.7459044410488676
 50
8.419211473492183
 51
62.5851186441422698
  0
ARC
  5
BD36
  8
0
 10
5226.3235487011306759
 20
357.1541887264725119
 30
0.0
 40
1.890698039649241
 50
61.7820312461933199
 51
78.6346708171893596
  0
ARC
  5
BD37
  8
0
 10
5226.7441573023606907
 20
359.0792216130751058
 30
0.0
 40
0.0860542664207718
 50
181.8636305532683934
 51
236.0811431742953062
  0
LINE
  5
BD39
  8
0
 10
5222.820096658670991
 20
360.6801287272006107
 30
0.0
 11
5222.8201170290831215
 21
360.0397766197473857
 31
0.0
  0
LINE
  5
BD3A
  8
0
 10
5223.0168328300023859
 20
346.330546789832681
 30
0.0
 11
5221.1272897891140019
 21
346.330546789832681
 31
0.0
  0
LINE
  5
BD3B
  8
0
 10
5223.0168328300023859
 20
342.1233685831593903
 30
0.0
 11
5223.0168328300023859
 21
359.6923106911826835
 31
0.0
  0
LINE
  5
BD3C
  8
0
 10
5221.1272897891140019
 20
342.1233685831593903
 30
0.0
 11
5221.1272897891140019
 21
359.6723108558060744
 31
0.0
  0
ENDSEC
  0
EOF
