  0
SECTION
  2
HEADER
  9
$ACADVER
  1
AC1009
  9
$INSBASE
 10
4764.4644979760969363
 20
237.1750957871344951
 30
0.0
  9
$EXTMIN
 10
4760.3721999087956647
 20
234.6344658659344873
 30
0.0
  9
$EXTMAX
 10
4768.556796043396389
 20
237.1802169566641965
 30
0.0
  9
$LIMMIN
 10
0.0
 20
0.0
  9
$LIMMAX
 10
11.6929133858000007
 20
8.2677165353999982
  9
$ORTHOMODE
 70
     1
  9
$REGENMODE
 70
     1
  9
$FILLMODE
 70
     1
  9
$QTEXTMODE
 70
     0
  9
$MIRRTEXT
 70
     0
  9
$DRAGMODE
 70
     2
  9
$LTSCALE
 40
0.6431102362
  9
$OSMODE
 70
  4095
  9
$ATTMODE
 70
     1
  9
$TEXTSIZE
 40
0.2
  9
$TRACEWID
 40
0.05
  9
$TEXTSTYLE
  7
STANDARD
  9
$CLAYER
  8
0
  9
$CELTYPE
  6
BYLAYER
  9
$CECOLOR
 62
   256
  9
$DIMSCALE
 40
1.0
  9
$DIMASZ
 40
0.1875
  9
$DIMEXO
 40
0.0625
  9
$DIMDLI
 40
0.4443307087
  9
$DIMRND
 40
0.0
  9
$DIMDLE
 40
0.0
  9
$DIMEXE
 40
0.125
  9
$DIMTP
 40
0.01
  9
$DIMTM
 40
0.01
  9
$DIMTXT
 40
2.0
  9
$DIMCEN
 40
0.1052362205
  9
$DIMTSZ
 40
0.0
  9
$DIMTOL
 70
     1
  9
$DIMLIM
 70
     0
  9
$DIMTIH
 70
     1
  9
$DIMTOH
 70
     1
  9
$DIMSE1
 70
     0
  9
$DIMSE2
 70
     0
  9
$DIMTAD
 70
     0
  9
$DIMZIN
 70
     0
  9
$DIMBLK
  1

  9
$DIMASO
 70
     1
  9
$DIMSHO
 70
     1
  9
$DIMPOST
  1
\X
  9
$DIMAPOST
  1

  9
$DIMALT
 70
     1
  9
$DIMALTD
 70
     2
  9
$DIMALTF
 40
25.3999999999999986
  9
$DIMLFAC
 40
1.0
  9
$DIMTOFL
 70
     0
  9
$DIMTVP
 40
0.0
  9
$DIMTIX
 70
     0
  9
$DIMSOXD
 70
     0
  9
$DIMSAH
 70
     0
  9
$DIMBLK1
  1

  9
$DIMBLK2
  1

  9
$DIMSTYLE
  2
STANDARD
  9
$DIMCLRD
 70
     0
  9
$DIMCLRE
 70
     0
  9
$DIMCLRT
 70
     0
  9
$DIMTFAC
 40
1.0
  9
$DIMGAP
 40
0.09
  9
$LUNITS
 70
     2
  9
$LUPREC
 70
     4
  9
$SKETCHINC
 40
0.1
  9
$FILLETRAD
 40
0.0
  9
$AUNITS
 70
     0
  9
$AUPREC
 70
     0
  9
$MENU
  1
.
  9
$ELEVATION
 40
0.0
  9
$PELEVATION
 40
0.0
  9
$THICKNESS
 40
0.0
  9
$LIMCHECK
 70
     0
  9
$BLIPMODE
 70
     0
  9
$CHAMFERA
 40
0.0
  9
$CHAMFERB
 40
0.0
  9
$SKPOLY
 70
     0
  9
$TDCREATE
 40
2458060.468368056230247
  9
$TDUPDATE
 40
2459374.6077662040479481
  9
$TDINDWG
 40
0.3542547454
  9
$TDUSRTIMER
 40
0.3542547454
  9
$USRTIMER
 70
     1
  9
$ANGBASE
 50
0.0
  9
$ANGDIR
 70
     0
  9
$PDMODE
 70
     0
  9
$PDSIZE
 40
0.3125
  9
$PLINEWID
 40
0.0
  9
$COORDS
 70
     1
  9
$SPLFRAME
 70
     0
  9
$SPLINETYPE
 70
     6
  9
$SPLINESEGS
 70
     8
  9
$ATTDIA
 70
     1
  9
$ATTREQ
 70
     1
  9
$HANDLING
 70
     1
  9
$HANDSEED
  5
CBA1
  9
$SURFTAB1
 70
     6
  9
$SURFTAB2
 70
     6
  9
$SURFTYPE
 70
     6
  9
$SURFU
 70
     6
  9
$SURFV
 70
     6
  9
$UCSNAME
  2

  9
$UCSORG
 10
0.0
 20
0.0
 30
0.0
  9
$UCSXDIR
 10
1.0
 20
0.0
 30
0.0
  9
$UCSYDIR
 10
0.0
 20
1.0
 30
0.0
  9
$PUCSNAME
  2

  9
$PUCSORG
 10
0.0
 20
0.0
 30
0.0
  9
$PUCSXDIR
 10
1.0
 20
0.0
 30
0.0
  9
$PUCSYDIR
 10
0.0
 20
1.0
 30
0.0
  9
$USERI1
 70
     0
  9
$USERI2
 70
     0
  9
$USERI3
 70
     0
  9
$USERI4
 70
     0
  9
$USERI5
 70
     0
  9
$USERR1
 40
0.0
  9
$USERR2
 40
0.0
  9
$USERR3
 40
0.0
  9
$USERR4
 40
0.0
  9
$USERR5
 40
0.0
  9
$WORLDVIEW
 70
     1
  9
$SHADEDGE
 70
     3
  9
$SHADEDIF
 70
    70
  9
$TILEMODE
 70
     1
  9
$MAXACTVP
 70
    64
  9
$PLIMCHECK
 70
     0
  9
$PEXTMIN
 10
1.0000000000000000E+20
 20
1.0000000000000000E+20
 30
1.0000000000000000E+20
  9
$PEXTMAX
 10
-1.0000000000000000E+20
 20
-1.0000000000000000E+20
 30
-1.0000000000000000E+20
  9
$PLIMMIN
 10
0.0
 20
0.0
  9
$PLIMMAX
 10
12.0
 20
9.0
  9
$UNITMODE
 70
     0
  9
$VISRETAIN
 70
     1
  9
$PLINEGEN
 70
     0
  9
$PSLTSCALE
 70
     1
  0
ENDSEC
  0
SECTION
  2
TABLES
  0
TABLE
  2
VPORT
 70
     1
  0
VPORT
  2
*ACTIVE
 70
     0
 10
0.0
 20
0.0
 11
1.0
 21
1.0
 12
0.0541411215463086
 22
0.0151501388240383
 13
0.0
 23
0.0
 14
1.0
 24
1.0
 15
0.0
 25
0.0
 16
0.0
 26
0.0
 36
24.4590828657164003
 17
4764.4643554687490905
 27
235.9073387029415017
 37
0.0
 40
3.2088085399448181
 41
2.6159122085048012
 42
50.0
 43
0.0
 44
0.0
 50
0.0
 51
0.0
 71
     0
 72
   100
 73
     1
 74
     1
 75
     0
 76
     0
 77
     0
 78
     0
  0
ENDTAB
  0
TABLE
  2
LTYPE
 70
     2
  0
LTYPE
  2
CONTINUOUS
 70
     0
  3
Solid line
 72
    65
 73
     0
 40
0.0
  0
LTYPE
  2
PHANTOM2
 70
     0
  3
___ _ _ ___ _ _ ___ _ _ ___ _ _
 72
    65
 73
     6
 40
1.25
 49
0.625
 49
-0.125
 49
0.125
 49
-0.125
 49
0.125
 49
-0.125
  0
ENDTAB
  0
TABLE
  2
LAYER
 70
     2
  0
LAYER
  2
0
 70
     0
 62
   255
  6
CONTINUOUS
  0
LAYER
  2
DEFPOINTS
 70
     0
 62
     7
  6
CONTINUOUS
  0
ENDTAB
  0
TABLE
  2
STYLE
 70
     1
  0
STYLE
  2
STANDARD
 70
     0
 40
0.0
 41
0.8
 50
0.0
 71
     0
 42
0.2
  3
txt
  4

  0
ENDTAB
  0
TABLE
  2
VIEW
 70
     0
  0
ENDTAB
  0
TABLE
  2
UCS
 70
     0
  0
ENDTAB
  0
TABLE
  2
APPID
 70
     9
  0
APPID
  2
ACAD
 70
     0
  0
APPID
  2
ACAD_MLEADERVER
 70
     0
  0
APPID
  2
ACAD_EXEMPT_FROM_CAD_STANDARDS
 70
     0
  0
APPID
  2
ACAD_NAV_VCDISPLAY
 70
     0
  0
APPID
  2
ACAECLAYERSTANDARD
 70
     0
  0
APPID
  2
ACCMTRANSPARENCY
 70
     0
  0
APPID
  2
ACAD_DSTYLE_DIMJAG
 70
     0
  0
APPID
  2
ACAD_DSTYLE_DIMTALN
 70
     0
  0
APPID
  2
ACDBATTR
 70
     0
  0
ENDTAB
  0
TABLE
  2
DIMSTYLE
 70
     1
  0
DIMSTYLE
  2
STANDARD
 70
     0
  3

  4

  5

  6

  7

 40
1.0
 41
0.1875
 42
0.0625
 43
0.38
 44
0.125
 45
0.0
 46
0.0
 47
0.01
 48
0.01
140
0.15625
141
0.09
142
0.0
143
25.3999999999999986
144
1.0
145
0.0
146
1.0
147
0.09
 71
     1
 72
     0
 73
     1
 74
     1
 75
     0
 76
     0
 77
     0
 78
     4
170
     0
171
     2
172
     0
173
     0
174
     0
175
     0
176
     0
177
     0
178
     0
  0
ENDTAB
  0
ENDSEC
  0
SECTION
  2
BLOCKS
  0
BLOCK
  8
0
  2
$MODEL_SPACE
 70
     0
 10
0.0
 20
0.0
 30
0.0
  3
$MODEL_SPACE
  1

  0
ENDBLK
  5
21
  8
0
  0
BLOCK
 67
     1
  8
0
  2
$PAPER_SPACE
 70
     0
 10
0.0
 20
0.0
 30
0.0
  3
$PAPER_SPACE
  1

  0
ENDBLK
  5
1D
 67
     1
  8
0
  0
ENDSEC
  0
SECTION
  2
ENTITIES
  0
ATTDEF
  5
3930
  8
DEFPOINTS
 10
4764.4614280710748062
 20
237.1792169566641064
 30
0.0
 40
0.001
  1
K-26345T-9
  3

  2
MODELNUMBER
 70
     0
1001
ACDBATTR
1070
     0
1070
     1
  0
ATTDEF
  5
3931
  8
DEFPOINTS
 10
4764.4614280710748062
 20
237.1775502899974128
 30
0.0
 40
0.001
  1

  3

  2
TRADENAME
 70
     0
1001
ACDBATTR
1070
     0
1070
     1
  0
ATTDEF
  5
3932
  8
DEFPOINTS
 10
4764.4614280710748062
 20
237.1758836233308045
 30
0.0
 40
0.001
  1
VALVE TRIM
  3

  2
PRODUCT
 70
     0
1001
ACDBATTR
1070
     0
1070
     1
  0
LINE
  5
C9AB
  8
0
 10
4760.3816857679958048
 20
236.6316512800345038
 30
0.0
 11
4760.3721999087956647
 21
237.1750957871344951
 31
0.0
  0
LINE
  5
C9AC
  8
0
 10
4762.1731593933964177
 20
234.6738359446345044
 30
0.0
 11
4762.1731593933964177
 21
234.713206023434509
 31
0.0
  0
LINE
  5
C9AD
  8
0
 10
4762.1731593933964177
 20
234.721080039134506
 30
0.0
 11
4762.1731593933964177
 21
235.843560116334487
 31
0.0
  0
LINE
  5
C9AE
  8
0
 10
4763.344419235895657
 20
234.6423398816345127
 30
0.0
 11
4763.344419235895657
 21
234.6344658659344873
 31
0.0
  0
LINE
  5
C9AF
  8
0
 10
4765.7768959624963827
 20
236.6239146848346024
 30
0.0
 11
4765.7776106425963007
 21
236.5727328149345965
 31
0.0
  0
LINE
  5
C9B0
  8
0
 10
4766.4940253998493063
 20
236.5727328149345965
 30
0.0
 11
4766.4926371336969169
 21
236.5648595667344978
 31
0.0
  0
LINE
  5
C9B1
  8
0
 10
4765.7855945677956697
 20
236.5648595667344978
 30
0.0
 11
4765.7776106425963007
 21
236.5727328149345965
 31
0.0
  0
LINE
  5
C9B2
  8
0
 10
4762.212539123195711
 20
234.6344658659344873
 30
0.0
 11
4764.4959935417964516
 21
234.6344658659344873
 31
0.0
  0
LINE
  5
C9B3
  8
0
 10
4763.3641134290974151
 20
234.6423398816345127
 30
0.0
 11
4763.344419235895657
 21
234.6423398816345127
 31
0.0
  0
LINE
  5
C9B4
  8
0
 10
4764.5353732715966544
 20
234.713206023434509
 30
0.0
 11
4762.1731593933964177
 21
234.713206023434509
 31
0.0
  0
LINE
  5
C9B5
  8
0
 10
4765.7855945677956697
 20
236.5648595667344978
 30
0.0
 11
4767.2221415423955477
 21
236.5648595667344978
 31
0.0
  0
LINE
  5
C9B6
  8
0
 10
4760.3895585844957168
 20
236.6239146848346024
 30
0.0
 11
4768.5394373676990654
 21
236.6239146848346024
 31
0.0
  0
LINE
  5
C9B7
  8
0
 10
4768.556796043396389
 20
237.1750957871344951
 30
0.0
 11
4760.3721999087956647
 21
237.1750957871344951
 31
0.0
  0
ARC
  5
C9B8
  8
0
 10
4762.1737871699970128
 20
236.6739934249345083
 30
0.0
 40
0.1968503937
 50
325.4378080137915958
 51
345.2619647661848035
  0
ARC
  5
C9B9
  8
0
 10
4762.2165204533021097
 20
234.6778279028877137
 30
0.0
 40
0.0435444283248527
 50
185.2600060574715997
 51
264.7540374450204013
  0
ARC
  5
C9BA
  8
0
 10
4762.1810326696067932
 20
234.721079299544698
 30
0.0
 40
0.007873276144849
 50
179.994617821305809
 51
270.0053821787039965
  0
ARC
  5
C9BB
  8
0
 10
4760.3896684256451408
 20
236.6319004756994957
 30
0.0
 40
0.0079865462382791
 50
181.7880293270372078
 51
269.2119706667368746
  0
LINE
  5
C9BC
  8
0
 10
4768.5473101841971584
 20
236.6316512800345038
 30
0.0
 11
4768.556796043396389
 21
237.1750957871344951
 31
0.0
  0
ARC
  5
C9BD
  8
0
 10
4768.5393275265469128
 20
236.6319004756994957
 30
0.0
 40
0.0079865462382791
 50
270.7880293332631254
 51
358.2119706729611721
  0
ARC
  5
C9BE
  8
0
 10
4763.8888620006264318
 20
235.8329064112664923
 30
0.0
 40
1.715735684155498
 50
154.8409976287622953
 51
179.6442247690783063
  0
LINE
  5
C9BF
  8
0
 10
4764.5353732715966544
 20
234.6738359446345044
 30
0.0
 11
4764.5353732715966544
 21
234.713206023434509
 31
0.0
  0
LINE
  5
C9C0
  8
0
 10
4764.5353732715966544
 20
234.721080039134506
 30
0.0
 11
4764.5353732715966544
 21
235.843560116334487
 31
0.0
  0
LINE
  5
C9C1
  8
0
 10
4763.3641134290974151
 20
234.6423398816345127
 30
0.0
 11
4763.3641134290974151
 21
234.6344658659344873
 31
0.0
  0
ARC
  5
C9C2
  8
0
 10
4764.5347454949969688
 20
236.6739934249345083
 30
0.0
 40
0.1968503937
 50
194.7380352338151113
 51
214.5621919862084042
  0
ARC
  5
C9C3
  8
0
 10
4764.4920122116900529
 20
234.6778279028877137
 30
0.0
 40
0.0435444283248527
 50
275.245962554979485
 51
354.7399939425283719
  0
ARC
  5
C9C4
  8
0
 10
4764.5274999953862789
 20
234.721079299544698
 30
0.0
 40
0.007873276144849
 50
269.9946178212960035
 51
0.005382178694183
  0
ARC
  5
C9C5
  8
0
 10
4762.8196706643666403
 20
235.8329064112664923
 30
0.0
 40
1.715735684155498
 50
0.3557752309216646
 51
25.1590023712376301
  0
LINE
  5
C9C6
  8
0
 10
4767.2308401476957442
 20
236.6239146848346024
 30
0.0
 11
4767.2301254675958262
 21
236.5727328149345965
 31
0.0
  0
LINE
  5
C9C7
  8
0
 10
4766.5137107103437302
 20
236.5727328149345965
 30
0.0
 11
4766.5150989764970291
 21
236.5648595667344978
 31
0.0
  0
LINE
  5
C9C8
  8
0
 10
4767.2221415423955477
 20
236.5648595667344978
 30
0.0
 11
4767.2301254675958262
 21
236.5727328149345965
 31
0.0
  0
LINE
  5
C9C9
  8
0
 10
4765.7776106425963007
 20
236.5727328149345965
 30
0.0
 11
4767.2301254675958262
 21
236.5727328149345965
 31
0.0
  0
ENDSEC
  0
EOF
