  0
SECTION
  2
HEADER
  9
$ACADVER
  1
AC1009
  9
$INSBASE
 10
4755.8486014502859689
 20
238.6078463885710903
 30
0.0
  9
$EXTMIN
 10
4751.7563033829846972
 20
236.5903514708710986
 30
0.0
  9
$EXTMAX
 10
4759.9408995175863311
 20
240.6253413062711957
 30
0.0
  9
$LIMMIN
 10
0.0
 20
0.0
  9
$LIMMAX
 10
11.6929133858000007
 20
8.2677165353999982
  9
$ORTHOMODE
 70
     1
  9
$REGENMODE
 70
     1
  9
$FILLMODE
 70
     1
  9
$QTEXTMODE
 70
     0
  9
$MIRRTEXT
 70
     0
  9
$DRAGMODE
 70
     2
  9
$LTSCALE
 40
0.6431102362
  9
$OSMODE
 70
  4095
  9
$ATTMODE
 70
     1
  9
$TEXTSIZE
 40
0.2
  9
$TRACEWID
 40
0.05
  9
$TEXTSTYLE
  7
STANDARD
  9
$CLAYER
  8
0
  9
$CELTYPE
  6
BYLAYER
  9
$CECOLOR
 62
   256
  9
$DIMSCALE
 40
1.0
  9
$DIMASZ
 40
0.1875
  9
$DIMEXO
 40
0.0625
  9
$DIMDLI
 40
0.4443307087
  9
$DIMRND
 40
0.0
  9
$DIMDLE
 40
0.0
  9
$DIMEXE
 40
0.125
  9
$DIMTP
 40
0.01
  9
$DIMTM
 40
0.01
  9
$DIMTXT
 40
2.0
  9
$DIMCEN
 40
0.1052362205
  9
$DIMTSZ
 40
0.0
  9
$DIMTOL
 70
     1
  9
$DIMLIM
 70
     0
  9
$DIMTIH
 70
     1
  9
$DIMTOH
 70
     1
  9
$DIMSE1
 70
     0
  9
$DIMSE2
 70
     0
  9
$DIMTAD
 70
     0
  9
$DIMZIN
 70
     0
  9
$DIMBLK
  1

  9
$DIMASO
 70
     1
  9
$DIMSHO
 70
     1
  9
$DIMPOST
  1
\X
  9
$DIMAPOST
  1

  9
$DIMALT
 70
     1
  9
$DIMALTD
 70
     2
  9
$DIMALTF
 40
25.3999999999999986
  9
$DIMLFAC
 40
1.0
  9
$DIMTOFL
 70
     0
  9
$DIMTVP
 40
0.0
  9
$DIMTIX
 70
     0
  9
$DIMSOXD
 70
     0
  9
$DIMSAH
 70
     0
  9
$DIMBLK1
  1

  9
$DIMBLK2
  1

  9
$DIMSTYLE
  2
STANDARD
  9
$DIMCLRD
 70
     0
  9
$DIMCLRE
 70
     0
  9
$DIMCLRT
 70
     0
  9
$DIMTFAC
 40
1.0
  9
$DIMGAP
 40
0.09
  9
$LUNITS
 70
     2
  9
$LUPREC
 70
     4
  9
$SKETCHINC
 40
0.1
  9
$FILLETRAD
 40
0.0
  9
$AUNITS
 70
     0
  9
$AUPREC
 70
     0
  9
$MENU
  1
.
  9
$ELEVATION
 40
0.0
  9
$PELEVATION
 40
0.0
  9
$THICKNESS
 40
0.0
  9
$LIMCHECK
 70
     0
  9
$BLIPMODE
 70
     0
  9
$CHAMFERA
 40
0.0
  9
$CHAMFERB
 40
0.0
  9
$SKPOLY
 70
     0
  9
$TDCREATE
 40
2458060.468368056230247
  9
$TDUPDATE
 40
2459270.4570717602036893
  9
$TDINDWG
 40
0.3542547454
  9
$TDUSRTIMER
 40
0.3542547454
  9
$USRTIMER
 70
     1
  9
$ANGBASE
 50
0.0
  9
$ANGDIR
 70
     0
  9
$PDMODE
 70
     0
  9
$PDSIZE
 40
0.3125
  9
$PLINEWID
 40
0.0
  9
$COORDS
 70
     1
  9
$SPLFRAME
 70
     0
  9
$SPLINETYPE
 70
     6
  9
$SPLINESEGS
 70
     8
  9
$ATTDIA
 70
     1
  9
$ATTREQ
 70
     1
  9
$HANDLING
 70
     1
  9
$HANDSEED
  5
CA93
  9
$SURFTAB1
 70
     6
  9
$SURFTAB2
 70
     6
  9
$SURFTYPE
 70
     6
  9
$SURFU
 70
     6
  9
$SURFV
 70
     6
  9
$UCSNAME
  2

  9
$UCSORG
 10
0.0
 20
0.0
 30
0.0
  9
$UCSXDIR
 10
1.0
 20
0.0
 30
0.0
  9
$UCSYDIR
 10
0.0
 20
1.0
 30
0.0
  9
$PUCSNAME
  2

  9
$PUCSORG
 10
0.0
 20
0.0
 30
0.0
  9
$PUCSXDIR
 10
1.0
 20
0.0
 30
0.0
  9
$PUCSYDIR
 10
0.0
 20
1.0
 30
0.0
  9
$USERI1
 70
     0
  9
$USERI2
 70
     0
  9
$USERI3
 70
     0
  9
$USERI4
 70
     0
  9
$USERI5
 70
     0
  9
$USERR1
 40
0.0
  9
$USERR2
 40
0.0
  9
$USERR3
 40
0.0
  9
$USERR4
 40
0.0
  9
$USERR5
 40
0.0
  9
$WORLDVIEW
 70
     1
  9
$SHADEDGE
 70
     3
  9
$SHADEDIF
 70
    70
  9
$TILEMODE
 70
     1
  9
$MAXACTVP
 70
    64
  9
$PLIMCHECK
 70
     0
  9
$PEXTMIN
 10
1.0000000000000000E+20
 20
1.0000000000000000E+20
 30
1.0000000000000000E+20
  9
$PEXTMAX
 10
-1.0000000000000000E+20
 20
-1.0000000000000000E+20
 30
-1.0000000000000000E+20
  9
$PLIMMIN
 10
0.0
 20
0.0
  9
$PLIMMAX
 10
12.0
 20
9.0
  9
$UNITMODE
 70
     0
  9
$VISRETAIN
 70
     1
  9
$PLINEGEN
 70
     0
  9
$PSLTSCALE
 70
     1
  0
ENDSEC
  0
SECTION
  2
TABLES
  0
TABLE
  2
VPORT
 70
     1
  0
VPORT
  2
*ACTIVE
 70
     0
 10
0.0
 20
0.0
 11
1.0
 21
1.0
 12
0.0
 22
0.0
 13
0.0
 23
0.0
 14
1.0
 24
1.0
 15
0.0
 25
0.0
 16
0.0
 26
0.0
 36
26.0393877469123503
 17
4755.8486328125
 27
238.6078414916991903
 37
0.0
 40
9.1252798587494723
 41
2.1375838926174491
 42
50.0
 43
0.0
 44
0.0
 50
0.0
 51
0.0
 71
     0
 72
   100
 73
     1
 74
     1
 75
     0
 76
     0
 77
     0
 78
     0
  0
ENDTAB
  0
TABLE
  2
LTYPE
 70
     2
  0
LTYPE
  2
CONTINUOUS
 70
     0
  3
Solid line
 72
    65
 73
     0
 40
0.0
  0
LTYPE
  2
PHANTOM2
 70
     0
  3
___ _ _ ___ _ _ ___ _ _ ___ _ _
 72
    65
 73
     6
 40
1.25
 49
0.625
 49
-0.125
 49
0.125
 49
-0.125
 49
0.125
 49
-0.125
  0
ENDTAB
  0
TABLE
  2
LAYER
 70
     2
  0
LAYER
  2
0
 70
     0
 62
   255
  6
CONTINUOUS
  0
LAYER
  2
DEFPOINTS
 70
     0
 62
     7
  6
CONTINUOUS
  0
ENDTAB
  0
TABLE
  2
STYLE
 70
     1
  0
STYLE
  2
STANDARD
 70
     0
 40
0.0
 41
0.8
 50
0.0
 71
     0
 42
0.2
  3
txt
  4

  0
ENDTAB
  0
TABLE
  2
VIEW
 70
     0
  0
ENDTAB
  0
TABLE
  2
UCS
 70
     0
  0
ENDTAB
  0
TABLE
  2
APPID
 70
     9
  0
APPID
  2
ACAD
 70
     0
  0
APPID
  2
ACAD_MLEADERVER
 70
     0
  0
APPID
  2
ACAD_EXEMPT_FROM_CAD_STANDARDS
 70
     0
  0
APPID
  2
ACAD_NAV_VCDISPLAY
 70
     0
  0
APPID
  2
ACAECLAYERSTANDARD
 70
     0
  0
APPID
  2
ACCMTRANSPARENCY
 70
     0
  0
APPID
  2
ACAD_DSTYLE_DIMJAG
 70
     0
  0
APPID
  2
ACAD_DSTYLE_DIMTALN
 70
     0
  0
APPID
  2
ACDBATTR
 70
     0
  0
ENDTAB
  0
TABLE
  2
DIMSTYLE
 70
     1
  0
DIMSTYLE
  2
STANDARD
 70
     0
  3

  4

  5

  6

  7

 40
1.0
 41
0.1875
 42
0.0625
 43
0.38
 44
0.125
 45
0.0
 46
0.0
 47
0.01
 48
0.01
140
0.15625
141
0.09
142
0.0
143
25.3999999999999986
144
1.0
145
0.0
146
1.0
147
0.09
 71
     1
 72
     0
 73
     1
 74
     1
 75
     0
 76
     0
 77
     0
 78
     4
170
     0
171
     2
172
     0
173
     0
174
     0
175
     0
176
     0
177
     0
178
     0
  0
ENDTAB
  0
ENDSEC
  0
SECTION
  2
BLOCKS
  0
BLOCK
  8
0
  2
$MODEL_SPACE
 70
     0
 10
0.0
 20
0.0
 30
0.0
  3
$MODEL_SPACE
  1

  0
ENDBLK
  5
21
  8
0
  0
BLOCK
 67
     1
  8
0
  2
$PAPER_SPACE
 70
     0
 10
0.0
 20
0.0
 30
0.0
  3
$PAPER_SPACE
  1

  0
ENDBLK
  5
1D
 67
     1
  8
0
  0
ENDSEC
  0
SECTION
  2
ENTITIES
  0
ATTDEF
  5
3930
  8
DEFPOINTS
 10
4755.8429040134133174
 20
238.6055958451482013
 30
0.0
 40
0.001
  1
K-26345W-9
  3

  2
MODELNUMBER
 70
     0
1001
ACDBATTR
1070
     0
1070
     1
  0
ATTDEF
  5
3931
  8
DEFPOINTS
 10
4755.8429040134133174
 20
238.6039291784815077
 30
0.0
 40
0.001
  1

  3

  2
TRADENAME
 70
     0
1001
ACDBATTR
1070
     0
1070
     1
  0
ATTDEF
  5
3932
  8
DEFPOINTS
 10
4755.8429040134133174
 20
238.6022625118148994
 30
0.0
 40
0.001
  1
VALVE TRIM
  3

  2
PRODUCT
 70
     0
1001
ACDBATTR
1070
     0
1070
     1
  0
LINE
  5
C8DD
  8
0
 10
4756.4813602700851334
 20
240.5223316632711033
 30
0.0
 11
4756.4813602700851334
 21
240.5168479570710929
 31
0.0
  0
LINE
  5
C8DE
  8
0
 10
4756.4813602700851334
 20
236.6988447450711135
 30
0.0
 11
4756.4813602700851334
 21
236.6933611138711058
 31
0.0
  0
LINE
  5
C8DF
  8
0
 10
4756.7000945989857428
 20
236.6933611138711058
 30
0.0
 11
4756.7000945989857428
 21
236.6988447450711135
 31
0.0
  0
LINE
  5
C8E0
  8
0
 10
4756.7000945989857428
 20
240.5168479570710929
 30
0.0
 11
4756.7000945989857428
 21
240.5223316632711033
 31
0.0
  0
LINE
  5
C8E1
  8
0
 10
4756.7000945989857428
 20
236.6933611138711058
 30
0.0
 11
4756.4813602700851334
 21
236.6933611138711058
 31
0.0
  0
LINE
  5
C8E2
  8
0
 10
4756.4813602700851334
 20
240.5223316632711033
 30
0.0
 11
4756.7000945989857428
 21
240.5223316632711033
 31
0.0
  0
LINE
  5
C8E3
  8
0
 10
4751.7563033829856067
 20
240.5172952074711077
 30
0.0
 11
4751.7563033829856067
 21
236.6983975696711013
 31
0.0
  0
LINE
  5
C8E4
  8
0
 10
4751.8445607694866339
 20
240.5172952074711077
 30
0.0
 11
4751.8445607694866339
 21
236.6983975696711013
 31
0.0
  0
LINE
  5
C8E5
  8
0
 10
4751.8647965826730797
 20
240.5054841906172953
 30
0.0
 11
4751.864796731799288
 21
236.7102086732251109
 31
0.0
  0
LINE
  5
C8E6
  8
0
 10
4754.5808849148861555
 20
237.3649581191710922
 30
0.0
 11
4754.5808849148861555
 21
237.4372897942907059
 31
0.0
  0
LINE
  5
C8E7
  8
0
 10
4754.7285227100855991
 20
239.7731591544711023
 30
0.0
 11
4754.7285227100855991
 21
238.6459663033710967
 31
0.0
  0
LINE
  5
C8E8
  8
0
 10
4756.6045069620859067
 20
240.5089742411711029
 30
0.0
 11
4756.6045069620859067
 21
236.7067186109713077
 31
0.0
  0
LINE
  5
C8E9
  8
0
 10
4756.6128625859873864
 20
236.706271660371101
 30
0.0
 11
4756.6128625859873864
 21
240.5094211916712084
 31
0.0
  0
LINE
  5
C8EA
  8
0
 10
4757.8767406078859494
 20
239.3260320068710882
 30
0.0
 11
4757.8767406078859494
 21
238.6455805840454047
 31
0.0
  0
LINE
  5
C8EB
  8
0
 10
4757.8781289594862756
 20
239.3340372400710976
 30
0.0
 11
4757.8781290093866119
 21
238.6459663033710967
 31
0.0
  0
LINE
  5
C8EC
  8
0
 10
4759.8328534187912737
 20
236.5903514708710986
 30
0.0
 11
4756.2147431825860622
 21
236.5903514708710986
 31
0.0
  0
LINE
  5
C8ED
  8
0
 10
4755.7423022376860899
 20
236.5903514708710986
 30
0.0
 11
4751.864349481786121
 21
236.5903514708710986
 31
0.0
  0
LINE
  5
C8EE
  8
0
 10
4755.7423022376860899
 20
236.5931003000710859
 30
0.0
 11
4756.2147431825860622
 21
236.5931003000710859
 31
0.0
  0
LINE
  5
C8EF
  8
0
 10
4751.864349481786121
 20
236.6786088573711027
 30
0.0
 11
4759.8328534187849073
 21
236.6786088573711027
 31
0.0
  0
LINE
  5
C8F0
  8
0
 10
4754.879702871162408
 20
237.3455927586711027
 30
0.0
 11
4754.5970367419859031
 21
237.3455927586711027
 31
0.0
  0
LINE
  5
C8F1
  8
0
 10
4755.7423022376860899
 20
236.5931003000710859
 30
0.0
 11
4755.7423022376860899
 21
236.5903514708710986
 31
0.0
  0
LINE
  5
C8F2
  8
0
 10
4756.2147431825860622
 20
236.5903514708710986
 30
0.0
 11
4756.2147431825860622
 21
236.5931003000710859
 31
0.0
  0
ARC
  5
C8F3
  8
0
 10
4754.7726880990685459
 20
238.499568819234014
 30
0.0
 40
1.1672678131082701
 50
261.3452112089462958
 51
268.3152309382373915
  0
ARC
  5
C8F4
  8
0
 10
4757.8879714989861895
 20
238.6078463580711002
 30
0.0
 40
0.718273457
 50
90.8959107071028427
 51
270.0000024169756898
  0
ARC
  5
C8F5
  8
0
 10
4751.8668128729859745
 20
236.700860960870898
 30
0.0
 40
0.1105369425859355
 50
181.2769812637710061
 51
268.7230187332193054
  0
ARC
  5
C8F6
  8
0
 10
4751.86492301353519
 20
236.6989711014201987
 30
0.0
 40
0.0203703196190134
 50
181.6133910702091043
 51
268.3866089304058846
  0
ARC
  5
C8F7
  8
0
 10
4754.6015523413016126
 20
237.3657774866669001
 30
0.0
 40
0.0206836621975449
 50
182.2703226497183095
 51
257.3897864563717235
  0
ARC
  5
C8F8
  8
0
 10
4751.8768588459442981
 20
236.7109068497182136
 30
0.0
 40
0.0120823030938492
 50
183.312684824511507
 51
266.6865358579299823
  0
ARC
  5
C8F9
  8
0
 10
4754.7383652297858134
 20
238.6078463885710903
 30
0.0
 40
1.1811023622000001
 50
89.9997779726302127
 51
270.0002220273697731
  0
ARC
  5
C8FA
  8
0
 10
4754.7383652297858134
 20
238.6078463885710903
 30
0.0
 40
1.1653543306999989
 50
89.9997749722807754
 51
90.4839228102182034
  0
ARC
  5
C8FB
  8
0
 10
4754.7383652297858134
 20
238.6078463885710903
 30
0.0
 40
0.0393700787
 50
104.4775121858777993
 51
270.0066608211604944
  0
ARC
  5
C8FC
  8
0
 10
4751.8700005694863648
 20
240.5116441197706934
 30
0.0
 40
0.1138375377908765
 50
92.845428774171296
 51
177.1545712229228116
  0
ARC
  5
C8FD
  8
0
 10
4751.8649968825693577
 20
240.5166478066882974
 30
0.0
 40
0.0204463650976407
 50
91.8144806298344207
 51
178.1855193707501996
  0
ARC
  5
C8FE
  8
0
 10
4751.8768407064280836
 20
240.5048038239617085
 30
0.0
 40
0.0120633252387128
 50
93.232386521523793
 51
176.7668256280977914
  0
ARC
  5
C8FF
  8
0
 10
4757.8879715289858723
 20
238.6078463885710903
 30
0.0
 40
0.7440944882
 50
89.9999999769151771
 51
270.0000000230847945
  0
ARC
  5
C900
  8
0
 10
4757.8879715289858723
 20
238.6078463885710903
 30
0.0
 40
0.7262574118999999
 50
89.9999999763419538
 51
270.0000000236581172
  0
ARC
  5
C901
  8
0
 10
4757.8879715289858723
 20
238.6078463885710903
 30
0.0
 40
0.0393700787
 50
104.4775121858777993
 51
270.0000004365793984
  0
LINE
  5
C902
  8
0
 10
4757.8781289594862756
 20
239.3340372400710976
 30
0.0
 11
4757.8767406078859494
 21
239.3260320068710882
 31
0.0
  0
LINE
  5
C903
  8
0
 10
4759.9408995175863311
 20
240.5172952074711077
 30
0.0
 11
4759.9408995175863311
 21
236.6983975696711013
 31
0.0
  0
LINE
  5
C904
  8
0
 10
4759.8526421310862133
 20
240.5172952074711077
 30
0.0
 11
4759.8526421310862133
 21
236.6983975696711013
 31
0.0
  0
ARC
  5
C905
  8
0
 10
4759.8303900275859633
 20
236.700860960870898
 30
0.0
 40
0.1105369425859355
 50
271.2769812667806946
 51
358.7230187362274023
  0
ARC
  5
C906
  8
0
 10
4759.8322798870376573
 20
236.6989711014201987
 30
0.0
 40
0.0203703196190134
 50
271.6133910695941154
 51
358.3866089297908957
  0
ARC
  5
C907
  8
0
 10
4759.827202331085573
 20
240.5116441197706934
 30
0.0
 40
0.1138375377908765
 50
2.8454287770771862
 51
87.1545712258287466
  0
ARC
  5
C908
  8
0
 10
4759.8322060180025801
 20
240.5166478066882974
 30
0.0
 40
0.0204463650976407
 50
1.814480629249793
 51
88.1855193701655651
  0
LINE
  5
C909
  8
0
 10
4751.8643494817870305
 20
240.6253413062711104
 30
0.0
 11
4759.8328534187839978
 21
240.6253413062711104
 31
0.0
  0
LINE
  5
C90A
  8
0
 10
4751.864349481786121
 20
240.5370839197711064
 30
0.0
 11
4759.8328534187867263
 21
240.5370839197711064
 31
0.0
  0
LINE
  5
C90B
  8
0
 10
4754.8958546984849818
 20
237.3649581191710922
 30
0.0
 11
4754.8958546984849818
 21
237.4372897942907059
 31
0.0
  0
LINE
  5
C90C
  8
0
 10
4754.7482169032864476
 20
239.7731591544711023
 30
0.0
 11
4754.7482169032864476
 21
238.6459663033710967
 31
0.0
  0
ARC
  5
C90D
  8
0
 10
4754.7040515143016819
 20
238.499568819234014
 30
0.0
 40
1.1672678131082701
 50
271.6847690617626085
 51
278.6547887910537042
  0
ARC
  5
C90E
  8
0
 10
4754.8751872720686151
 20
237.3657774866669001
 30
0.0
 40
0.0206836621975449
 50
282.6102135436282197
 51
357.7296773502799851
  0
ARC
  5
C90F
  8
0
 10
4754.7383743835862333
 20
238.6078463885710903
 30
0.0
 40
1.1811023622000001
 50
269.9997779726302269
 51
90.0002220273697731
  0
ARC
  5
C910
  8
0
 10
4754.7383743835862333
 20
238.6078463885710903
 30
0.0
 40
1.1653543306999989
 50
89.5160771897817966
 51
90.0002250277192246
  0
ARC
  5
C911
  8
0
 10
4754.7383743835862333
 20
238.6078463885710903
 30
0.0
 40
0.0393700787
 50
269.9933391788395056
 51
75.5224878141222291
  0
ARC
  5
C912
  8
0
 10
4756.5962078178981756
 20
236.7071440553455943
 30
0.0
 40
0.0083100419464756
 50
272.932440734033321
 51
357.0653784381962055
  0
ARC
  5
C913
  8
0
 10
4756.5961966834556733
 20
240.5085376618237945
 30
0.0
 40
0.0083217385468642
 50
3.0072613544995379
 51
86.994920200901305
  0
ARC
  5
C914
  8
0
 10
4756.6212856524398376
 20
236.7068206902144141
 30
0.0
 40
0.0084409408394379
 50
183.7293610503867001
 51
250.8935139519743132
  0
ARC
  5
C915
  8
0
 10
4756.6213580022658789
 20
240.5087998148648865
 30
0.0
 40
0.0085181105238487
 50
109.1213066882161939
 51
175.8166873136806885
  0
LINE
  5
C916
  8
0
 10
4759.155240814086028
 20
236.7062716603713
 30
0.0
 11
4759.155240814086028
 21
240.5094211916710094
 31
0.0
  0
ARC
  5
C917
  8
0
 10
4759.1468177476326673
 20
236.7068206902144141
 30
0.0
 40
0.0084409408394379
 50
289.1064860480257153
 51
356.2706389496133284
  0
ARC
  5
C918
  8
0
 10
4759.1467453978057165
 20
240.5087998148648865
 30
0.0
 40
0.0085181105238487
 50
4.1833126863192813
 51
70.8786933117837634
  0
LINE
  5
C919
  8
0
 10
4759.1719177040858995
 20
236.706271660371101
 30
0.0
 11
4759.1719177040858995
 21
240.5094211916712084
 31
0.0
  0
ARC
  5
C91A
  8
0
 10
4759.1803407705401696
 20
236.7068206902144141
 30
0.0
 40
0.0084409408394379
 50
183.7293610503867001
 51
250.8935139519743132
  0
ARC
  5
C91B
  8
0
 10
4759.1804131203662109
 20
240.5087998148648865
 30
0.0
 40
0.0085181105238487
 50
109.1213066882161939
 51
175.8166873136806885
  0
LINE
  5
C91C
  8
0
 10
4759.155240814086028
 20
236.706271660371101
 30
0.0
 11
4759.155240814086028
 21
240.5094211916712084
 31
0.0
  0
ARC
  5
C91D
  8
0
 10
4759.1468177476326673
 20
236.7068206902144141
 30
0.0
 40
0.0084409408394379
 50
289.1064860480257153
 51
356.2706389496133284
  0
ARC
  5
C91E
  8
0
 10
4759.1467453978057165
 20
240.5087998148648865
 30
0.0
 40
0.0085181105238487
 50
4.1833126863192813
 51
70.8786933117837634
  0
LINE
  5
C91F
  8
0
 10
4759.1719177040858995
 20
236.706271660371101
 30
0.0
 11
4759.1719177040858995
 21
240.5094211916712084
 31
0.0
  0
ARC
  5
C920
  8
0
 10
4759.1803407705401696
 20
236.7068206902144141
 30
0.0
 40
0.0084409408394379
 50
183.7293610503867001
 51
250.8935139519743132
  0
ARC
  5
C921
  8
0
 10
4759.1804131203662109
 20
240.5087998148648865
 30
0.0
 40
0.0085181105238487
 50
109.1213066882161939
 51
175.8166873136806885
  0
LINE
  5
C922
  8
0
 10
4759.8367904266851838
 20
236.706271660371101
 30
0.0
 11
4759.8367904266851838
 21
240.5094211916710947
 31
0.0
  0
ARC
  5
C923
  8
0
 10
4759.8283673602327326
 20
236.7068206902144141
 30
0.0
 40
0.0084409408394379
 50
289.1064860480257153
 51
356.2706389496133284
  0
ARC
  5
C924
  8
0
 10
4759.8282950104057818
 20
240.5087998148648865
 30
0.0
 40
0.0085181105238487
 50
4.1833126863192813
 51
70.8786933117837634
  0
LINE
  5
C925
  8
0
 10
4757.8992024506860616
 20
239.3260320068710882
 30
0.0
 11
4757.8992024506860616
 21
238.6455805840454047
 31
0.0
  0
LINE
  5
C926
  8
0
 10
4757.897814099086645
 20
239.3340372400710976
 30
0.0
 11
4757.8978140491863087
 21
238.6459663033710967
 31
0.0
  0
ARC
  5
C927
  8
0
 10
4757.8879715595858215
 20
238.6078463580711002
 30
0.0
 40
0.718273457
 50
269.9999975830243102
 51
89.1040892928971431
  0
ARC
  5
C928
  8
0
 10
4757.8879715295861388
 20
238.6078463885710903
 30
0.0
 40
0.7440944882
 50
269.9999999769150918
 51
90.0000000230847945
  0
ARC
  5
C929
  8
0
 10
4757.8879715295861388
 20
238.6078463885710903
 30
0.0
 40
0.7262574118999999
 50
269.9999999763419964
 51
90.000000023658032
  0
ARC
  5
C92A
  8
0
 10
4757.8879715295861388
 20
238.6078463885710903
 30
0.0
 40
0.0393700787
 50
269.9999995634207153
 51
75.5224878141222291
  0
LINE
  5
C92B
  8
0
 10
4757.897814099086645
 20
239.3340372400710976
 30
0.0
 11
4757.8992024506860616
 21
239.3260320068710882
 31
0.0
  0
LINE
  5
C92D
  8
0
 10
4751.8761605053859967
 20
236.6988447450711135
 30
0.0
 11
4759.8311302900774535
 21
236.6988447450711135
 31
0.0
  0
LINE
  5
C92E
  8
0
 10
4751.8761605053859967
 20
240.5168479570710929
 30
0.0
 11
4759.8310852817057821
 21
240.5168479570710929
 31
0.0
  0
LINE
  5
C92F
  8
0
 10
4759.0404153881863749
 20
240.5223316632711033
 30
0.0
 11
4759.0404153881863749
 21
240.5168479570710929
 31
0.0
  0
LINE
  5
C930
  8
0
 10
4759.0404153881863749
 20
236.6988447450711135
 30
0.0
 11
4759.0404153881863749
 21
236.6933611138711058
 31
0.0
  0
LINE
  5
C931
  8
0
 10
4759.2591497170860748
 20
236.6933611138711058
 30
0.0
 11
4759.2591497170860748
 21
236.6988447450711135
 31
0.0
  0
LINE
  5
C932
  8
0
 10
4759.2591497170860748
 20
240.5168479570710929
 30
0.0
 11
4759.2591497170860748
 21
240.5223316632711033
 31
0.0
  0
LINE
  5
C933
  8
0
 10
4759.2591497170860748
 20
236.6933611138711058
 30
0.0
 11
4759.0404153881863749
 21
236.6933611138711058
 31
0.0
  0
LINE
  5
C934
  8
0
 10
4759.0404153881863749
 20
240.5223316632711033
 30
0.0
 11
4759.2591497170860748
 21
240.5223316632711033
 31
0.0
  0
LINE
  5
C935
  8
0
 10
4759.0404153881863749
 20
240.5223316632711033
 30
0.0
 11
4759.0404153881863749
 21
240.5168479570710929
 31
0.0
  0
LINE
  5
C936
  8
0
 10
4759.0404153881863749
 20
236.6988447450711135
 30
0.0
 11
4759.0404153881863749
 21
236.6933611138711058
 31
0.0
  0
LINE
  5
C937
  8
0
 10
4759.2591497170860748
 20
236.6933611138711058
 30
0.0
 11
4759.2591497170860748
 21
236.6988447450711135
 31
0.0
  0
LINE
  5
C938
  8
0
 10
4759.2591497170860748
 20
240.5168479570710929
 30
0.0
 11
4759.2591497170860748
 21
240.5223316632711033
 31
0.0
  0
LINE
  5
C939
  8
0
 10
4759.2591497170860748
 20
236.6933611138711058
 30
0.0
 11
4759.0404153881863749
 21
236.6933611138711058
 31
0.0
  0
LINE
  5
C93A
  8
0
 10
4759.0404153881863749
 20
240.5223316632711033
 30
0.0
 11
4759.2591497170860748
 21
240.5223316632711033
 31
0.0
  0
ENDSEC
  0
EOF
