  0
SECTION
  2
HEADER
  9
$ACADVER
  1
AC1009
  9
$INSBASE
 10
4809.2996523251540566
 20
236.8598046890242017
 30
0.0
  9
$EXTMIN
 10
4802.6482991397542719
 20
234.3191747678241939
 30
0.0
  9
$EXTMAX
 10
4815.9510055105538413
 20
236.8647281280686911
 30
0.0
  9
$LIMMIN
 10
0.0
 20
0.0
  9
$LIMMAX
 10
11.6929133858000007
 20
8.2677165353999982
  9
$ORTHOMODE
 70
     1
  9
$REGENMODE
 70
     1
  9
$FILLMODE
 70
     1
  9
$QTEXTMODE
 70
     0
  9
$MIRRTEXT
 70
     0
  9
$DRAGMODE
 70
     2
  9
$LTSCALE
 40
0.6431102362
  9
$OSMODE
 70
  4095
  9
$ATTMODE
 70
     1
  9
$TEXTSIZE
 40
0.2
  9
$TRACEWID
 40
0.05
  9
$TEXTSTYLE
  7
STANDARD
  9
$CLAYER
  8
0
  9
$CELTYPE
  6
BYLAYER
  9
$CECOLOR
 62
   256
  9
$DIMSCALE
 40
1.0
  9
$DIMASZ
 40
0.1875
  9
$DIMEXO
 40
0.0625
  9
$DIMDLI
 40
0.4443307087
  9
$DIMRND
 40
0.0
  9
$DIMDLE
 40
0.0
  9
$DIMEXE
 40
0.125
  9
$DIMTP
 40
0.01
  9
$DIMTM
 40
0.01
  9
$DIMTXT
 40
2.0
  9
$DIMCEN
 40
0.1052362205
  9
$DIMTSZ
 40
0.0
  9
$DIMTOL
 70
     1
  9
$DIMLIM
 70
     0
  9
$DIMTIH
 70
     1
  9
$DIMTOH
 70
     1
  9
$DIMSE1
 70
     0
  9
$DIMSE2
 70
     0
  9
$DIMTAD
 70
     0
  9
$DIMZIN
 70
     0
  9
$DIMBLK
  1

  9
$DIMASO
 70
     1
  9
$DIMSHO
 70
     1
  9
$DIMPOST
  1
\X
  9
$DIMAPOST
  1

  9
$DIMALT
 70
     1
  9
$DIMALTD
 70
     2
  9
$DIMALTF
 40
25.3999999999999986
  9
$DIMLFAC
 40
1.0
  9
$DIMTOFL
 70
     0
  9
$DIMTVP
 40
0.0
  9
$DIMTIX
 70
     0
  9
$DIMSOXD
 70
     0
  9
$DIMSAH
 70
     0
  9
$DIMBLK1
  1

  9
$DIMBLK2
  1

  9
$DIMSTYLE
  2
STANDARD
  9
$DIMCLRD
 70
     0
  9
$DIMCLRE
 70
     0
  9
$DIMCLRT
 70
     0
  9
$DIMTFAC
 40
1.0
  9
$DIMGAP
 40
0.09
  9
$LUNITS
 70
     2
  9
$LUPREC
 70
     4
  9
$SKETCHINC
 40
0.1
  9
$FILLETRAD
 40
0.0
  9
$AUNITS
 70
     0
  9
$AUPREC
 70
     0
  9
$MENU
  1
.
  9
$ELEVATION
 40
0.0
  9
$PELEVATION
 40
0.0
  9
$THICKNESS
 40
0.0
  9
$LIMCHECK
 70
     0
  9
$BLIPMODE
 70
     0
  9
$CHAMFERA
 40
0.0
  9
$CHAMFERB
 40
0.0
  9
$SKPOLY
 70
     0
  9
$TDCREATE
 40
2458060.468368056230247
  9
$TDUPDATE
 40
2459271.7308564819395542
  9
$TDINDWG
 40
0.3579005787
  9
$TDUSRTIMER
 40
0.3579005787
  9
$USRTIMER
 70
     1
  9
$ANGBASE
 50
0.0
  9
$ANGDIR
 70
     0
  9
$PDMODE
 70
     0
  9
$PDSIZE
 40
0.3125
  9
$PLINEWID
 40
0.0
  9
$COORDS
 70
     1
  9
$SPLFRAME
 70
     0
  9
$SPLINETYPE
 70
     6
  9
$SPLINESEGS
 70
     8
  9
$ATTDIA
 70
     1
  9
$ATTREQ
 70
     1
  9
$HANDLING
 70
     1
  9
$HANDSEED
  5
CE0D
  9
$SURFTAB1
 70
     6
  9
$SURFTAB2
 70
     6
  9
$SURFTYPE
 70
     6
  9
$SURFU
 70
     6
  9
$SURFV
 70
     6
  9
$UCSNAME
  2

  9
$UCSORG
 10
0.0
 20
0.0
 30
0.0
  9
$UCSXDIR
 10
1.0
 20
0.0
 30
0.0
  9
$UCSYDIR
 10
0.0
 20
1.0
 30
0.0
  9
$PUCSNAME
  2

  9
$PUCSORG
 10
0.0
 20
0.0
 30
0.0
  9
$PUCSXDIR
 10
1.0
 20
0.0
 30
0.0
  9
$PUCSYDIR
 10
0.0
 20
1.0
 30
0.0
  9
$USERI1
 70
     0
  9
$USERI2
 70
     0
  9
$USERI3
 70
     0
  9
$USERI4
 70
     0
  9
$USERI5
 70
     0
  9
$USERR1
 40
0.0
  9
$USERR2
 40
0.0
  9
$USERR3
 40
0.0
  9
$USERR4
 40
0.0
  9
$USERR5
 40
0.0
  9
$WORLDVIEW
 70
     1
  9
$SHADEDGE
 70
     3
  9
$SHADEDIF
 70
    70
  9
$TILEMODE
 70
     1
  9
$MAXACTVP
 70
    64
  9
$PLIMCHECK
 70
     0
  9
$PEXTMIN
 10
1.0000000000000000E+20
 20
1.0000000000000000E+20
 30
1.0000000000000000E+20
  9
$PEXTMAX
 10
-1.0000000000000000E+20
 20
-1.0000000000000000E+20
 30
-1.0000000000000000E+20
  9
$PLIMMIN
 10
0.0
 20
0.0
  9
$PLIMMAX
 10
12.0
 20
9.0
  9
$UNITMODE
 70
     0
  9
$VISRETAIN
 70
     1
  9
$PLINEGEN
 70
     0
  9
$PSLTSCALE
 70
     1
  0
ENDSEC
  0
SECTION
  2
TABLES
  0
TABLE
  2
VPORT
 70
     1
  0
VPORT
  2
*ACTIVE
 70
     0
 10
0.0
 20
0.0
 11
1.0
 21
1.0
 12
0.0
 22
0.0
 13
0.0
 23
0.0
 14
1.0
 24
1.0
 15
0.0
 25
0.0
 16
0.0
 26
0.0
 36
38.6492419399706577
 17
4809.2998046875
 27
235.5919481094445018
 37
0.0
 40
13.5497848078598704
 41
2.1375838926174491
 42
50.0
 43
0.0
 44
0.0
 50
0.0
 51
0.0
 71
     0
 72
   100
 73
     1
 74
     1
 75
     0
 76
     0
 77
     0
 78
     0
  0
ENDTAB
  0
TABLE
  2
LTYPE
 70
     2
  0
LTYPE
  2
CONTINUOUS
 70
     0
  3
Solid line
 72
    65
 73
     0
 40
0.0
  0
LTYPE
  2
PHANTOM2
 70
     0
  3
___ _ _ ___ _ _ ___ _ _ ___ _ _
 72
    65
 73
     6
 40
1.25
 49
0.625
 49
-0.125
 49
0.125
 49
-0.125
 49
0.125
 49
-0.125
  0
ENDTAB
  0
TABLE
  2
LAYER
 70
     2
  0
LAYER
  2
0
 70
     0
 62
   255
  6
CONTINUOUS
  0
LAYER
  2
DEFPOINTS
 70
     0
 62
     7
  6
CONTINUOUS
  0
ENDTAB
  0
TABLE
  2
STYLE
 70
     1
  0
STYLE
  2
STANDARD
 70
     0
 40
0.0
 41
0.8
 50
0.0
 71
     0
 42
0.2
  3
txt
  4

  0
ENDTAB
  0
TABLE
  2
VIEW
 70
     0
  0
ENDTAB
  0
TABLE
  2
UCS
 70
     0
  0
ENDTAB
  0
TABLE
  2
APPID
 70
     9
  0
APPID
  2
ACAD
 70
     0
  0
APPID
  2
ACAD_MLEADERVER
 70
     0
  0
APPID
  2
ACAD_EXEMPT_FROM_CAD_STANDARDS
 70
     0
  0
APPID
  2
ACAD_NAV_VCDISPLAY
 70
     0
  0
APPID
  2
ACAECLAYERSTANDARD
 70
     0
  0
APPID
  2
ACCMTRANSPARENCY
 70
     0
  0
APPID
  2
ACAD_DSTYLE_DIMJAG
 70
     0
  0
APPID
  2
ACAD_DSTYLE_DIMTALN
 70
     0
  0
APPID
  2
ACDBATTR
 70
     0
  0
ENDTAB
  0
TABLE
  2
DIMSTYLE
 70
     1
  0
DIMSTYLE
  2
STANDARD
 70
     0
  3

  4

  5

  6

  7

 40
1.0
 41
0.1875
 42
0.0625
 43
0.38
 44
0.125
 45
0.0
 46
0.0
 47
0.01
 48
0.01
140
0.15625
141
0.09
142
0.0
143
25.3999999999999986
144
1.0
145
0.0
146
1.0
147
0.09
 71
     1
 72
     0
 73
     1
 74
     1
 75
     0
 76
     0
 77
     0
 78
     4
170
     0
171
     2
172
     0
173
     0
174
     0
175
     0
176
     0
177
     0
178
     0
  0
ENDTAB
  0
ENDSEC
  0
SECTION
  2
BLOCKS
  0
BLOCK
  8
0
  2
$MODEL_SPACE
 70
     0
 10
0.0
 20
0.0
 30
0.0
  3
$MODEL_SPACE
  1

  0
ENDBLK
  5
21
  8
0
  0
BLOCK
 67
     1
  8
0
  2
$PAPER_SPACE
 70
     0
 10
0.0
 20
0.0
 30
0.0
  3
$PAPER_SPACE
  1

  0
ENDBLK
  5
1D
 67
     1
  8
0
  0
ENDSEC
  0
SECTION
  2
ENTITIES
  0
ATTDEF
  5
3930
  8
DEFPOINTS
 10
4809.2969914995219369
 20
236.8637281280686011
 30
0.0
 40
0.001
  1
K-26347T-9
  3

  2
MODELNUMBER
 70
     0
1001
ACDBATTR
1070
     0
1070
     1
  0
ATTDEF
  5
3931
  8
DEFPOINTS
 10
4809.2969914995219369
 20
236.8620614614019928
 30
0.0
 40
0.001
  1

  3

  2
TRADENAME
 70
     0
1001
ACDBATTR
1070
     0
1070
     1
  0
ATTDEF
  5
3932
  8
DEFPOINTS
 10
4809.2969914995219369
 20
236.8603947947352992
 30
0.0
 40
0.001
  1
VALVE TRIM
  3

  2
PRODUCT
 70
     0
1001
ACDBATTR
1070
     0
1070
     1
  0
LINE
  5
CCCB
  8
0
 10
4802.657784998954412
 20
236.3163601819242103
 30
0.0
 11
4802.6482991397542719
 21
236.8598046890242017
 31
0.0
  0
LINE
  5
CCCC
  8
0
 10
4804.4492586243541155
 20
234.3585448465242109
 30
0.0
 11
4804.4492586243541155
 21
234.3979149253241872
 31
0.0
  0
LINE
  5
CCCD
  8
0
 10
4804.4492586243541155
 20
234.4057889410242126
 30
0.0
 11
4804.4492586243541155
 21
235.5282690182241936
 31
0.0
  0
LINE
  5
CCCE
  8
0
 10
4805.6205184668542643
 20
234.3270487835241909
 30
0.0
 11
4805.6205184668542643
 21
234.3191747678241939
 31
0.0
  0
LINE
  5
CCCF
  8
0
 10
4808.0529951934540804
 20
236.3086235867241953
 30
0.0
 11
4808.0537098735539985
 21
236.2574417168241894
 31
0.0
  0
LINE
  5
CCD0
  8
0
 10
4808.7701246308060945
 20
236.2574417168241894
 30
0.0
 11
4808.7687363646537051
 21
236.2495684686242043
 31
0.0
  0
LINE
  5
CCD1
  8
0
 10
4808.0616937987542769
 20
236.2495684686242043
 30
0.0
 11
4808.0537098735539985
 21
236.2574417168241894
 31
0.0
  0
LINE
  5
CCD2
  8
0
 10
4804.4886383541543182
 20
234.3191747678241939
 30
0.0
 11
4806.7720927727541493
 21
234.3191747678241939
 31
0.0
  0
LINE
  5
CCD3
  8
0
 10
4805.6402126600551128
 20
234.3270487835241909
 30
0.0
 11
4805.6205184668542643
 21
234.3270487835241909
 31
0.0
  0
LINE
  5
CCD4
  8
0
 10
4806.8114725025552616
 20
234.3979149253241872
 30
0.0
 11
4804.4492586243541155
 21
234.3979149253241872
 31
0.0
  0
LINE
  5
CCD5
  8
0
 10
4808.0616937987542769
 20
236.2495684686242043
 30
0.0
 11
4809.498240773354155
 21
236.2495684686242043
 31
0.0
  0
LINE
  5
CCD6
  8
0
 10
4802.665657815454324
 20
236.3086235867241953
 30
0.0
 11
4815.9336468348556082
 21
236.3086235867241953
 31
0.0
  0
LINE
  5
CCD7
  8
0
 10
4815.9510055105538413
 20
236.8598046890242017
 30
0.0
 11
4802.6482991397542719
 21
236.8598046890242017
 31
0.0
  0
ARC
  5
CCD8
  8
0
 10
4804.4498864009538011
 20
236.3587023268241865
 30
0.0
 40
0.1968503937
 50
325.4378080137915958
 51
345.2619647661848035
  0
ARC
  5
CCD9
  8
0
 10
4804.4926196842588979
 20
234.3625368047773918
 30
0.0
 40
0.0435444283248527
 50
185.2600060574715997
 51
264.7540374450204013
  0
ARC
  5
CCDA
  8
0
 10
4804.4571319005654004
 20
234.4057882014342908
 30
0.0
 40
0.007873276144849
 50
179.994617821305809
 51
270.0053821787039965
  0
ARC
  5
CCDB
  8
0
 10
4802.6657676566028385
 20
236.3166093775890886
 30
0.0
 40
0.0079865462382791
 50
181.7880293270372078
 51
269.2119706667368746
  0
LINE
  5
CCDC
  8
0
 10
4815.9415196513527917
 20
236.3163601819242103
 30
0.0
 11
4815.9510055105538413
 21
236.8598046890242017
 31
0.0
  0
ARC
  5
CCDD
  8
0
 10
4815.9335369937052747
 20
236.3166093775890886
 30
0.0
 40
0.0079865462382791
 50
270.7880293332631254
 51
358.2119706729611721
  0
ARC
  5
CCDE
  8
0
 10
4806.1649612315832201
 20
235.5176153131561136
 30
0.0
 40
1.715735684155498
 50
154.8409976287622953
 51
179.6442247690783063
  0
LINE
  5
CCDF
  8
0
 10
4806.8114725025552616
 20
234.3585448465242109
 30
0.0
 11
4806.8114725025552616
 21
234.3979149253241872
 31
0.0
  0
LINE
  5
CCE0
  8
0
 10
4806.8114725025552616
 20
234.4057889410242126
 30
0.0
 11
4806.8114725025552616
 21
235.5282690182241936
 31
0.0
  0
LINE
  5
CCE1
  8
0
 10
4805.6402126600551128
 20
234.3270487835241909
 30
0.0
 11
4805.6402126600551128
 21
234.3191747678241939
 31
0.0
  0
ARC
  5
CCE2
  8
0
 10
4806.810844725953757
 20
236.3587023268241865
 30
0.0
 40
0.1968503937
 50
194.7380352338151113
 51
214.5621919862084042
  0
ARC
  5
CCE3
  8
0
 10
4806.7681114426477507
 20
234.3625368047773918
 30
0.0
 40
0.0435444283248527
 50
275.245962554979485
 51
354.7399939425283719
  0
ARC
  5
CCE4
  8
0
 10
4806.8035992263439766
 20
234.4057882014342908
 30
0.0
 40
0.007873276144849
 50
269.9946178212960035
 51
0.005382178694183
  0
ARC
  5
CCE5
  8
0
 10
4805.0957698953252475
 20
235.5176153131561136
 30
0.0
 40
1.715735684155498
 50
0.3557752309216646
 51
25.1590023712376301
  0
LINE
  5
CCE6
  8
0
 10
4809.5069393786543515
 20
236.3086235867241953
 30
0.0
 11
4809.5062246985553429
 21
236.2574417168241894
 31
0.0
  0
LINE
  5
CCE7
  8
0
 10
4808.7898099413023374
 20
236.2574417168241894
 30
0.0
 11
4808.7911982074538173
 21
236.2495684686242043
 31
0.0
  0
LINE
  5
CCE8
  8
0
 10
4809.498240773354155
 20
236.2495684686242043
 30
0.0
 11
4809.5062246985553429
 21
236.2574417168241894
 31
0.0
  0
LINE
  5
CCE9
  8
0
 10
4808.0537098735539985
 20
236.2574417168241894
 30
0.0
 11
4809.5062246985553429
 21
236.2574417168241894
 31
0.0
  0
LINE
  5
CCEA
  8
0
 10
4810.6120503115544125
 20
236.3086235867241953
 30
0.0
 11
4810.6127649916543305
 21
236.2574417168241894
 31
0.0
  0
LINE
  5
CCEB
  8
0
 10
4811.3291797489064265
 20
236.2574417168241894
 30
0.0
 11
4811.3277914827540371
 21
236.2495684686242043
 31
0.0
  0
LINE
  5
CCEC
  8
0
 10
4810.62074891685279
 20
236.2495684686242043
 30
0.0
 11
4810.6127649916543305
 21
236.2574417168241894
 31
0.0
  0
LINE
  5
CCED
  8
0
 10
4810.62074891685279
 20
236.2495684686242043
 30
0.0
 11
4812.057295891452668
 21
236.2495684686242043
 31
0.0
  0
LINE
  5
CCEE
  8
0
 10
4812.065994496753774
 20
236.3086235867241953
 30
0.0
 11
4812.0652798166529465
 21
236.2574417168241894
 31
0.0
  0
LINE
  5
CCEF
  8
0
 10
4811.3488650594017599
 20
236.2574417168241894
 30
0.0
 11
4811.3502533255541493
 21
236.2495684686242043
 31
0.0
  0
LINE
  5
CCF0
  8
0
 10
4812.057295891452668
 20
236.2495684686242043
 30
0.0
 11
4812.0652798166529465
 21
236.2574417168241894
 31
0.0
  0
LINE
  5
CCF1
  8
0
 10
4810.6127649916543305
 20
236.2574417168241894
 30
0.0
 11
4812.0652798166529465
 21
236.2574417168241894
 31
0.0
  0
LINE
  5
CCF2
  8
0
 10
4813.1711054297038572
 20
236.3086235867241953
 30
0.0
 11
4813.1718201098037753
 21
236.2574417168241894
 31
0.0
  0
LINE
  5
CCF3
  8
0
 10
4813.8882348670558713
 20
236.2574417168241894
 30
0.0
 11
4813.8868466009053009
 21
236.2495684686242043
 31
0.0
  0
LINE
  5
CCF4
  8
0
 10
4813.1798040350040537
 20
236.2495684686242043
 30
0.0
 11
4813.1718201098037753
 21
236.2574417168241894
 31
0.0
  0
LINE
  5
CCF5
  8
0
 10
4813.1798040350040537
 20
236.2495684686242043
 30
0.0
 11
4814.6163510096039317
 21
236.2495684686242043
 31
0.0
  0
LINE
  5
CCF6
  8
0
 10
4814.6250496149041282
 20
236.3086235867241953
 30
0.0
 11
4814.6243349348042102
 21
236.2574417168241894
 31
0.0
  0
LINE
  5
CCF7
  8
0
 10
4813.9079201775521142
 20
236.2574417168241894
 30
0.0
 11
4813.9093084437035941
 21
236.2495684686242043
 31
0.0
  0
LINE
  5
CCF8
  8
0
 10
4814.6163510096039317
 20
236.2495684686242043
 30
0.0
 11
4814.6243349348042102
 21
236.2574417168241894
 31
0.0
  0
LINE
  5
CCF9
  8
0
 10
4813.1718201098037753
 20
236.2574417168241894
 30
0.0
 11
4814.6243349348042102
 21
236.2574417168241894
 31
0.0
  0
ENDSEC
  0
EOF
