  0
SECTION
  2
HEADER
  9
$ACADVER
  1
AC1009
  9
$INSBASE
 10
4780.1030515897400619
 20
251.5758850700889013
 30
0.0
  9
$EXTMIN
 10
4777.562421668539173
 20
249.5583901523889097
 30
0.0
  9
$EXTMAX
 10
4780.12320043937234
 20
253.593379987788893
 30
0.0
  9
$LIMMIN
 10
0.0
 20
0.0
  9
$LIMMAX
 10
11.6929133858000007
 20
8.2677165353999982
  9
$ORTHOMODE
 70
     1
  9
$REGENMODE
 70
     1
  9
$FILLMODE
 70
     1
  9
$QTEXTMODE
 70
     0
  9
$MIRRTEXT
 70
     0
  9
$DRAGMODE
 70
     2
  9
$LTSCALE
 40
0.6431102362
  9
$OSMODE
 70
  4095
  9
$ATTMODE
 70
     1
  9
$TEXTSIZE
 40
0.2
  9
$TRACEWID
 40
0.05
  9
$TEXTSTYLE
  7
STANDARD
  9
$CLAYER
  8
0
  9
$CELTYPE
  6
BYLAYER
  9
$CECOLOR
 62
   256
  9
$DIMSCALE
 40
1.0
  9
$DIMASZ
 40
0.1875
  9
$DIMEXO
 40
0.0625
  9
$DIMDLI
 40
0.4443307087
  9
$DIMRND
 40
0.0
  9
$DIMDLE
 40
0.0
  9
$DIMEXE
 40
0.125
  9
$DIMTP
 40
0.01
  9
$DIMTM
 40
0.01
  9
$DIMTXT
 40
2.0
  9
$DIMCEN
 40
0.1052362205
  9
$DIMTSZ
 40
0.0
  9
$DIMTOL
 70
     1
  9
$DIMLIM
 70
     0
  9
$DIMTIH
 70
     1
  9
$DIMTOH
 70
     1
  9
$DIMSE1
 70
     0
  9
$DIMSE2
 70
     0
  9
$DIMTAD
 70
     0
  9
$DIMZIN
 70
     0
  9
$DIMBLK
  1

  9
$DIMASO
 70
     1
  9
$DIMSHO
 70
     1
  9
$DIMPOST
  1
\X
  9
$DIMAPOST
  1

  9
$DIMALT
 70
     1
  9
$DIMALTD
 70
     2
  9
$DIMALTF
 40
25.3999999999999986
  9
$DIMLFAC
 40
1.0
  9
$DIMTOFL
 70
     0
  9
$DIMTVP
 40
0.0
  9
$DIMTIX
 70
     0
  9
$DIMSOXD
 70
     0
  9
$DIMSAH
 70
     0
  9
$DIMBLK1
  1

  9
$DIMBLK2
  1

  9
$DIMSTYLE
  2
STANDARD
  9
$DIMCLRD
 70
     0
  9
$DIMCLRE
 70
     0
  9
$DIMCLRT
 70
     0
  9
$DIMTFAC
 40
1.0
  9
$DIMGAP
 40
0.09
  9
$LUNITS
 70
     2
  9
$LUPREC
 70
     4
  9
$SKETCHINC
 40
0.1
  9
$FILLETRAD
 40
0.0
  9
$AUNITS
 70
     0
  9
$AUPREC
 70
     0
  9
$MENU
  1
.
  9
$ELEVATION
 40
0.0
  9
$PELEVATION
 40
0.0
  9
$THICKNESS
 40
0.0
  9
$LIMCHECK
 70
     0
  9
$BLIPMODE
 70
     0
  9
$CHAMFERA
 40
0.0
  9
$CHAMFERB
 40
0.0
  9
$SKPOLY
 70
     0
  9
$TDCREATE
 40
2458060.468368056230247
  9
$TDUPDATE
 40
2459271.8105092588812113
  9
$TDINDWG
 40
0.356071875
  9
$TDUSRTIMER
 40
0.356071875
  9
$USRTIMER
 70
     1
  9
$ANGBASE
 50
0.0
  9
$ANGDIR
 70
     0
  9
$PDMODE
 70
     0
  9
$PDSIZE
 40
0.3125
  9
$PLINEWID
 40
0.0
  9
$COORDS
 70
     1
  9
$SPLFRAME
 70
     0
  9
$SPLINETYPE
 70
     6
  9
$SPLINESEGS
 70
     8
  9
$ATTDIA
 70
     1
  9
$ATTREQ
 70
     1
  9
$HANDLING
 70
     1
  9
$HANDSEED
  5
CD2B
  9
$SURFTAB1
 70
     6
  9
$SURFTAB2
 70
     6
  9
$SURFTYPE
 70
     6
  9
$SURFU
 70
     6
  9
$SURFV
 70
     6
  9
$UCSNAME
  2

  9
$UCSORG
 10
0.0
 20
0.0
 30
0.0
  9
$UCSXDIR
 10
1.0
 20
0.0
 30
0.0
  9
$UCSYDIR
 10
0.0
 20
1.0
 30
0.0
  9
$PUCSNAME
  2

  9
$PUCSORG
 10
0.0
 20
0.0
 30
0.0
  9
$PUCSXDIR
 10
1.0
 20
0.0
 30
0.0
  9
$PUCSYDIR
 10
0.0
 20
1.0
 30
0.0
  9
$USERI1
 70
     0
  9
$USERI2
 70
     0
  9
$USERI3
 70
     0
  9
$USERI4
 70
     0
  9
$USERI5
 70
     0
  9
$USERR1
 40
0.0
  9
$USERR2
 40
0.0
  9
$USERR3
 40
0.0
  9
$USERR4
 40
0.0
  9
$USERR5
 40
0.0
  9
$WORLDVIEW
 70
     1
  9
$SHADEDGE
 70
     3
  9
$SHADEDIF
 70
    70
  9
$TILEMODE
 70
     1
  9
$MAXACTVP
 70
    64
  9
$PLIMCHECK
 70
     0
  9
$PEXTMIN
 10
1.0000000000000000E+20
 20
1.0000000000000000E+20
 30
1.0000000000000000E+20
  9
$PEXTMAX
 10
-1.0000000000000000E+20
 20
-1.0000000000000000E+20
 30
-1.0000000000000000E+20
  9
$PLIMMIN
 10
0.0
 20
0.0
  9
$PLIMMAX
 10
12.0
 20
9.0
  9
$UNITMODE
 70
     0
  9
$VISRETAIN
 70
     1
  9
$PLINEGEN
 70
     0
  9
$PSLTSCALE
 70
     1
  0
ENDSEC
  0
SECTION
  2
TABLES
  0
TABLE
  2
VPORT
 70
     1
  0
VPORT
  2
*ACTIVE
 70
     0
 10
0.0
 20
0.0
 11
1.0
 21
1.0
 12
0.0
 22
0.0
 13
0.0
 23
0.0
 14
1.0
 24
1.0
 15
0.0
 25
0.0
 16
0.0
 26
0.0
 36
13.6371280958030994
 17
4778.8428502198439674
 27
251.5758895874022869
 37
0.0
 40
4.7791993060955562
 41
2.1375838926174491
 42
50.0
 43
0.0
 44
0.0
 50
0.0
 51
0.0
 71
     0
 72
   100
 73
     1
 74
     1
 75
     0
 76
     0
 77
     0
 78
     0
  0
ENDTAB
  0
TABLE
  2
LTYPE
 70
     2
  0
LTYPE
  2
CONTINUOUS
 70
     0
  3
Solid line
 72
    65
 73
     0
 40
0.0
  0
LTYPE
  2
PHANTOM2
 70
     0
  3
___ _ _ ___ _ _ ___ _ _ ___ _ _
 72
    65
 73
     6
 40
1.25
 49
0.625
 49
-0.125
 49
0.125
 49
-0.125
 49
0.125
 49
-0.125
  0
ENDTAB
  0
TABLE
  2
LAYER
 70
     2
  0
LAYER
  2
0
 70
     0
 62
   255
  6
CONTINUOUS
  0
LAYER
  2
DEFPOINTS
 70
     0
 62
     7
  6
CONTINUOUS
  0
ENDTAB
  0
TABLE
  2
STYLE
 70
     1
  0
STYLE
  2
STANDARD
 70
     0
 40
0.0
 41
0.8
 50
0.0
 71
     0
 42
0.2
  3
txt
  4

  0
ENDTAB
  0
TABLE
  2
VIEW
 70
     0
  0
ENDTAB
  0
TABLE
  2
UCS
 70
     0
  0
ENDTAB
  0
TABLE
  2
APPID
 70
     9
  0
APPID
  2
ACAD
 70
     0
  0
APPID
  2
ACAD_MLEADERVER
 70
     0
  0
APPID
  2
ACAD_EXEMPT_FROM_CAD_STANDARDS
 70
     0
  0
APPID
  2
ACAD_NAV_VCDISPLAY
 70
     0
  0
APPID
  2
ACAECLAYERSTANDARD
 70
     0
  0
APPID
  2
ACCMTRANSPARENCY
 70
     0
  0
APPID
  2
ACAD_DSTYLE_DIMJAG
 70
     0
  0
APPID
  2
ACAD_DSTYLE_DIMTALN
 70
     0
  0
APPID
  2
ACDBATTR
 70
     0
  0
ENDTAB
  0
TABLE
  2
DIMSTYLE
 70
     1
  0
DIMSTYLE
  2
STANDARD
 70
     0
  3

  4

  5

  6

  7

 40
1.0
 41
0.1875
 42
0.0625
 43
0.38
 44
0.125
 45
0.0
 46
0.0
 47
0.01
 48
0.01
140
0.15625
141
0.09
142
0.0
143
25.3999999999999986
144
1.0
145
0.0
146
1.0
147
0.09
 71
     1
 72
     0
 73
     1
 74
     1
 75
     0
 76
     0
 77
     0
 78
     4
170
     0
171
     2
172
     0
173
     0
174
     0
175
     0
176
     0
177
     0
178
     0
  0
ENDTAB
  0
ENDSEC
  0
SECTION
  2
BLOCKS
  0
BLOCK
  8
0
  2
$MODEL_SPACE
 70
     0
 10
0.0
 20
0.0
 30
0.0
  3
$MODEL_SPACE
  1

  0
ENDBLK
  5
21
  8
0
  0
BLOCK
 67
     1
  8
0
  2
$PAPER_SPACE
 70
     0
 10
0.0
 20
0.0
 30
0.0
  3
$PAPER_SPACE
  1

  0
ENDBLK
  5
1D
 67
     1
  8
0
  0
ENDSEC
  0
SECTION
  2
ENTITIES
  0
ATTDEF
  5
3930
  8
DEFPOINTS
 10
4780.1125337727044098
 20
251.5765231501675885
 30
0.0
 40
0.001
  1
K-26350W-9
  3

  2
MODELNUMBER
 70
     0
1001
ACDBATTR
1070
     0
1070
     1
  0
ATTDEF
  5
3931
  8
DEFPOINTS
 10
4780.1125337727044098
 20
251.5748564835008949
 30
0.0
 40
0.001
  1

  3

  2
TRADENAME
 70
     0
1001
ACDBATTR
1070
     0
1070
     1
  0
ATTDEF
  5
3932
  8
DEFPOINTS
 10
4780.1125337727044098
 20
251.5731898168342013
 30
0.0
 40
0.001
  1
VALVE TRIM
  3

  2
PRODUCT
 70
     0
1001
ACDBATTR
1070
     0
1070
     1
  0
LINE
  5
CBF1
  8
0
 10
4777.9482739002387461
 20
250.4341863855889017
 30
0.0
 11
4778.7454046721386476
 21
250.434183952488894
 31
0.0
  0
ARC
  5
CBF2
  8
0
 10
4778.7314653179655579
 20
249.0147556080756033
 30
0.0
 40
1.4194967877741429
 50
79.0480007715154755
 51
89.4373506123630762
  0
ARC
  5
CBF3
  8
0
 10
4777.6932931895471484
 20
250.456341492113097
 30
0.0
 40
0.0616814966576021
 50
273.6147337400668107
 51
286.2669174210905112
  0
ARC
  5
CBF4
  8
0
 10
4779.0090204911903129
 20
250.4472106107320997
 30
0.0
 40
0.0396017936054484
 50
258.5375741817117046
 51
276.0844662729180072
  0
LINE
  5
CBF5
  8
0
 10
4779.5596070826395589
 20
253.5838941284889074
 30
0.0
 11
4780.1030515897400619
 21
253.593379987788893
 31
0.0
  0
LINE
  5
CBF6
  8
0
 10
4777.6017917472390764
 20
252.756987432288895
 30
0.0
 11
4777.6411618260381147
 21
252.756987432288895
 31
0.0
  0
LINE
  5
CBF7
  8
0
 10
4777.6490358417386233
 20
252.756987432288895
 30
0.0
 11
4778.771515918939258
 21
252.756987432288895
 31
0.0
  0
LINE
  5
CBF8
  8
0
 10
4777.562421668539173
 20
252.7176077024888912
 30
0.0
 11
4777.562421668539173
 21
250.4341624375888955
 31
0.0
  0
LINE
  5
CBF9
  8
0
 10
4777.6411618260381147
 20
250.3947827078889077
 30
0.0
 11
4777.6411618260381147
 21
252.756987432288895
 31
0.0
  0
LINE
  5
CBFA
  8
0
 10
4779.5518704874402829
 20
253.5760213119889102
 30
0.0
 11
4779.5518704874402829
 21
251.5758850700389075
 31
0.0
  0
LINE
  5
CBFB
  8
0
 10
4780.1030515897400619
 20
249.5583901523889097
 30
0.0
 11
4780.1030515897400619
 21
253.593379987788893
 31
0.0
  0
ARC
  5
CBFC
  8
0
 10
4779.6019492275390803
 20
252.7563596556888967
 30
0.0
 40
0.1968503937
 50
235.4378080138048972
 51
255.2619647661967122
  0
ARC
  5
CBFD
  8
0
 10
4777.6057837054913762
 20
252.7136263723836009
 30
0.0
 40
0.0435444283248527
 50
95.2600060574937544
 51
174.7540374450138074
  0
ARC
  5
CBFE
  8
0
 10
4777.6490351021493552
 20
252.7491141560788037
 30
0.0
 40
0.007873276144849
 50
89.9946178212960461
 51
180.0053821787055881
  0
ARC
  5
CBFF
  8
0
 10
4779.5598562783043235
 20
253.5759114708401967
 30
0.0
 40
0.0079865462382791
 50
91.7880293270567478
 51
179.211970666733805
  0
ARC
  5
CC00
  8
0
 10
4778.7608622138714054
 20
251.0412848250597904
 30
0.0
 40
1.715735684155498
 50
64.840997628746095
 51
89.6442247690684866
  0
LINE
  5
CC01
  8
0
 10
4779.5518708663394136
 20
252.3028571680389121
 30
0.0
 11
4779.5006889964388392
 21
252.3021424879389087
 31
0.0
  0
LINE
  5
CC02
  8
0
 10
4779.4928157482390816
 20
252.2941585627388861
 30
0.0
 11
4779.5006889964388392
 21
252.3021424879389087
 31
0.0
  0
LINE
  5
CC03
  8
0
 10
4779.4928157482390816
 20
252.2941585627388861
 30
0.0
 11
4779.4928157482390816
 21
250.8576115773389006
 31
0.0
  0
LINE
  5
CC04
  8
0
 10
4779.5006889964388392
 20
252.3021424879389087
 30
0.0
 11
4779.5006889964388392
 21
250.8496276521389063
 31
0.0
  0
LINE
  5
CC05
  8
0
 10
4779.5596070826395589
 20
249.5678760115889077
 30
0.0
 11
4780.1030515897400619
 21
249.5583901523889097
 31
0.0
  0
LINE
  5
CC06
  8
0
 10
4777.6017917472390764
 20
250.3947827078889077
 30
0.0
 11
4777.6411618260381147
 21
250.3947827078889077
 31
0.0
  0
LINE
  5
CC07
  8
0
 10
4777.6490358417386233
 20
250.3947827077888917
 30
0.0
 11
4777.6971820328772083
 21
250.3947827077888917
 31
0.0
  0
LINE
  5
CC08
  8
0
 10
4779.5518704874402829
 20
249.5757488280889049
 30
0.0
 11
4779.5518704874402829
 21
251.5758850700389075
 31
0.0
  0
ARC
  5
CC09
  8
0
 10
4779.6019492275390803
 20
250.3954104843888899
 30
0.0
 40
0.1968503937
 50
104.738035233803302
 51
124.5621919861951028
  0
ARC
  5
CC0A
  8
0
 10
4777.6057837054913762
 20
250.4381437676942994
 30
0.0
 40
0.043544428324868
 50
185.2459625549959128
 51
264.7399939425060893
  0
ARC
  5
CC0B
  8
0
 10
4777.6490351021493552
 20
250.4026559839990114
 30
0.0
 40
0.007873276144849
 50
179.9946178212944119
 51
270.0053821787039965
  0
ARC
  5
CC0C
  8
0
 10
4779.5598562783043235
 20
249.5758586692375047
 30
0.0
 40
0.0079865462382791
 50
180.7880293332661097
 51
268.2119706729433233
  0
LINE
  5
CC0D
  8
0
 10
4779.5518708663394136
 20
250.848912972038903
 30
0.0
 11
4779.5006889964388392
 21
250.8496276521389063
 31
0.0
  0
LINE
  5
CC0E
  8
0
 10
4779.4928157482390816
 20
250.8576115773389006
 30
0.0
 11
4779.5006889964388392
 21
250.8496276521389063
 31
0.0
  0
ARC
  5
CC0F
  8
0
 10
4777.9629235100919686
 20
249.5593145872443017
 30
0.0
 40
0.8749944426152954
 50
90.9593204184903215
 51
106.7624755400297971
  0
ARC
  5
CC10
  8
0
 10
4778.946269370077971
 20
251.4562434038882088
 30
0.0
 40
1.05054690424908
 50
273.6537908549248073
 51
301.1869214885772976
  0
LINE
  5
CC11
  8
0
 10
4778.1844606122522237
 20
250.3329968006889032
 30
0.0
 11
4778.1844606122522237
 21
250.4341856646709914
 31
0.0
  0
LINE
  5
CC12
  8
0
 10
4778.4832785685257477
 20
250.3136314401889138
 30
0.0
 11
4778.2006124393510618
 21
250.3136314401889138
 31
0.0
  0
ARC
  5
CC13
  8
0
 10
4778.3762637964346141
 20
251.4676075007517966
 30
0.0
 40
1.1672678131082701
 50
261.3452112089462958
 51
268.3152309382373915
  0
ARC
  5
CC14
  8
0
 10
4778.2051280386685903
 20
250.3338161681847112
 30
0.0
 40
0.0206836621975449
 50
182.2703226497199012
 51
257.3897864563717235
  0
LINE
  5
CC15
  8
0
 10
4778.4994303958519595
 20
250.3329968006889032
 30
0.0
 11
4778.4994303958519595
 21
250.4341847032816872
 31
0.0
  0
ARC
  5
CC16
  8
0
 10
4778.3076272116686596
 20
251.4676075007517966
 30
0.0
 40
1.1672678131082701
 50
271.6847690617626085
 51
278.6547887910537042
  0
ARC
  5
CC17
  8
0
 10
4778.4787629694346833
 20
250.3338161681847112
 30
0.0
 40
0.0206836621975449
 50
282.6102135436282197
 51
357.7296773502799851
  0
ENDSEC
  0
EOF
