  0
SECTION
  2
HEADER
  9
$ACADVER
  1
AC1009
  9
$INSBASE
 10
3142.7789956556907782
 20
43.2036839734613096
 30
0.0
  9
$EXTMIN
 10
3135.4243793696859939
 20
37.2973559734613076
 30
0.0
  9
$EXTMAX
 10
3146.0652587000618041
 20
48.5242655233004569
 30
0.0
  9
$LIMMIN
 10
0.0
 20
0.0
  9
$LIMMAX
 10
11.6929133858000007
 20
8.2677165353999982
  9
$ORTHOMODE
 70
     0
  9
$REGENMODE
 70
     1
  9
$FILLMODE
 70
     1
  9
$QTEXTMODE
 70
     0
  9
$MIRRTEXT
 70
     0
  9
$DRAGMODE
 70
     2
  9
$LTSCALE
 40
0.6431102362
  9
$OSMODE
 70
  4095
  9
$ATTMODE
 70
     1
  9
$TEXTSIZE
 40
0.2
  9
$TRACEWID
 40
0.05
  9
$TEXTSTYLE
  7
STANDARD
  9
$CLAYER
  8
0
  9
$CELTYPE
  6
BYLAYER
  9
$CECOLOR
 62
   256
  9
$DIMSCALE
 40
1.0
  9
$DIMASZ
 40
0.1875
  9
$DIMEXO
 40
0.0625
  9
$DIMDLI
 40
0.4443307087
  9
$DIMRND
 40
0.0
  9
$DIMDLE
 40
0.0
  9
$DIMEXE
 40
0.125
  9
$DIMTP
 40
0.01
  9
$DIMTM
 40
0.01
  9
$DIMTXT
 40
2.0
  9
$DIMCEN
 40
0.1052362205
  9
$DIMTSZ
 40
0.0
  9
$DIMTOL
 70
     1
  9
$DIMLIM
 70
     0
  9
$DIMTIH
 70
     1
  9
$DIMTOH
 70
     1
  9
$DIMSE1
 70
     0
  9
$DIMSE2
 70
     0
  9
$DIMTAD
 70
     0
  9
$DIMZIN
 70
     0
  9
$DIMBLK
  1

  9
$DIMASO
 70
     1
  9
$DIMSHO
 70
     1
  9
$DIMPOST
  1
\X
  9
$DIMAPOST
  1

  9
$DIMALT
 70
     1
  9
$DIMALTD
 70
     2
  9
$DIMALTF
 40
25.3999999999999986
  9
$DIMLFAC
 40
1.0
  9
$DIMTOFL
 70
     0
  9
$DIMTVP
 40
0.0
  9
$DIMTIX
 70
     0
  9
$DIMSOXD
 70
     0
  9
$DIMSAH
 70
     0
  9
$DIMBLK1
  1

  9
$DIMBLK2
  1

  9
$DIMSTYLE
  2
STANDARD
  9
$DIMCLRD
 70
     0
  9
$DIMCLRE
 70
     0
  9
$DIMCLRT
 70
     0
  9
$DIMTFAC
 40
1.0
  9
$DIMGAP
 40
0.09
  9
$LUNITS
 70
     2
  9
$LUPREC
 70
     4
  9
$SKETCHINC
 40
0.1
  9
$FILLETRAD
 40
0.0
  9
$AUNITS
 70
     0
  9
$AUPREC
 70
     0
  9
$MENU
  1
.
  9
$ELEVATION
 40
0.0
  9
$PELEVATION
 40
0.0
  9
$THICKNESS
 40
0.0
  9
$LIMCHECK
 70
     0
  9
$BLIPMODE
 70
     0
  9
$CHAMFERA
 40
0.0
  9
$CHAMFERB
 40
0.0
  9
$SKPOLY
 70
     0
  9
$TDCREATE
 40
2458060.468368056230247
  9
$TDUPDATE
 40
2459964.6360185188241303
  9
$TDINDWG
 40
0.3154121528
  9
$TDUSRTIMER
 40
0.3154121528
  9
$USRTIMER
 70
     1
  9
$ANGBASE
 50
0.0
  9
$ANGDIR
 70
     0
  9
$PDMODE
 70
     0
  9
$PDSIZE
 40
0.3125
  9
$PLINEWID
 40
0.0
  9
$COORDS
 70
     1
  9
$SPLFRAME
 70
     0
  9
$SPLINETYPE
 70
     6
  9
$SPLINESEGS
 70
     8
  9
$ATTDIA
 70
     1
  9
$ATTREQ
 70
     1
  9
$HANDLING
 70
     1
  9
$HANDSEED
  5
6BCC
  9
$SURFTAB1
 70
     6
  9
$SURFTAB2
 70
     6
  9
$SURFTYPE
 70
     6
  9
$SURFU
 70
     6
  9
$SURFV
 70
     6
  9
$UCSNAME
  2

  9
$UCSORG
 10
0.0
 20
0.0
 30
0.0
  9
$UCSXDIR
 10
1.0
 20
0.0
 30
0.0
  9
$UCSYDIR
 10
0.0
 20
1.0
 30
0.0
  9
$PUCSNAME
  2

  9
$PUCSORG
 10
0.0
 20
0.0
 30
0.0
  9
$PUCSXDIR
 10
1.0
 20
0.0
 30
0.0
  9
$PUCSYDIR
 10
0.0
 20
1.0
 30
0.0
  9
$USERI1
 70
     0
  9
$USERI2
 70
     0
  9
$USERI3
 70
     0
  9
$USERI4
 70
     0
  9
$USERI5
 70
     0
  9
$USERR1
 40
0.0
  9
$USERR2
 40
0.0
  9
$USERR3
 40
0.0
  9
$USERR4
 40
0.0
  9
$USERR5
 40
0.0
  9
$WORLDVIEW
 70
     1
  9
$SHADEDGE
 70
     3
  9
$SHADEDIF
 70
    70
  9
$TILEMODE
 70
     1
  9
$MAXACTVP
 70
    64
  9
$PLIMCHECK
 70
     0
  9
$PEXTMIN
 10
1.0000000000000000E+20
 20
1.0000000000000000E+20
 30
1.0000000000000000E+20
  9
$PEXTMAX
 10
-1.0000000000000000E+20
 20
-1.0000000000000000E+20
 30
-1.0000000000000000E+20
  9
$PLIMMIN
 10
0.0
 20
0.0
  9
$PLIMMAX
 10
12.0
 20
9.0
  9
$UNITMODE
 70
     0
  9
$VISRETAIN
 70
     1
  9
$PLINEGEN
 70
     0
  9
$PSLTSCALE
 70
     1
  0
ENDSEC
  0
SECTION
  2
TABLES
  0
TABLE
  2
VPORT
 70
     1
  0
VPORT
  2
*ACTIVE
 70
     0
 10
0.0
 20
0.0
 11
1.0
 21
1.0
 12
138.9225599479221103
 22
-14.0384465447866802
 13
0.0
 23
0.0
 14
1.0
 24
1.0
 15
0.0
 25
0.0
 16
0.0
 26
0.0
 36
238.8063968625259008
 17
3002.96630859375
 27
54.8220901489257813
 37
0.0
 40
10.1531275398667606
 41
2.8493975903614448
 42
50.0
 43
0.0
 44
0.0
 50
0.0
 51
0.0
 71
     0
 72
   100
 73
     1
 74
     1
 75
     0
 76
     0
 77
     0
 78
     0
  0
ENDTAB
  0
TABLE
  2
LTYPE
 70
     3
  0
LTYPE
  2
CONTINUOUS
 70
     0
  3
Solid line
 72
    65
 73
     0
 40
0.0
  0
LTYPE
  2
PHANTOM2
 70
     0
  3
___ _ _ ___ _ _ ___ _ _ ___ _ _
 72
    65
 73
     6
 40
1.25
 49
0.625
 49
-0.125
 49
0.125
 49
-0.125
 49
0.125
 49
-0.125
  0
ENDTAB
  0
TABLE
  2
LAYER
 70
     2
  0
LAYER
  2
0
 70
     0
 62
   255
  6
CONTINUOUS
  0
LAYER
  2
DEFPOINTS
 70
     0
 62
     7
  6
CONTINUOUS
  0
ENDTAB
  0
TABLE
  2
STYLE
 70
     1
  0
STYLE
  2
STANDARD
 70
     0
 40
0.0
 41
0.8
 50
0.0
 71
     0
 42
0.2
  3
txt
  4

  0
ENDTAB
  0
TABLE
  2
VIEW
 70
     0
  0
ENDTAB
  0
TABLE
  2
UCS
 70
     0
  0
ENDTAB
  0
TABLE
  2
APPID
 70
     9
  0
APPID
  2
ACAD
 70
     0
  0
APPID
  2
ACAD_MLEADERVER
 70
     0
  0
APPID
  2
ACAD_EXEMPT_FROM_CAD_STANDARDS
 70
     0
  0
APPID
  2
ACAD_NAV_VCDISPLAY
 70
     0
  0
APPID
  2
ACAECLAYERSTANDARD
 70
     0
  0
APPID
  2
ACCMTRANSPARENCY
 70
     0
  0
APPID
  2
ACAD_DSTYLE_DIMJAG
 70
     0
  0
APPID
  2
ACAD_DSTYLE_DIMTALN
 70
     0
  0
APPID
  2
ACDBATTR
 70
     0
  0
ENDTAB
  0
TABLE
  2
DIMSTYLE
 70
     2
  0
DIMSTYLE
  2
STANDARD
 70
     0
  3

  4

  5

  6

  7

 40
1.0
 41
0.1875
 42
0.0625
 43
0.38
 44
0.125
 45
0.0
 46
0.0
 47
0.01
 48
0.01
140
0.15625
141
0.09
142
0.0
143
25.3999999999999986
144
1.0
145
0.0
146
1.0
147
0.09
 71
     1
 72
     0
 73
     1
 74
     1
 75
     0
 76
     0
 77
     0
 78
     4
170
     0
171
     2
172
     0
173
     0
174
     0
175
     0
176
     0
177
     0
178
     0
  0
ENDTAB
  0
ENDSEC
  0
SECTION
  2
BLOCKS
  0
BLOCK
  8
0
  2
$MODEL_SPACE
 70
     0
 10
0.0
 20
0.0
 30
0.0
  3
$MODEL_SPACE
  1

  0
ENDBLK
  5
21
  8
0
  0
BLOCK
 67
     1
  8
0
  2
$PAPER_SPACE
 70
     0
 10
0.0
 20
0.0
 30
0.0
  3
$PAPER_SPACE
  1

  0
ENDBLK
  5
1D
 67
     1
  8
0
  0
BLOCK
  8
0
  2
_FILLED
 70
     0
 10
0.0
 20
0.0
 30
0.0
  3
_FILLED
  1

  0
SOLID
  5
5CF5
  8
0
  6
BYBLOCK
 62
     0
 10
0.0
 20
0.0
 30
0.0
 11
-1.0
 21
0.1666666667
 31
0.0
 12
-1.0
 22
-0.1666666667
 32
0.0
 13
-1.0
 23
-0.1666666667
 33
0.0
  0
ENDBLK
  5
5CF6
  8
0
  6
BYBLOCK
 62
     0
  0
ENDSEC
  0
SECTION
  2
ENTITIES
  0
ATTDEF
  5
3930
  8
DEFPOINTS
 10
3142.7707336468802168
 20
43.2080776645683002
 30
0.0
 40
0.001
  1
K-26369
  3

  2
MODELNUMBER
 70
     0
1001
ACDBATTR
1070
     0
1070
     1
  0
ATTDEF
  5
3931
  8
DEFPOINTS
 10
3142.7707336468802168
 20
43.2064109979016422
 30
0.0
 40
0.001
  1
CONTEMPORARY
  3

  2
TRADENAME
 70
     0
1001
ACDBATTR
1070
     0
1070
     1
  0
ATTDEF
  5
3932
  8
DEFPOINTS
 10
3142.7707336468802168
 20
43.2047443312349699
 30
0.0
 40
0.001
  1
KITCHEN SINK FAUCET
  3

  2
PRODUCT
 70
     0
1001
ACDBATTR
1070
     0
1070
     1
  0
LINE
  5
68D1
  8
0
 10
3142.3639956556908146
 20
37.7047829387146791
 30
0.0
 11
3142.3639956556908146
 21
43.2036839734613096
 31
0.0
  0
LINE
  5
68D2
  8
0
 10
3144.1805156556911243
 20
42.5796831860613025
 30
0.0
 11
3144.1805156556911243
 21
43.8276847608613025
 31
0.0
  0
LINE
  5
68D3
  8
0
 10
3144.2395707737878183
 20
42.5796831860613096
 30
0.0
 11
3144.2395707737869088
 21
43.8276847608613096
 31
0.0
  0
LINE
  5
68D4
  8
0
 10
3144.9243501936912253
 20
42.5764268528518528
 30
0.0
 11
3144.9243501936912253
 21
43.8309410940198276
 31
0.0
  0
ARC
  5
68D5
  8
0
 10
3142.7789956556907782
 20
43.2036839734613096
 30
0.0
 40
0.7500000000000009
 50
303.5959954815136825
 51
236.4040045184862038
  0
ARC
  5
68D6
  8
0
 10
3142.7789956556907782
 20
43.2036839734613096
 30
0.0
 40
0.415000000000001
 50
0.0
 51
180.0
  0
ARC
  5
68D7
  8
0
 10
3142.7789956556907782
 20
37.7124263552231511
 30
0.0
 40
0.4150703817618448
 50
181.0551469844338897
 51
358.9448530155660819
  0
LINE
  5
68D8
  8
0
 10
3143.1939956556911966
 20
37.7047829387146791
 30
0.0
 11
3143.1939956556911966
 21
43.2036839734613096
 31
0.0
  0
LINE
  5
68D9
  8
0
 10
3143.1826668659018651
 20
43.8536839734614006
 30
0.0
 11
3144.1505156556900147
 21
43.8536839734612371
 31
0.0
  0
LINE
  5
68DA
  8
0
 10
3144.2695707737871089
 20
43.8536839734612229
 30
0.0
 11
3144.8952411881909939
 21
43.8536839734611306
 31
0.0
  0
LINE
  5
68DB
  8
0
 10
3143.1939956556911966
 20
42.5536839734612968
 30
0.0
 11
3144.1505156556900147
 21
42.5536839734612968
 31
0.0
  0
LINE
  5
68DC
  8
0
 10
3144.2695707737880184
 20
42.5536839734612968
 30
0.0
 11
3144.8952411882041815
 21
42.5536839734612968
 31
0.0
  0
ARC
  5
68DD
  8
0
 10
3143.1838884233288809
 20
43.9734170323335505
 30
0.0
 40
0.119739290082364
 50
242.9791337502072963
 51
269.4154692326000031
  0
ARC
  5
68DE
  8
0
 10
3144.1505156556900147
 20
42.5836839734613122
 30
0.0
 40
0.03
 50
270.0
 51
0.0000000000069209
  0
ARC
  5
68DF
  8
0
 10
3144.1505156556900147
 20
43.8236839734612502
 30
0.0
 40
0.03
 50
0.0
 51
90.0
  0
ARC
  5
68E0
  8
0
 10
3144.2695707737871089
 20
43.8236839734612289
 30
0.0
 40
0.03
 50
90.0
 51
180.0000000000273133
  0
ARC
  5
68E1
  8
0
 10
3144.2695707737880184
 20
42.5836839734613122
 30
0.0
 40
0.03
 50
180.0000000000065086
 51
270.0
  0
ARC
  5
68E2
  8
0
 10
3142.4083618185982232
 20
43.2036839734358367
 30
0.0
 40
2.5929999997925859
 50
346.0010556228978089
 51
13.9989443782657297
  0
ARC
  5
68E3
  8
0
 10
3144.8952411882041815
 20
42.5836839734613193
 30
0.0
 40
0.03
 50
270.0
 51
346.0010556228721157
  0
ARC
  5
68E4
  8
0
 10
3144.8952411881909939
 20
43.8236839734611223
 30
0.0
 40
0.03
 50
13.99894437828506
 51
89.9999999999739515
  0
LINE
  5
68E5
  8
0
 10
3144.200215655690954
 20
43.8473847608613028
 30
0.0
 11
3144.2198707737870791
 21
43.8473847608613028
 31
0.0
  0
LINE
  5
68E6
  8
0
 10
3144.200215655690954
 20
42.5599831860613023
 30
0.0
 11
3144.2198707737879886
 21
42.5599831860613023
 31
0.0
  0
ARC
  5
68E7
  8
0
 10
3144.200215655690954
 20
43.8276847608613025
 30
0.0
 40
0.0197
 50
90.0
 51
180.0
  0
ARC
  5
68E8
  8
0
 10
3144.2198707737870791
 20
43.8276847608613025
 30
0.0
 40
0.0197
 50
0.0000000000309404
 51
90.0
  0
ARC
  5
68E9
  8
0
 10
3144.200215655690954
 20
42.5796831860613025
 30
0.0
 40
0.0197
 50
179.9999999999893987
 51
270.0
  0
ARC
  5
68EA
  8
0
 10
3144.2198707737879886
 20
42.5796831860613096
 30
0.0
 40
0.0197
 50
270.0
 51
359.9999999999894271
  0
CIRCLE
  5
68EB
  8
0
 10
3144.5689317737910642
 20
43.2036839734613096
 30
0.0
 40
0.1699999999999999
  0
LINE
  5
68EC
  8
0
 10
3142.6786019548899276
 20
43.6173790191681832
 30
0.0
 11
3142.6786019548899276
 21
43.6063576687030974
 31
0.0
  0
LINE
  5
68ED
  8
0
 10
3142.8793893564911741
 20
43.6173790191681832
 30
0.0
 11
3142.8793893564911741
 21
43.6063576687030974
 31
0.0
  0
ARC
  5
68EE
  8
0
 10
3142.7782547755928135
 20
43.2276148127937816
 30
0.0
 40
0.4113425567771582
 50
89.8968029809357745
 51
102.7021912066967957
  0
ARC
  5
68EF
  8
0
 10
3142.7797365357878334
 20
43.2276148127937816
 30
0.0
 40
0.4113425567771582
 50
77.2978087933031759
 51
90.1031970190642255
  0
ARC
  5
68F0
  8
0
 10
3142.6904019548910583
 20
43.6173790191681476
 30
0.0
 40
0.0118
 50
102.7021912069645992
 51
179.9999999998620126
  0
ARC
  5
68F1
  8
0
 10
3142.8675893564909529
 20
43.617379019168169
 30
0.0
 40
0.0118
 50
0.0000000001034062
 51
77.2978087930358413
  0
ARC
  5
68F2
  8
0
 10
3142.7789956556907782
 20
43.2036839734613096
 30
0.0
 40
0.875
 50
47.9753724206387275
 51
241.6871468583211993
  0
ARC
  5
68F3
  8
0
 10
3142.7789956556907782
 20
43.2036839734613096
 30
0.0
 40
1.0
 50
294.5193164833784749
 51
319.4583981265026864
  0
ARC
  5
68F4
  8
0
 10
3142.7789956556907782
 20
43.2036839734613096
 30
0.0
 40
1.0
 50
40.5416018734988626
 51
245.4806835166214967
  0
ENDSEC
  0
EOF
