  0
SECTION
  2
HEADER
  9
$ACADVER
  1
AC1009
  9
$INSBASE
 10
4118.4631043468216376
 20
163.3901446814726057
 30
0.0
  9
$EXTMIN
 10
4101.1402697011717464
 20
158.4688848389226052
 30
0.0
  9
$EXTMAX
 10
4135.7859389924733478
 20
163.3949962350897067
 30
0.0
  9
$LIMMIN
 10
0.0
 20
0.0
  9
$LIMMAX
 10
11.6929133858000007
 20
8.2677165353999982
  9
$ORTHOMODE
 70
     0
  9
$REGENMODE
 70
     1
  9
$FILLMODE
 70
     1
  9
$QTEXTMODE
 70
     0
  9
$MIRRTEXT
 70
     0
  9
$DRAGMODE
 70
     2
  9
$LTSCALE
 40
0.6431102362
  9
$OSMODE
 70
  4095
  9
$ATTMODE
 70
     1
  9
$TEXTSIZE
 40
0.2
  9
$TRACEWID
 40
0.05
  9
$TEXTSTYLE
  7
STANDARD
  9
$CLAYER
  8
0
  9
$CELTYPE
  6
BYLAYER
  9
$CECOLOR
 62
   256
  9
$DIMSCALE
 40
1.0
  9
$DIMASZ
 40
0.1875
  9
$DIMEXO
 40
0.0625
  9
$DIMDLI
 40
0.4443307087
  9
$DIMRND
 40
0.0
  9
$DIMDLE
 40
0.0
  9
$DIMEXE
 40
0.125
  9
$DIMTP
 40
0.01
  9
$DIMTM
 40
0.01
  9
$DIMTXT
 40
2.0
  9
$DIMCEN
 40
0.1052362205
  9
$DIMTSZ
 40
0.0
  9
$DIMTOL
 70
     1
  9
$DIMLIM
 70
     0
  9
$DIMTIH
 70
     1
  9
$DIMTOH
 70
     1
  9
$DIMSE1
 70
     0
  9
$DIMSE2
 70
     0
  9
$DIMTAD
 70
     0
  9
$DIMZIN
 70
     0
  9
$DIMBLK
  1

  9
$DIMASO
 70
     1
  9
$DIMSHO
 70
     1
  9
$DIMPOST
  1
\X
  9
$DIMAPOST
  1

  9
$DIMALT
 70
     1
  9
$DIMALTD
 70
     2
  9
$DIMALTF
 40
25.3999999999999986
  9
$DIMLFAC
 40
1.0
  9
$DIMTOFL
 70
     0
  9
$DIMTVP
 40
0.0
  9
$DIMTIX
 70
     0
  9
$DIMSOXD
 70
     0
  9
$DIMSAH
 70
     0
  9
$DIMBLK1
  1

  9
$DIMBLK2
  1

  9
$DIMSTYLE
  2
STANDARD
  9
$DIMCLRD
 70
     0
  9
$DIMCLRE
 70
     0
  9
$DIMCLRT
 70
     0
  9
$DIMTFAC
 40
1.0
  9
$DIMGAP
 40
0.09
  9
$LUNITS
 70
     2
  9
$LUPREC
 70
     4
  9
$SKETCHINC
 40
0.1
  9
$FILLETRAD
 40
0.0
  9
$AUNITS
 70
     0
  9
$AUPREC
 70
     0
  9
$MENU
  1
.
  9
$ELEVATION
 40
0.0
  9
$PELEVATION
 40
0.0
  9
$THICKNESS
 40
0.0
  9
$LIMCHECK
 70
     0
  9
$BLIPMODE
 70
     0
  9
$CHAMFERA
 40
0.0
  9
$CHAMFERB
 40
0.0
  9
$SKPOLY
 70
     0
  9
$TDCREATE
 40
2458060.468368056230247
  9
$TDUPDATE
 40
2459804.6963425930589437
  9
$TDINDWG
 40
0.3256204861
  9
$TDUSRTIMER
 40
0.3256204861
  9
$USRTIMER
 70
     1
  9
$ANGBASE
 50
0.0
  9
$ANGDIR
 70
     0
  9
$PDMODE
 70
     0
  9
$PDSIZE
 40
0.3125
  9
$PLINEWID
 40
0.0
  9
$COORDS
 70
     1
  9
$SPLFRAME
 70
     0
  9
$SPLINETYPE
 70
     6
  9
$SPLINESEGS
 70
     8
  9
$ATTDIA
 70
     1
  9
$ATTREQ
 70
     1
  9
$HANDLING
 70
     1
  9
$HANDSEED
  5
8C08
  9
$SURFTAB1
 70
     6
  9
$SURFTAB2
 70
     6
  9
$SURFTYPE
 70
     6
  9
$SURFU
 70
     6
  9
$SURFV
 70
     6
  9
$UCSNAME
  2

  9
$UCSORG
 10
0.0
 20
0.0
 30
0.0
  9
$UCSXDIR
 10
1.0
 20
0.0
 30
0.0
  9
$UCSYDIR
 10
0.0
 20
1.0
 30
0.0
  9
$PUCSNAME
  2

  9
$PUCSORG
 10
0.0
 20
0.0
 30
0.0
  9
$PUCSXDIR
 10
1.0
 20
0.0
 30
0.0
  9
$PUCSYDIR
 10
0.0
 20
1.0
 30
0.0
  9
$USERI1
 70
     0
  9
$USERI2
 70
     0
  9
$USERI3
 70
     0
  9
$USERI4
 70
     0
  9
$USERI5
 70
     0
  9
$USERR1
 40
0.0
  9
$USERR2
 40
0.0
  9
$USERR3
 40
0.0
  9
$USERR4
 40
0.0
  9
$USERR5
 40
0.0
  9
$WORLDVIEW
 70
     1
  9
$SHADEDGE
 70
     3
  9
$SHADEDIF
 70
    70
  9
$TILEMODE
 70
     1
  9
$MAXACTVP
 70
    64
  9
$PLIMCHECK
 70
     0
  9
$PEXTMIN
 10
1.0000000000000000E+20
 20
1.0000000000000000E+20
 30
1.0000000000000000E+20
  9
$PEXTMAX
 10
-1.0000000000000000E+20
 20
-1.0000000000000000E+20
 30
-1.0000000000000000E+20
  9
$PLIMMIN
 10
0.0
 20
0.0
  9
$PLIMMAX
 10
12.0
 20
9.0
  9
$UNITMODE
 70
     0
  9
$VISRETAIN
 70
     1
  9
$PLINEGEN
 70
     0
  9
$PSLTSCALE
 70
     1
  0
ENDSEC
  0
SECTION
  2
TABLES
  0
TABLE
  2
VPORT
 70
     1
  0
VPORT
  2
*ACTIVE
 70
     0
 10
0.0
 20
0.0
 11
1.0
 21
1.0
 12
20.2761371934274486
 22
36.4563289361503706
 13
0.0
 23
0.0
 14
1.0
 24
1.0
 15
0.0
 25
0.0
 16
0.0
 26
0.0
 36
13.9604298007306795
 17
4098.194091796875
 27
126.9318962097167969
 37
0.0
 40
0.0164468122743641
 41
2.4474358974358972
 42
50.0
 43
0.0
 44
0.0
 50
0.0
 51
0.0
 71
     0
 72
   100
 73
     1
 74
     1
 75
     0
 76
     0
 77
     0
 78
     0
  0
ENDTAB
  0
TABLE
  2
LTYPE
 70
     2
  0
LTYPE
  2
CONTINUOUS
 70
     0
  3
Solid line
 72
    65
 73
     0
 40
0.0
  0
LTYPE
  2
PHANTOM2
 70
     0
  3
___ _ _ ___ _ _ ___ _ _ ___ _ _
 72
    65
 73
     6
 40
1.25
 49
0.625
 49
-0.125
 49
0.125
 49
-0.125
 49
0.125
 49
-0.125
  0
ENDTAB
  0
TABLE
  2
LAYER
 70
     2
  0
LAYER
  2
0
 70
     0
 62
   255
  6
CONTINUOUS
  0
LAYER
  2
DEFPOINTS
 70
     0
 62
     7
  6
CONTINUOUS
  0
ENDTAB
  0
TABLE
  2
STYLE
 70
     1
  0
STYLE
  2
STANDARD
 70
     0
 40
0.0
 41
0.8
 50
0.0
 71
     0
 42
0.2
  3
txt
  4

  0
ENDTAB
  0
TABLE
  2
VIEW
 70
     0
  0
ENDTAB
  0
TABLE
  2
UCS
 70
     0
  0
ENDTAB
  0
TABLE
  2
APPID
 70
     9
  0
APPID
  2
ACAD
 70
     0
  0
APPID
  2
ACAD_MLEADERVER
 70
     0
  0
APPID
  2
ACAD_EXEMPT_FROM_CAD_STANDARDS
 70
     0
  0
APPID
  2
ACAD_NAV_VCDISPLAY
 70
     0
  0
APPID
  2
ACAECLAYERSTANDARD
 70
     0
  0
APPID
  2
ACCMTRANSPARENCY
 70
     0
  0
APPID
  2
ACAD_DSTYLE_DIMJAG
 70
     0
  0
APPID
  2
ACAD_DSTYLE_DIMTALN
 70
     0
  0
APPID
  2
ACDBATTR
 70
     0
  0
ENDTAB
  0
TABLE
  2
DIMSTYLE
 70
     1
  0
DIMSTYLE
  2
STANDARD
 70
     0
  3

  4

  5

  6

  7

 40
1.0
 41
0.1875
 42
0.0625
 43
0.38
 44
0.125
 45
0.0
 46
0.0
 47
0.01
 48
0.01
140
0.15625
141
0.09
142
0.0
143
25.3999999999999986
144
1.0
145
0.0
146
1.0
147
0.09
 71
     1
 72
     0
 73
     1
 74
     1
 75
     0
 76
     0
 77
     0
 78
     4
170
     0
171
     2
172
     0
173
     0
174
     0
175
     0
176
     0
177
     0
178
     0
  0
ENDTAB
  0
ENDSEC
  0
SECTION
  2
BLOCKS
  0
BLOCK
  8
0
  2
$MODEL_SPACE
 70
     0
 10
0.0
 20
0.0
 30
0.0
  3
$MODEL_SPACE
  1

  0
ENDBLK
  5
21
  8
0
  0
BLOCK
 67
     1
  8
0
  2
$PAPER_SPACE
 70
     0
 10
0.0
 20
0.0
 30
0.0
  3
$PAPER_SPACE
  1

  0
ENDBLK
  5
1D
 67
     1
  8
0
  0
BLOCK
  8
0
  2
_FILLED
 70
     0
 10
0.0
 20
0.0
 30
0.0
  3
_FILLED
  1

  0
SOLID
  5
8306
  8
0
  6
BYBLOCK
 62
     0
 10
0.0
 20
0.0
 30
0.0
 11
-1.0
 21
0.1666666667
 31
0.0
 12
-1.0
 22
-0.1666666667
 32
0.0
 13
-1.0
 23
-0.1666666667
 33
0.0
  0
ENDBLK
  5
8307
  8
0
  6
BYBLOCK
 62
     0
  0
ENDSEC
  0
SECTION
  2
ENTITIES
  0
ATTDEF
  5
3930
  8
DEFPOINTS
 10
4118.4637854852244345
 20
163.3939962350895883
 30
0.0
 40
0.001
  1
K-26377T
  3

  2
MODELNUMBER
 70
     0
1001
ACDBATTR
1070
     0
1070
     1
  0
ATTDEF
  5
3931
  8
DEFPOINTS
 10
4118.4637854852244345
 20
163.3923295684228947
 30
0.0
 40
0.001
  1

  3

  2
TRADENAME
 70
     0
1001
ACDBATTR
1070
     0
1070
     1
  0
ATTDEF
  5
3932
  8
DEFPOINTS
 10
4118.4637854852244345
 20
163.3906629017562011
 30
0.0
 40
0.001
  1
MEDICINE CABINET
  3

  2
PRODUCT
 70
     0
1001
ACDBATTR
1070
     0
1070
     1
  0
LINE
  5
8905
  8
0
 10
4101.1402697011717464
 20
158.5082848389226058
 30
0.0
 11
4101.1402697011717464
 21
160.0042879885226057
 31
0.0
  0
LINE
  5
8906
  8
0
 10
4101.1402697011717464
 20
160.0830580673226109
 30
0.0
 11
4101.1402697011717464
 21
163.2720344452226016
 31
0.0
  0
LINE
  5
8907
  8
0
 10
4102.7741279688716531
 20
158.5003809019225969
 30
0.0
 11
4102.7741279688716531
 21
158.5554990121225956
 31
0.0
  0
LINE
  5
8908
  8
0
 10
4102.7150728507731401
 20
158.5082848389226058
 30
0.0
 11
4102.7150728507731401
 21
160.0042879885226057
 31
0.0
  0
ARC
  5
8909
  8
0
 10
4102.6756728507716616
 20
160.0042879885226057
 30
0.0
 40
0.0394
 50
0.0
 51
90.0
  0
LINE
  5
890A
  8
0
 10
4101.1796697011732249
 20
158.4688848389226052
 30
0.0
 11
4102.6756728507716616
 21
158.4688848389226052
 31
0.0
  0
LINE
  5
890B
  8
0
 10
4102.8056240318719574
 20
158.4688848389226052
 30
0.0
 11
4122.3095610397731434
 21
158.4688848389226052
 31
0.0
  0
LINE
  5
890C
  8
0
 10
4122.4906634019716876
 20
158.4688848389226052
 30
0.0
 11
4134.1205846617731368
 21
158.4688848389226052
 31
0.0
  0
ARC
  5
890D
  8
0
 10
4101.1796697011732249
 20
158.5082848389226058
 30
0.0
 40
0.0394
 50
180.0
 51
270.0
  0
LINE
  5
890E
  8
0
 10
4101.1796697011732249
 20
160.0436879885226062
 30
0.0
 11
4102.6756728507716616
 21
160.0436879885226062
 31
0.0
  0
LINE
  5
890F
  8
0
 10
4134.2505358428716136
 20
160.0436879885226062
 30
0.0
 11
4135.7465689137734444
 21
160.0436879885226062
 31
0.0
  0
ARC
  5
8910
  8
0
 10
4101.1796697011732249
 20
160.0042879885226057
 30
0.0
 40
0.0394
 50
90.0
 51
180.0000000000098055
  0
ARC
  5
8911
  8
0
 10
4102.6756728507716616
 20
158.5082848389226058
 30
0.0
 40
0.0394
 50
270.0
 51
0.0000000000097707
  0
LINE
  5
8912
  8
0
 10
4102.7741279688716531
 20
158.5554990121225956
 30
0.0
 11
4102.8056240318719574
 21
158.5869950751225872
 31
0.0
  0
LINE
  5
8913
  8
0
 10
4102.7741279688716531
 20
158.5003809019225969
 30
0.0
 11
4102.8056240318719574
 21
158.4688848389226052
 31
0.0
  0
LINE
  5
8914
  8
0
 10
4102.661967338973227
 20
160.0377824767226116
 30
0.0
 11
4101.193375212972569
 21
160.0377824767226116
 31
0.0
  0
LINE
  5
8915
  8
0
 10
4101.1461752129716842
 20
158.5219903507226036
 30
0.0
 11
4101.1461752129716842
 21
159.9905824767226079
 31
0.0
  0
LINE
  5
8916
  8
0
 10
4102.7091673389732023
 20
158.5219903507226036
 30
0.0
 11
4102.7091673389732023
 21
159.9905824767226079
 31
0.0
  0
LINE
  5
8917
  8
0
 10
4101.193375212972569
 20
158.4747903507225999
 30
0.0
 11
4102.661967338973227
 21
158.4747903507225999
 31
0.0
  0
ARC
  5
8918
  8
0
 10
4101.193375212972569
 20
158.5219903507226036
 30
0.0
 40
0.0472
 50
180.0
 51
270.0
  0
ARC
  5
8919
  8
0
 10
4102.661967338973227
 20
158.5219903507226036
 30
0.0
 40
0.0472
 50
270.0
 51
0.0
  0
ARC
  5
891A
  8
0
 10
4102.661967338973227
 20
159.9905824767226079
 30
0.0
 40
0.0472
 50
0.0000000000162844
 51
90.0
  0
ARC
  5
891B
  8
0
 10
4101.193375212972569
 20
159.9905824767226079
 30
0.0
 40
0.0472
 50
90.0
 51
179.9999999999917861
  0
LINE
  5
891C
  8
0
 10
4101.1402697011717464
 20
160.0830580673226109
 30
0.0
 11
4101.1796397798716498
 21
160.0436879885226062
 31
0.0
  0
LINE
  5
891D
  8
0
 10
4101.25837993737332
 20
163.2720344452226016
 30
0.0
 11
4101.25837993737332
 21
160.0830580673226109
 31
0.0
  0
LINE
  5
891E
  8
0
 10
4101.1402697011717464
 20
163.2720344452226016
 30
0.0
 11
4101.1796397798716498
 21
163.3114045240226062
 31
0.0
  0
LINE
  5
891F
  8
0
 10
4101.1796397798716498
 20
163.3114045240226062
 30
0.0
 11
4101.2190098586734166
 21
163.3114045240226062
 31
0.0
  0
LINE
  5
8920
  8
0
 10
4101.2190098586734166
 20
163.3114045240226062
 30
0.0
 11
4101.25837993737332
 21
163.2720344452226016
 31
0.0
  0
LINE
  5
8921
  8
0
 10
4101.1599547405230624
 20
163.2917194846226039
 30
0.0
 11
4101.1796397798716498
 21
163.2720344452226016
 31
0.0
  0
LINE
  5
8922
  8
0
 10
4101.1796397798716498
 20
163.2720344452226016
 30
0.0
 11
4101.2190098586734166
 21
163.2720344452226016
 31
0.0
  0
LINE
  5
8923
  8
0
 10
4101.2190098586734166
 20
163.2720344452226016
 30
0.0
 11
4101.2386948980729358
 21
163.2917194845726101
 31
0.0
  0
LINE
  5
8924
  8
0
 10
4101.1796397798716498
 20
163.2720344452226016
 30
0.0
 11
4101.1796397798716498
 21
160.0830580673226109
 31
0.0
  0
LINE
  5
8925
  8
0
 10
4101.2190098586734166
 20
163.2720344452226016
 30
0.0
 11
4101.2190098586734166
 21
160.0830580673226109
 31
0.0
  0
LINE
  5
8926
  8
0
 10
4101.25837993737332
 20
160.0830580673226109
 30
0.0
 11
4101.2190098586734166
 21
160.0436879885226062
 31
0.0
  0
LINE
  5
8927
  8
0
 10
4101.1599547405230624
 20
160.0633730279226086
 30
0.0
 11
4101.1796397798716498
 21
160.0830580673226109
 31
0.0
  0
LINE
  5
8928
  8
0
 10
4101.1796397798716498
 20
160.0830580673226109
 30
0.0
 11
4101.2190098586734166
 21
160.0830580673226109
 31
0.0
  0
LINE
  5
8929
  8
0
 10
4101.2190098586734166
 20
160.0830580673226109
 30
0.0
 11
4101.2386948979728913
 21
160.0633730279226086
 31
0.0
  0
LINE
  5
892A
  8
0
 10
4101.6166476538719508
 20
160.0436879885226062
 30
0.0
 11
4101.6166476539729047
 21
160.1027431066426061
 31
0.0
  0
ARC
  5
892B
  8
0
 10
4101.6284586775727803
 20
160.1027431066225972
 30
0.0
 40
0.0118110236000018
 50
90.0
 51
179.9999999029789137
  0
LINE
  5
892C
  8
0
 10
4101.6284586775727803
 20
160.1145541302225865
 30
0.0
 11
4101.6914508035733888
 21
160.1145541302225865
 31
0.0
  0
LINE
  5
892D
  8
0
 10
4101.6914508035733888
 20
160.0436879885226062
 30
0.0
 11
4101.6914508035733888
 21
160.1224281460225995
 31
0.0
  0
LINE
  5
892E
  8
0
 10
4101.6914508035733888
 20
160.1224281460225995
 30
0.0
 11
4101.8489311184730468
 21
160.1224281460225995
 31
0.0
  0
LINE
  5
892F
  8
0
 10
4101.8489311184730468
 20
160.1224281460225995
 30
0.0
 11
4101.8686161578716565
 21
160.1145541303226025
 31
0.0
  0
LINE
  5
8930
  8
0
 10
4101.8686161578716565
 20
160.1145541303226025
 30
0.0
 11
4101.8883011972729946
 21
160.1224281460225995
 31
0.0
  0
LINE
  5
8931
  8
0
 10
4101.8883011972729946
 20
160.1224281460225995
 30
0.0
 11
4102.4197972601732545
 21
160.1224281460225995
 31
0.0
  0
LINE
  5
8932
  8
0
 10
4102.4197972601732545
 20
160.1224281460225995
 30
0.0
 11
4102.4394822995727736
 21
160.1145541303226025
 31
0.0
  0
LINE
  5
8933
  8
0
 10
4102.4394822995727736
 20
160.1145541303226025
 30
0.0
 11
4102.4591673389732023
 21
160.1224281460225995
 31
0.0
  0
LINE
  5
8934
  8
0
 10
4102.4591673389732023
 20
160.1224281460225995
 30
0.0
 11
4102.9119232444718364
 21
160.1224281460225995
 31
0.0
  0
ARC
  5
8935
  8
0
 10
4101.6562951915902886
 20
160.1147101363227137
 30
0.0
 40
0.0156060338753212
 50
94.9838748668225463
 51
180.5727604935702004
  0
LINE
  5
8936
  8
0
 10
4101.654939411567284
 20
160.1302571667094981
 30
0.0
 11
4101.7701909609731956
 21
160.1303021617225966
 31
0.0
  0
LINE
  5
8937
  8
0
 10
4101.7701909609731956
 20
160.1224281460225995
 30
0.0
 11
4101.7701909609731956
 21
160.1617982247225882
 31
0.0
  0
ARC
  5
8938
  8
0
 10
4101.7898801349638234
 20
160.1617982247225882
 30
0.0
 40
0.0196891739909031
 50
91.17421535253591
 51
180.0000000000015916
  0
LINE
  5
8939
  8
0
 10
4101.7894766547733525
 20
160.1814832641225905
 30
0.0
 11
4102.0654515909727706
 21
160.1814832641225905
 31
0.0
  0
LINE
  5
893A
  8
0
 10
4102.0851515909716909
 20
160.1224281460225995
 30
0.0
 11
4102.0851515909716909
 21
160.1617832641225903
 31
0.0
  0
ARC
  5
893B
  8
0
 10
4102.0654515909727706
 20
160.1617832641225903
 30
0.0
 40
0.0197
 50
0.0
 51
90.0
  0
ARC
  5
893C
  8
0
 10
4101.6599547405730846
 20
160.1106171224226102
 30
0.0
 40
0.0590551181000027
 50
19.4493060292194109
 51
222.8334279328944945
  0
ARC
  5
893D
  8
0
 10
4101.8883011972729946
 20
160.1106171224226102
 30
0.0
 40
0.0314960629999992
 50
22.0243127879909117
 51
164.8633346743573895
  0
ARC
  5
893E
  8
0
 10
4101.9670413546718919
 20
160.1106171224226102
 30
0.0
 40
0.0314960630000027
 50
22.0243127879893983
 51
157.9756872120121045
  0
LINE
  5
893F
  8
0
 10
4102.0851515909716909
 20
160.1303021617225966
 30
0.0
 11
4102.1993567250729029
 21
160.1303021617225966
 31
0.0
  0
ARC
  5
8940
  8
0
 10
4102.1993567250729029
 20
160.1143632564723873
 30
0.0
 40
0.0159389052502306
 50
30.4019481371353208
 51
90.0
  0
ARC
  5
8941
  8
0
 10
4102.1953878113727114
 20
160.1106171224226102
 30
0.0
 40
0.0590551181000026
 50
11.5369590130161797
 51
160.5287794341199117
  0
LINE
  5
8942
  8
0
 10
4102.7347728507720603
 20
159.6499872011225989
 30
0.0
 11
4102.8331681263716746
 21
159.6499872011225989
 31
0.0
  0
ARC
  5
8943
  8
0
 10
4102.7347728507720603
 20
159.6302872011225986
 30
0.0
 40
0.0197
 50
90.0
 51
180.0
  0
LINE
  5
8944
  8
0
 10
4102.8528681263733233
 20
159.6302872011225986
 30
0.0
 11
4102.8528681263733233
 21
159.6066950751225875
 31
0.0
  0
ARC
  5
8945
  8
0
 10
4102.8331681263716746
 20
159.6302872011225986
 30
0.0
 40
0.0197
 50
0.0000000000032569
 51
90.0
  0
LINE
  5
8946
  8
0
 10
4102.7977649767726689
 20
159.5869950751225872
 30
0.0
 11
4102.8331681263716746
 21
159.5869950751225872
 31
0.0
  0
ARC
  5
8947
  8
0
 10
4102.8331681263716746
 20
159.6066950751225875
 30
0.0
 40
0.0197
 50
270.0
 51
0.0000000000048853
  0
LINE
  5
8948
  8
0
 10
4102.7780649767728391
 20
159.5672950751225869
 30
0.0
 11
4102.7780649767728391
 21
159.5358289334226072
 31
0.0
  0
ARC
  5
8949
  8
0
 10
4102.7977649767726689
 20
159.5672950751225869
 30
0.0
 40
0.0197
 50
90.0
 51
180.0
  0
LINE
  5
894A
  8
0
 10
4102.7977649767726689
 20
159.5161289334226069
 30
0.0
 11
4103.6166326932725497
 21
159.5161289334226069
 31
0.0
  0
ARC
  5
894B
  8
0
 10
4103.6166326932725497
 20
159.5358289334226072
 30
0.0
 40
0.0197
 50
270.0
 51
0.0
  0
ARC
  5
894C
  8
0
 10
4102.7977649767726689
 20
159.5358289334226072
 30
0.0
 40
0.0197
 50
180.0
 51
270.0
  0
LINE
  5
894D
  8
0
 10
4103.6363326932732889
 20
159.6893572799226035
 30
0.0
 11
4103.6363326932732889
 21
159.5358289334226072
 31
0.0
  0
LINE
  5
894E
  8
0
 10
4103.699324819272988
 20
159.6893572799226035
 30
0.0
 11
4103.699324819272988
 21
159.4531368074225952
 31
0.0
  0
LINE
  5
894F
  8
0
 10
4102.7347728507720603
 20
159.4531368074225952
 30
0.0
 11
4103.6796248192731582
 21
159.4531368074225952
 31
0.0
  0
ARC
  5
8950
  8
0
 10
4103.6796248192731582
 20
159.4728368074225955
 30
0.0
 40
0.0197
 50
270.0
 51
0.0
  0
ARC
  5
8951
  8
0
 10
4102.7347728507720603
 20
159.4728368074225955
 30
0.0
 40
0.0197
 50
180.0
 51
270.0
  0
LINE
  5
8952
  8
0
 10
4102.9119232444718364
 20
159.6893572799226035
 30
0.0
 11
4102.9119232444727459
 21
163.1539242090225912
 31
0.0
  0
LINE
  5
8953
  8
0
 10
4102.9119232444718364
 20
159.6893572799226035
 30
0.0
 11
4134.2111358428728636
 21
159.6893572799226035
 31
0.0
  0
LINE
  5
8954
  8
0
 10
4103.699324819272988
 20
159.4531368074225952
 30
0.0
 11
4133.2268838743730157
 21
159.4531368074225952
 31
0.0
  0
LINE
  5
8955
  8
0
 10
4133.2465838743728455
 20
159.4531368074225952
 30
0.0
 11
4134.1914358428730338
 21
159.4531368074225952
 31
0.0
  0
LINE
  5
8956
  8
0
 10
4104.6783011205716321
 20
159.4305553358225893
 30
0.0
 11
4103.8121593882733578
 21
159.4305553358225893
 31
0.0
  0
LINE
  5
8957
  8
0
 10
4103.7633746761730436
 20
159.3321301389225937
 30
0.0
 11
4102.9889310417729575
 21
159.3321301389225937
 31
0.0
  0
LINE
  5
8958
  8
0
 10
4103.8121593882733578
 20
159.4305553358225893
 30
0.0
 11
4103.8121593882733578
 21
159.3124450996226074
 31
0.0
  0
LINE
  5
8959
  8
0
 10
4103.8121593882733578
 20
159.3124450996226074
 30
0.0
 11
4104.6783011205716321
 21
159.3124450996226074
 31
0.0
  0
LINE
  5
895A
  8
0
 10
4104.6783011205716321
 20
159.3124450996226074
 30
0.0
 11
4104.6783011205716321
 21
159.4305553358225893
 31
0.0
  0
LINE
  5
895B
  8
0
 10
4103.7633746761730436
 20
159.3321301389225937
 30
0.0
 11
4103.8121593882733578
 21
159.3589873994226025
 31
0.0
  0
LINE
  5
895C
  8
0
 10
4102.9889310417729575
 20
159.3321301389225937
 30
0.0
 11
4102.9889310417729575
 21
159.2484123980225945
 31
0.0
  0
LINE
  5
895D
  8
0
 10
4102.8134980476734199
 20
159.2484123980225945
 30
0.0
 11
4120.7859389924733478
 21
159.2484123980225945
 31
0.0
  0
LINE
  5
895E
  8
0
 10
4120.8115445042731153
 20
159.2484123980225945
 30
0.0
 11
4122.3016870239725904
 21
159.2484123980225945
 31
0.0
  0
LINE
  5
895F
  8
0
 10
4122.4985374176731057
 20
159.2484123980225945
 30
0.0
 11
4134.2170413546728014
 21
159.2484123980225945
 31
0.0
  0
ARC
  5
8960
  8
0
 10
4120.8115445042731153
 20
159.2287123980225942
 30
0.0
 40
0.0197
 50
90.0
 51
180.0
  0
LINE
  5
8961
  8
0
 10
4102.8134980476734199
 20
159.2484123980225945
 30
0.0
 11
4102.8134980476734199
 21
158.6184911381226073
 31
0.0
  0
LINE
  5
8962
  8
0
 10
4102.8056240318719574
 20
158.5869950751225872
 30
0.0
 11
4122.3095610397731434
 21
158.5869950751225872
 31
0.0
  0
LINE
  5
8963
  8
0
 10
4122.4906634019716876
 20
158.5869950751225872
 30
0.0
 11
4134.1205846617731368
 21
158.5869950751225872
 31
0.0
  0
LINE
  5
8964
  8
0
 10
4102.8134980476734199
 20
158.6184911381226073
 30
0.0
 11
4120.7859389924733478
 21
158.6184911381226073
 31
0.0
  0
LINE
  5
8965
  8
0
 10
4120.7859389924733478
 20
158.6184911381226073
 30
0.0
 11
4122.3016870239725904
 21
158.6184911381226073
 31
0.0
  0
LINE
  5
8966
  8
0
 10
4122.4985374176731057
 20
158.6184911381226073
 30
0.0
 11
4134.1127106459725837
 21
158.6184911381226073
 31
0.0
  0
ARC
  5
8967
  8
0
 10
4120.8115445042731153
 20
158.6381911381226075
 30
0.0
 40
0.0197
 50
180.0
 51
270.0
  0
LINE
  5
8968
  8
0
 10
4102.8134980476734199
 20
158.7169163350226029
 30
0.0
 11
4120.7859389924733478
 21
158.7169163350226029
 31
0.0
  0
LINE
  5
8969
  8
0
 10
4120.8312145830723239
 20
158.7169163350226029
 30
0.0
 11
4122.2505715251727452
 21
158.7169163350226029
 31
0.0
  0
LINE
  5
896A
  8
0
 10
4122.4985374176731057
 20
158.7169163350226029
 30
0.0
 11
4134.1127106459725837
 21
158.7169163350226029
 31
0.0
  0
CIRCLE
  5
896B
  8
0
 10
4103.2071988350726315
 20
158.9925068862225999
 30
0.0
 40
0.1574803150000008
  0
CIRCLE
  5
896C
  8
0
 10
4103.2071988350726315
 20
158.9925068862225999
 30
0.0
 40
0.0787401575000004
  0
ARC
  5
896D
  8
0
 10
4103.2071988350726315
 20
158.9925068862225999
 30
0.0
 40
0.0590551180999981
 50
318.553004470703911
 51
221.4469953694940045
  0
ARC
  5
896E
  8
0
 10
4103.2721220815546985
 20
158.9351746347203971
 30
0.0
 40
0.0275590550819515
 50
138.5530042538823068
 51
202.9538950394399137
  0
ARC
  5
896F
  8
0
 10
4103.14227558823859
 20
158.9351746347506094
 30
0.0
 40
0.0275590553256676
 50
337.0463355645380261
 51
41.4469951208964602
  0
LINE
  5
8970
  8
0
 10
4104.5772775751729569
 20
159.3124450996226074
 30
0.0
 11
4104.5772775751729569
 21
159.2484123980225945
 31
0.0
  0
LINE
  5
8971
  8
0
 10
4102.7071988349725871
 20
161.2621914684225999
 30
0.0
 11
4102.7071988349725871
 21
161.1464828070226076
 31
0.0
  0
LINE
  5
8972
  8
0
 10
4102.7071988349725871
 20
161.1314194654225957
 30
0.0
 11
4102.7071988349725871
 21
161.0133092291225978
 31
0.0
  0
LINE
  5
8973
  8
0
 10
4102.7071988349725871
 20
161.0133092291225978
 30
0.0
 11
4102.9119232444718364
 21
161.0133092291225978
 31
0.0
  0
LINE
  5
8974
  8
0
 10
4102.7071988349725871
 20
161.1314194653226082
 30
0.0
 11
4102.9119232444718364
 21
161.1314194653226082
 31
0.0
  0
LINE
  5
8975
  8
0
 10
4102.7071988349725871
 20
161.2621914684225999
 30
0.0
 11
4102.9119232444718364
 21
161.2621914684225999
 31
0.0
  0
LINE
  5
8976
  8
0
 10
4102.7071988349725871
 20
161.1464828070226076
 30
0.0
 11
4102.9119232444718364
 21
161.1464828070226076
 31
0.0
  0
CIRCLE
  5
8977
  8
0
 10
4103.3646791499731989
 20
161.4216407444226036
 30
0.0
 40
0.0885826772000016
  0
ARC
  5
8978
  8
0
 10
4103.3646791499731989
 20
161.4216407444226036
 30
0.0
 40
0.0590551180999981
 50
44.4775121747479787
 51
315.5224878252520284
  0
ARC
  5
8979
  8
0
 10
4103.4226965783009291
 20
161.4811803511200878
 30
0.0
 40
0.0241268181368264
 50
228.8378151110379974
 51
320.801814573164279
  0
ARC
  5
897A
  8
0
 10
4103.4226186210607921
 20
161.3611825783538052
 30
0.0
 40
0.024775924146601
 50
40.7352347558578884
 51
129.628129573831302
  0
LINE
  5
897B
  8
0
 10
4102.9119232444718364
 20
163.1539242090225912
 30
0.0
 11
4134.0142854491723483
 21
163.1539242090225912
 31
0.0
  0
LINE
  5
897C
  8
0
 10
4103.2268838743730157
 20
163.1539242090225912
 30
0.0
 11
4103.2268838743730157
 21
163.3704446814226969
 31
0.0
  0
ARC
  5
897D
  8
0
 10
4103.2465838743728455
 20
163.3704446814226969
 30
0.0
 40
0.0197
 50
90.0000002425730088
 51
180.0
  0
LINE
  5
897E
  8
0
 10
4103.2898760003718053
 20
163.1539242090225912
 30
0.0
 11
4103.2898760003718053
 21
163.370444681522514
 31
0.0
  0
ARC
  5
897F
  8
0
 10
4103.270176000372885
 20
163.370444681522514
 30
0.0
 40
0.0197
 50
0.0
 51
90.0000002425730088
  0
LINE
  5
8980
  8
0
 10
4103.2465838742891719
 20
163.3901446814226972
 30
0.0
 11
4103.2701760002892115
 21
163.3901446815224858
 31
0.0
  0
LINE
  5
8981
  8
0
 10
4135.7859389924733478
 20
158.5082848389226058
 30
0.0
 11
4135.7859389924733478
 21
160.0042879885226057
 31
0.0
  0
LINE
  5
8982
  8
0
 10
4135.7859389924733478
 20
160.0830580673226109
 30
0.0
 11
4135.7859389924733478
 21
163.2720344452226016
 31
0.0
  0
LINE
  5
8983
  8
0
 10
4134.2111358428728636
 20
158.5082848389226058
 30
0.0
 11
4134.2111358428728636
 21
160.0042879885226057
 31
0.0
  0
ARC
  5
8984
  8
0
 10
4134.2505358428716136
 20
160.0042879885226057
 30
0.0
 40
0.0394
 50
90.0
 51
180.0
  0
LINE
  5
8985
  8
0
 10
4135.7465389924727788
 20
158.4688848389226052
 30
0.0
 11
4134.2505358428716136
 21
158.4688848389226052
 31
0.0
  0
ARC
  5
8986
  8
0
 10
4135.7465389924727788
 20
158.5082848389226058
 30
0.0
 40
0.0394
 50
270.0
 51
0.0
  0
ARC
  5
8987
  8
0
 10
4135.7465389924727788
 20
160.0042879885226057
 30
0.0
 40
0.0394
 50
359.9999999999902229
 51
90.0
  0
ARC
  5
8988
  8
0
 10
4134.2505358428716136
 20
158.5082848389226058
 30
0.0
 40
0.0394
 50
179.9999999999901945
 51
270.0
  0
LINE
  5
8989
  8
0
 10
4134.1520802624727366
 20
158.5554994744225894
 30
0.0
 11
4134.1205846617731368
 21
158.5869950751225872
 31
0.0
  0
LINE
  5
898A
  8
0
 10
4134.1520802624727366
 20
158.500380439622603
 30
0.0
 11
4134.1205846617731368
 21
158.4688848389226052
 31
0.0
  0
LINE
  5
898B
  8
0
 10
4134.2642413546727767
 20
160.0377824767226116
 30
0.0
 11
4135.7328334806716157
 21
160.0377824767226116
 31
0.0
  0
LINE
  5
898C
  8
0
 10
4135.7800334806734099
 20
158.5219903507226036
 30
0.0
 11
4135.7800334806734099
 21
159.9905824767226079
 31
0.0
  0
LINE
  5
898D
  8
0
 10
4134.2170413546728014
 20
158.5219903507226036
 30
0.0
 11
4134.2170413546728014
 21
159.9905824767226079
 31
0.0
  0
LINE
  5
898E
  8
0
 10
4135.7328334806716157
 20
158.4747903507225999
 30
0.0
 11
4134.2642413546727767
 21
158.4747903507225999
 31
0.0
  0
ARC
  5
898F
  8
0
 10
4135.7328334806716157
 20
158.5219903507226036
 30
0.0
 40
0.0472
 50
270.0
 51
0.0
  0
ARC
  5
8990
  8
0
 10
4134.2642413546727767
 20
158.5219903507226036
 30
0.0
 40
0.0472
 50
180.0
 51
270.0
  0
ARC
  5
8991
  8
0
 10
4134.2642413546727767
 20
159.9905824767226079
 30
0.0
 40
0.0472
 50
90.0
 51
179.9999999999820943
  0
ARC
  5
8992
  8
0
 10
4135.7328334806716157
 20
159.9905824767226079
 30
0.0
 40
0.0472
 50
0.0000000000081422
 51
90.0
  0
LINE
  5
8993
  8
0
 10
4135.7859389924733478
 20
160.0830580673226109
 30
0.0
 11
4135.7465689137734444
 21
160.0436879885226062
 31
0.0
  0
LINE
  5
8994
  8
0
 10
4135.6678287562726837
 20
163.2720344452226016
 30
0.0
 11
4135.6678287562726837
 21
160.0830580673226109
 31
0.0
  0
LINE
  5
8995
  8
0
 10
4135.7859389924733478
 20
163.2720344452226016
 30
0.0
 11
4135.7465689137734444
 21
163.3114045240226062
 31
0.0
  0
LINE
  5
8996
  8
0
 10
4135.7465689137734444
 20
163.3114045240226062
 30
0.0
 11
4135.7071988349716776
 21
163.3114045240226062
 31
0.0
  0
LINE
  5
8997
  8
0
 10
4135.7071988349716776
 20
163.3114045240226062
 30
0.0
 11
4135.6678287562726837
 21
163.2720344452226016
 31
0.0
  0
LINE
  5
8998
  8
0
 10
4135.7662539531229413
 20
163.2917194846226039
 30
0.0
 11
4135.7465689137734444
 21
163.2720344452226016
 31
0.0
  0
LINE
  5
8999
  8
0
 10
4135.7465689137734444
 20
163.2720344452226016
 30
0.0
 11
4135.7071988349716776
 21
163.2720344452226016
 31
0.0
  0
LINE
  5
899A
  8
0
 10
4135.7071988349716776
 20
163.2720344452226016
 30
0.0
 11
4135.6875137955730679
 21
163.2917194845726101
 31
0.0
  0
LINE
  5
899B
  8
0
 10
4135.7465689137734444
 20
163.2720344452226016
 30
0.0
 11
4135.7465689137734444
 21
160.0830580673226109
 31
0.0
  0
LINE
  5
899C
  8
0
 10
4135.7071988349716776
 20
163.2720344452226016
 30
0.0
 11
4135.7071988349716776
 21
160.0830580673226109
 31
0.0
  0
LINE
  5
899D
  8
0
 10
4135.6678287562726837
 20
160.0830580673226109
 30
0.0
 11
4135.7071988349716776
 21
160.0436879885226062
 31
0.0
  0
LINE
  5
899E
  8
0
 10
4135.7662539531229413
 20
160.0633730279226086
 30
0.0
 11
4135.7465689137734444
 21
160.0830580673226109
 31
0.0
  0
LINE
  5
899F
  8
0
 10
4135.7465689137734444
 20
160.0830580673226109
 30
0.0
 11
4135.7071988349716776
 21
160.0830580673226109
 31
0.0
  0
LINE
  5
89A0
  8
0
 10
4135.7071988349716776
 20
160.0830580673226109
 30
0.0
 11
4135.6875137956731123
 21
160.0633730279226086
 31
0.0
  0
LINE
  5
89A1
  8
0
 10
4135.3095610397731434
 20
160.0436879885226062
 30
0.0
 11
4135.3095610397267592
 21
160.0704673624238978
 31
0.0
  0
LINE
  5
89A2
  8
0
 10
4135.2347578900717053
 20
160.0436879885226062
 30
0.0
 11
4135.2347578900717053
 21
160.1224281460225995
 31
0.0
  0
LINE
  5
89A3
  8
0
 10
4135.2347578900717053
 20
160.1224281460225995
 30
0.0
 11
4135.0772775751729569
 21
160.1224281460225995
 31
0.0
  0
LINE
  5
89A4
  8
0
 10
4135.0772775751729569
 20
160.1224281460225995
 30
0.0
 11
4135.0575925357716187
 21
160.1145541303226025
 31
0.0
  0
LINE
  5
89A5
  8
0
 10
4135.0575925357716187
 20
160.1145541303226025
 30
0.0
 11
4135.0379074963730091
 21
160.1224281460225995
 31
0.0
  0
LINE
  5
89A6
  8
0
 10
4135.0379074963730091
 20
160.1224281460225995
 30
0.0
 11
4134.5064114334727492
 21
160.1224281460225995
 31
0.0
  0
LINE
  5
89A7
  8
0
 10
4134.5064114334727492
 20
160.1224281460225995
 30
0.0
 11
4134.48672639407323
 21
160.1145541303226025
 31
0.0
  0
LINE
  5
89A8
  8
0
 10
4134.48672639407323
 20
160.1145541303226025
 30
0.0
 11
4134.4670413546728014
 21
160.1224281460225995
 31
0.0
  0
LINE
  5
89A9
  8
0
 10
4134.4670413546728014
 20
160.1224281460225995
 30
0.0
 11
4134.0142854491732578
 21
160.1224281460225995
 31
0.0
  0
LINE
  5
89AA
  8
0
 10
4135.2105687287748879
 20
160.1302808646310893
 30
0.0
 11
4135.1250769865755501
 21
160.1303142412068894
 31
0.0
  0
LINE
  5
89AB
  8
0
 10
4135.1560177326728081
 20
160.1303021617225966
 30
0.0
 11
4135.1560177326728081
 21
160.1617982247225882
 31
0.0
  0
ARC
  5
89AC
  8
0
 10
4135.1363285586821803
 20
160.1617982247225882
 30
0.0
 40
0.0196891739909031
 50
359.9999999999968168
 51
88.8257846474640758
  0
LINE
  5
89AD
  8
0
 10
4135.1367320388717417
 20
160.1814832641225905
 30
0.0
 11
4134.860757102673233
 21
160.1814832641225905
 31
0.0
  0
LINE
  5
89AE
  8
0
 10
4134.8410571026734033
 20
160.1303021617225966
 30
0.0
 11
4134.8410571026734033
 21
160.1617832641225903
 31
0.0
  0
ARC
  5
89AF
  8
0
 10
4134.860757102673233
 20
160.1617832641225903
 30
0.0
 40
0.0197
 50
90.0
 51
180.0
  0
LINE
  5
89B0
  8
0
 10
4134.8719935766530398
 20
160.1303021617225966
 30
0.0
 11
4134.786498581592241
 21
160.1303021617225966
 31
0.0
  0
ARC
  5
89B1
  8
0
 10
4134.7308208822732922
 20
160.1106171224226102
 30
0.0
 40
0.0590551181000026
 50
11.5369590128589596
 51
168.463040986983799
  0
LINE
  5
89B2
  8
0
 10
4134.1914358428730338
 20
159.6499872011225989
 30
0.0
 11
4134.0930405672743291
 21
159.6499872011225989
 31
0.0
  0
ARC
  5
89B3
  8
0
 10
4134.1914358428730338
 20
159.6302872011225986
 30
0.0
 40
0.0197
 50
0.0
 51
90.0
  0
LINE
  5
89B4
  8
0
 10
4134.0733405672717709
 20
159.6302872011225986
 30
0.0
 11
4134.0733405672717709
 21
159.6066950751225875
 31
0.0
  0
ARC
  5
89B5
  8
0
 10
4134.0930405672743291
 20
159.6302872011225986
 30
0.0
 40
0.0197
 50
90.0
 51
179.9999999999951115
  0
LINE
  5
89B6
  8
0
 10
4134.1284437168733348
 20
159.5869950751225872
 30
0.0
 11
4134.0930405672743291
 21
159.5869950751225872
 31
0.0
  0
ARC
  5
89B7
  8
0
 10
4134.0930405672743291
 20
159.6066950751225875
 30
0.0
 40
0.0197
 50
179.9999999999951115
 51
270.0
  0
LINE
  5
89B8
  8
0
 10
4134.1481437168731645
 20
159.5672950751225869
 30
0.0
 11
4134.1481437168731645
 21
159.5358289334226072
 31
0.0
  0
ARC
  5
89B9
  8
0
 10
4134.1284437168733348
 20
159.5672950751225869
 30
0.0
 40
0.0197
 50
0.0
 51
90.0
  0
LINE
  5
89BA
  8
0
 10
4134.1284437168733348
 20
159.5161289334226069
 30
0.0
 11
4133.309576000373454
 21
159.5161289334226069
 31
0.0
  0
ARC
  5
89BB
  8
0
 10
4133.309576000373454
 20
159.5358289334226072
 30
0.0
 40
0.0197
 50
180.0
 51
270.0
  0
ARC
  5
89BC
  8
0
 10
4134.1284437168733348
 20
159.5358289334226072
 30
0.0
 40
0.0197
 50
270.0
 51
0.0
  0
LINE
  5
89BD
  8
0
 10
4133.2898760003727148
 20
159.6893572799226035
 30
0.0
 11
4133.2898760003727148
 21
159.5358289334226072
 31
0.0
  0
LINE
  5
89BE
  8
0
 10
4133.2268838743730157
 20
159.6893572799226035
 30
0.0
 11
4133.2268838743730157
 21
159.4531368074225952
 31
0.0
  0
ARC
  5
89BF
  8
0
 10
4133.2465838743728455
 20
159.4728368074225955
 30
0.0
 40
0.0197
 50
180.0
 51
270.0
  0
ARC
  5
89C0
  8
0
 10
4134.1914358428730338
 20
159.4728368074225955
 30
0.0
 40
0.0197
 50
270.0
 51
0.0
  0
LINE
  5
89C1
  8
0
 10
4134.0142854491732578
 20
159.6893572799226035
 30
0.0
 11
4134.0142854491723483
 21
163.1539242090225912
 31
0.0
  0
LINE
  5
89C2
  8
0
 10
4132.2479075730725526
 20
159.4305553358225893
 30
0.0
 11
4133.1140493053726459
 21
159.4305553358225893
 31
0.0
  0
LINE
  5
89C3
  8
0
 10
4133.1628340174729601
 20
159.3321301389225937
 30
0.0
 11
4133.9372776518730461
 21
159.3321301389225937
 31
0.0
  0
LINE
  5
89C4
  8
0
 10
4133.1140493053726459
 20
159.4305553358225893
 30
0.0
 11
4133.1140493053726459
 21
159.3124450996226074
 31
0.0
  0
LINE
  5
89C5
  8
0
 10
4133.1140493053726459
 20
159.3124450996226074
 30
0.0
 11
4132.2479075730725526
 21
159.3124450996226074
 31
0.0
  0
LINE
  5
89C6
  8
0
 10
4132.2479075730725526
 20
159.3124450996226074
 30
0.0
 11
4132.2479075730725526
 21
159.4305553358225893
 31
0.0
  0
LINE
  5
89C7
  8
0
 10
4133.1628340174729601
 20
159.3321301389225937
 30
0.0
 11
4133.1140493053726459
 21
159.3589873994226025
 31
0.0
  0
LINE
  5
89C8
  8
0
 10
4133.9372776518730461
 20
159.3321301389225937
 30
0.0
 11
4133.9372776518730461
 21
159.2484123980225945
 31
0.0
  0
LINE
  5
89C9
  8
0
 10
4134.1127106459725837
 20
159.2484123980225945
 30
0.0
 11
4134.1127106459725837
 21
158.6184911381226073
 31
0.0
  0
CIRCLE
  5
89CA
  8
0
 10
4133.7190098585733722
 20
158.9925068862225999
 30
0.0
 40
0.1574803150000008
  0
CIRCLE
  5
89CB
  8
0
 10
4133.7190098585733722
 20
158.9925068862225999
 30
0.0
 40
0.0787401575000004
  0
ARC
  5
89CC
  8
0
 10
4133.7190098585733722
 20
158.9925068862225999
 30
0.0
 40
0.0590551180999981
 50
318.5530046305059955
 51
221.446995529296089
  0
ARC
  5
89CD
  8
0
 10
4133.6540866120913051
 20
158.9351746347203971
 30
0.0
 40
0.0275590550819515
 50
337.0461049605602284
 51
41.4469957461176577
  0
ARC
  5
89CE
  8
0
 10
4133.7839331054055947
 20
158.9351746347506094
 30
0.0
 40
0.0275590553256676
 50
138.5530048791034972
 51
202.9536644354620023
  0
LINE
  5
89CF
  8
0
 10
4132.3489311184730468
 20
159.3124450996226074
 30
0.0
 11
4132.3489311184730468
 21
159.2484123980225945
 31
0.0
  0
LINE
  5
89D0
  8
0
 10
4134.2190098586715976
 20
161.2621914684225999
 30
0.0
 11
4134.2190098586715976
 21
161.1464828070226076
 31
0.0
  0
LINE
  5
89D1
  8
0
 10
4134.2190098586715976
 20
161.1314194654225957
 30
0.0
 11
4134.2190098586715976
 21
161.0133092291225978
 31
0.0
  0
LINE
  5
89D2
  8
0
 10
4134.2190098586715976
 20
161.0133092291225978
 30
0.0
 11
4134.0142854491732578
 21
161.0133092291225978
 31
0.0
  0
LINE
  5
89D3
  8
0
 10
4134.2190098586715976
 20
161.1314194653226082
 30
0.0
 11
4134.0142854491732578
 21
161.1314194653226082
 31
0.0
  0
LINE
  5
89D4
  8
0
 10
4134.2190098586715976
 20
161.2621914684225999
 30
0.0
 11
4134.0142854491732578
 21
161.2621914684225999
 31
0.0
  0
LINE
  5
89D5
  8
0
 10
4134.2190098586715976
 20
161.1464828070226076
 30
0.0
 11
4134.0142854491732578
 21
161.1464828070226076
 31
0.0
  0
CIRCLE
  5
89D6
  8
0
 10
4133.5615295436728047
 20
161.4216407444226036
 30
0.0
 40
0.0885826772000016
  0
ARC
  5
89D7
  8
0
 10
4133.5615295436728047
 20
161.4216407444226036
 30
0.0
 40
0.0590551180999981
 50
224.477512174748
 51
135.522487825252
  0
ARC
  5
89D8
  8
0
 10
4133.5035121153441651
 20
161.4811803511200878
 30
0.0
 40
0.0241268181368264
 50
219.1981854268356074
 51
311.1621848889619741
  0
ARC
  5
89D9
  8
0
 10
4133.5035900725852116
 20
161.3611825783538052
 30
0.0
 40
0.024775924146601
 50
50.371870426168698
 51
139.2647652441420973
  0
LINE
  5
89DA
  8
0
 10
4133.699324819272988
 20
163.1539242090225912
 30
0.0
 11
4133.699324819272988
 21
163.3704446814226969
 31
0.0
  0
ARC
  5
89DB
  8
0
 10
4133.6796248192731582
 20
163.3704446814226969
 30
0.0
 40
0.0197
 50
0.0
 51
89.999999757426977
  0
LINE
  5
89DC
  8
0
 10
4133.6363326932732889
 20
163.1539242090225912
 30
0.0
 11
4133.6363326932732889
 21
163.370444681522514
 31
0.0
  0
ARC
  5
89DD
  8
0
 10
4133.6560326932731186
 20
163.370444681522514
 30
0.0
 40
0.0197
 50
89.999999757426977
 51
180.0
  0
LINE
  5
89DE
  8
0
 10
4133.6796248193559222
 20
163.3901446814226972
 30
0.0
 11
4133.6560326933567922
 21
163.3901446815224858
 31
0.0
  0
LINE
  5
89DF
  8
0
 10
4102.7741279688716531
 20
158.5554990121225956
 30
0.0
 11
4122.3410566404727433
 21
158.5554994744225894
 31
0.0
  0
LINE
  5
89E0
  8
0
 10
4122.4591673389722928
 20
158.5554990121225956
 30
0.0
 11
4134.1520802624727366
 21
158.5554994744225894
 31
0.0
  0
LINE
  5
89E1
  8
0
 10
4102.7741279688716531
 20
158.5003809019225969
 30
0.0
 11
4122.3410566404727433
 21
158.500380439622603
 31
0.0
  0
LINE
  5
89E2
  8
0
 10
4122.4591673389722928
 20
158.5003809019225969
 30
0.0
 11
4134.1520802624727366
 21
158.500380439622603
 31
0.0
  0
LINE
  5
89E3
  8
0
 10
4113.6620518544732477
 20
159.2484123980225945
 30
0.0
 11
4113.6657818424728248
 21
159.3396362316225918
 31
0.0
  0
LINE
  5
89E4
  8
0
 10
4113.6657818424728248
 20
159.3396362316225918
 30
0.0
 11
4120.7114631141030259
 21
159.4529471255480075
 31
0.0
  0
LINE
  5
89E5
  8
0
 10
4120.7234513411758599
 20
159.4413380289128099
 30
0.0
 11
4120.7264212067766493
 21
159.2563114680534113
 31
0.0
  0
ARC
  5
89E6
  8
0
 10
4120.7116528609312809
 20
159.4411486512339025
 30
0.0
 40
0.0118
 50
0.9195769136305857
 51
90.9213695754867786
  0
LINE
  5
89E7
  8
0
 10
4117.3914175533827802
 20
159.2484123980225945
 30
0.0
 11
4120.3360906983098175
 21
159.2860456601113128
 31
0.0
  0
LINE
  5
89E8
  8
0
 10
4119.8799822704731923
 20
159.2484123980225945
 30
0.0
 11
4119.8794718860572175
 21
159.2802100190772876
 31
0.0
  0
LINE
  5
89E9
  8
0
 10
4120.3366947506410725
 20
159.2484123980225945
 30
0.0
 11
4120.3354046793356247
 21
159.328785552759399
 31
0.0
  0
ARC
  5
89EA
  8
0
 10
4120.500208213870792
 20
159.331430817980106
 30
0.0
 40
0.164824762773536
 50
135.1518037444234892
 51
180.9195768726997073
  0
LINE
  5
89EB
  8
0
 10
4120.4087089773729531
 20
159.2512118617225951
 30
0.0
 11
4121.1534594042732351
 21
159.263165868022611
 31
0.0
  0
ARC
  5
89EC
  8
0
 10
4121.2207856334589451
 20
159.1208028517519892
 30
0.0
 40
0.1574803147637269
 50
54.158272325304921
 51
115.3103743729901964
  0
ARC
  5
89ED
  8
0
 10
4121.2772945668448301
 20
159.0397586328114983
 30
0.0
 40
0.2312647953807759
 50
64.4526010559669515
 51
92.2121897614686787
  0
LINE
  5
89EE
  8
0
 10
4120.4087089773729531
 20
159.2512118617225951
 30
0.0
 11
4120.407445280072352
 21
159.3299418780538872
 31
0.0
  0
ARC
  5
89EF
  8
0
 10
4120.595095894642327
 20
159.3329538623785027
 30
0.0
 40
0.1876747857268289
 50
141.9217756629620908
 51
180.9195769065916863
  0
LINE
  5
89F0
  8
0
 10
4120.7859389924733478
 20
159.2484123980225945
 30
0.0
 11
4120.7859389924733478
 21
158.6184911381226073
 31
0.0
  0
LINE
  5
89F1
  8
0
 10
4120.7918445042741951
 20
159.2287123980225942
 30
0.0
 11
4120.7918445042741951
 21
158.6381911381226075
 31
0.0
  0
LINE
  5
89F2
  8
0
 10
4120.7859421055536586
 20
159.0997137866534956
 30
0.0
 11
4120.7918445042741951
 21
159.1027431065726034
 31
0.0
  0
LINE
  5
89F3
  8
0
 10
4120.7859421042967369
 20
159.0467173088871107
 30
0.0
 11
4120.7918476698268933
 21
159.043685613909787
 31
0.0
  0
CIRCLE
  5
89F4
  8
0
 10
4122.8922382049731823
 20
158.9925068862225999
 30
0.0
 40
0.1574803150000008
  0
CIRCLE
  5
89F5
  8
0
 10
4122.8922382049731823
 20
158.9925068862225999
 30
0.0
 40
0.0787401575000004
  0
ARC
  5
89F6
  8
0
 10
4122.8922382049731823
 20
158.9925068862225999
 30
0.0
 40
0.0590551180999981
 50
228.6019346703004089
 51
131.4959255690982047
  0
ARC
  5
89F7
  8
0
 10
4122.834850530561198
 20
159.0573811478490995
 30
0.0
 40
0.0275590550819515
 50
247.0950350003826941
 51
311.4959257859454169
  0
ARC
  5
89F8
  8
0
 10
4122.8349614182234291
 20
158.9275347018831042
 30
0.0
 40
0.0275590553256676
 50
48.6019349189086682
 51
113.0025944753015068
  0
CIRCLE
  5
89F9
  8
0
 10
4121.9079862365733788
 20
158.9925068861226123
 30
0.0
 40
0.1574803150000008
  0
CIRCLE
  5
89FA
  8
0
 10
4121.9079862365733788
 20
158.9925068861226123
 30
0.0
 40
0.0787401575000004
  0
ARC
  5
89FB
  8
0
 10
4121.9079862365733788
 20
158.9925068861226123
 30
0.0
 40
0.0590551180999981
 50
48.9422421675407691
 51
311.8362330663268835
  0
ARC
  5
89FC
  8
0
 10
4121.9657582162653853
 20
158.927974620095199
 30
0.0
 40
0.0275590550819515
 50
67.4353424975671629
 51
131.8362332831509889
  0
ARC
  5
89FD
  8
0
 10
4121.9648761139060298
 20
159.0578181171271979
 30
0.0
 40
0.0275590553256676
 50
228.9422424161226104
 51
293.3429019724965201
  0
CIRCLE
  5
89FE
  8
0
 10
4120.48672639400138
 20
158.9925068861527109
 30
0.0
 40
0.1574803150000008
  0
CIRCLE
  5
89FF
  8
0
 10
4120.48672639400138
 20
158.9925068861527109
 30
0.0
 40
0.0787401575000004
  0
ARC
  5
8A00
  8
0
 10
4120.48672639400138
 20
158.9925068861527109
 30
0.0
 40
0.0590551180999981
 50
2.872090677105025
 51
265.7660815758881085
  0
ARC
  5
8A01
  8
0
 10
4120.4803317923724535
 20
158.9061290876973089
 30
0.0
 40
0.0275590550819515
 50
21.3651910071692406
 51
85.7660817927372818
  0
ARC
  5
8A02
  8
0
 10
4120.5732317698912084
 20
158.9968468147581859
 30
0.0
 40
0.0275590553256676
 50
182.8720909256913956
 51
247.272750482078095
  0
LINE
  5
8A03
  8
0
 10
4122.3095610397731434
 20
158.5869950751225872
 30
0.0
 11
4122.3410566404727433
 21
158.5554994744225894
 31
0.0
  0
LINE
  5
8A04
  8
0
 10
4122.3410566404727433
 20
158.500380439622603
 30
0.0
 11
4122.3095610397731434
 21
158.4688848389226052
 31
0.0
  0
LINE
  5
8A05
  8
0
 10
4122.4906634019716876
 20
158.5869950751225872
 30
0.0
 11
4122.4591673389722928
 21
158.5554990121225956
 31
0.0
  0
LINE
  5
8A06
  8
0
 10
4122.4591673389722928
 20
158.5003809019225969
 30
0.0
 11
4122.4906634019716876
 21
158.4688848389226052
 31
0.0
  0
LINE
  5
8A07
  8
0
 10
4122.3016870239725904
 20
159.2484123980225945
 30
0.0
 11
4122.3016870239725904
 21
158.6184911381226073
 31
0.0
  0
ARC
  5
8A08
  8
0
 10
4122.2819739769602165
 20
159.228652761339788
 30
0.0
 40
0.0197596563531159
 50
0.2776479448841488
 51
89.9191549398417465
  0
ARC
  5
8A09
  8
0
 10
4122.2419516932959596
 20
159.2191490917477097
 30
0.0
 40
0.0597822920496798
 50
333.9937277806716907
 51
359.7467373634003138
  0
ARC
  5
8A0A
  8
0
 10
4122.8278481463348726
 20
158.9333088977487876
 30
0.0
 40
0.5921220492372224
 50
153.9937277806716054
 51
196.2758765331350901
  0
ARC
  5
8A0B
  8
0
 10
4122.8177322881847431
 20
158.9303554365604896
 30
0.0
 40
0.5815838558861758
 50
196.2758765331350901
 51
204.0282034414368866
  0
ARC
  5
8A0C
  8
0
 10
4122.871203621188215
 20
158.9541939532076924
 30
0.0
 40
0.6401283545950517
 50
204.0282034414368866
 51
206.0562060227962888
  0
ARC
  5
8A0D
  8
0
 10
4122.2469910848503787
 20
158.6489867884922091
 30
0.0
 40
0.0547045058220942
 50
358.9859987093108771
 51
26.0562060227918799
  0
ARC
  5
8A0E
  8
0
 10
4122.2820948841599602
 20
158.6379518995663034
 30
0.0
 40
0.0194609838623921
 50
269.7260689439082171
 51
0.8406090656230107
  0
ARC
  5
8A0F
  8
0
 10
4122.2505715647257603
 20
158.6775462560117091
 30
0.0
 40
0.0393700790110305
 50
24.0764044425034385
 51
90.000098894075137
  0
ARC
  5
8A10
  8
0
 10
4120.8312254985276013
 20
158.6775353407680882
 30
0.0
 40
0.0393809957672569
 50
90.0158809972107292
 51
179.9841190028365077
  0
LINE
  5
8A11
  8
0
 10
4120.7918445042741951
 20
159.2287123980225942
 30
0.0
 11
4120.8312149804733053
 21
159.2090423192225899
 31
0.0
  0
LINE
  5
8A12
  8
0
 10
4120.8312149804733053
 20
159.2090423192225899
 30
0.0
 11
4122.2597244409962514
 21
159.209025010103602
 31
0.0
  0
LINE
  5
8A13
  8
0
 10
4122.4985374176731057
 20
159.2484123980225945
 30
0.0
 11
4122.4985374176731057
 21
158.6184911381226073
 31
0.0
  0
LINE
  5
8A14
  8
0
 10
4121.6579862365733788
 20
159.2582549177226099
 30
0.0
 11
4122.1579862365733788
 21
159.2582549177226099
 31
0.0
  0
LINE
  5
8A15
  8
0
 10
4122.1579862365733788
 20
159.2582549177226099
 30
0.0
 11
4122.1579862365733788
 21
159.2732549178226122
 31
0.0
  0
LINE
  5
8A16
  8
0
 10
4121.6929428836319858
 20
159.4457549177226099
 30
0.0
 11
4122.1230282378719494
 21
159.4457549177226099
 31
0.0
  0
ARC
  5
8A17
  8
0
 10
4122.3057917230717067
 20
159.2730819340225992
 30
0.0
 40
0.6478068187000073
 50
165.5719238983894002
 51
179.9847002989997975
  0
ARC
  5
8A18
  8
0
 10
4121.6929428836319858
 20
159.4307549177225951
 30
0.0
 40
0.015
 50
90.0
 51
165.5719238983973014
  0
LINE
  5
8A19
  8
0
 10
4121.6579849274694425
 20
159.2732549179771127
 30
0.0
 11
4121.6579862365733788
 21
159.2582549177226099
 31
0.0
  0
ARC
  5
8A1A
  8
0
 10
4121.5101793984322285
 20
159.2730819340225992
 30
0.0
 40
0.6478068187000073
 50
0.0152997010001588
 51
14.4280761016105608
  0
ARC
  5
8A1B
  8
0
 10
4122.1230282378719494
 20
159.4307549177225951
 30
0.0
 40
0.015
 50
14.4280761016026808
 51
90.0
  0
LINE
  5
8A1C
  8
0
 10
4122.1973550479160622
 20
159.2484120698840968
 30
0.0
 11
4122.1973550479160622
 21
159.2634120699842128
 31
0.0
  0
ARC
  5
8A1D
  8
0
 10
4121.5495455599711931
 20
159.263238579514308
 30
0.0
 40
0.6478095111764378
 50
0.0153444363743731
 51
14.4280611059536508
  0
ARC
  5
8A1E
  8
0
 10
4122.1623963579286283
 20
159.4209116154299011
 30
0.0
 40
0.0150007827205586
 50
14.4290992637420299
 51
89.9925189242444361
  0
LINE
  5
8A1F
  8
0
 10
4122.1370870697728606
 20
159.4359123980225945
 30
0.0
 11
4122.1623983165718528
 21
159.4359123980225945
 31
0.0
  0
LINE
  5
8A20
  8
0
 10
4122.1579862365733788
 20
159.2634123981225969
 30
0.0
 11
4122.1973576245773074
 21
159.2634123981225969
 31
0.0
  0
LINE
  5
8A21
  8
0
 10
4121.6973563153733267
 20
159.2484123980225945
 30
0.0
 11
4121.6973563153733267
 21
159.2582549177226099
 31
0.0
  0
ARC
  5
8A22
  8
0
 10
4122.1736041569683948
 20
159.4336911317639078
 30
0.0
 40
0.2406066697806105
 50
290.9731089111331812
 51
302.1632212427480795
  0
LINE
  5
8A23
  8
0
 10
4122.6028811687619964
 20
159.2582549177226099
 30
0.0
 11
4123.1028811687619964
 21
159.2582549177226099
 31
0.0
  0
LINE
  5
8A24
  8
0
 10
4123.1028811687619964
 20
159.2582549177226099
 30
0.0
 11
4123.1028811687619964
 21
159.2732549178226122
 31
0.0
  0
LINE
  5
8A25
  8
0
 10
4122.6378378158206033
 20
159.4457549177226099
 30
0.0
 11
4123.0679231700605669
 21
159.4457549177226099
 31
0.0
  0
ARC
  5
8A26
  8
0
 10
4123.2506866552621432
 20
159.2730819340225992
 30
0.0
 40
0.6478068187000073
 50
165.5719238983894002
 51
179.9847002989997975
  0
ARC
  5
8A27
  8
0
 10
4122.6378378158206033
 20
159.4307549177225951
 30
0.0
 40
0.015
 50
90.0
 51
165.5719238983973014
  0
LINE
  5
8A28
  8
0
 10
4122.60287985965806
 20
159.2732549179771127
 30
0.0
 11
4122.6028811687619964
 21
159.2582549177226099
 31
0.0
  0
ARC
  5
8A29
  8
0
 10
4122.455074330620846
 20
159.2730819340225992
 30
0.0
 40
0.6478068187000073
 50
0.0152997010001588
 51
14.4280761016105608
  0
ARC
  5
8A2A
  8
0
 10
4123.0679231700605669
 20
159.4307549177225951
 30
0.0
 40
0.015
 50
14.4280761016026808
 51
90.0
  0
LINE
  5
8A2B
  8
0
 10
4123.1422499801046797
 20
159.2484120698840968
 30
0.0
 11
4123.1422499801046797
 21
159.2634120699842128
 31
0.0
  0
ARC
  5
8A2C
  8
0
 10
4122.4944404921598107
 20
159.263238579514308
 30
0.0
 40
0.6478095111764378
 50
0.0153444363743731
 51
14.4280611059536508
  0
ARC
  5
8A2D
  8
0
 10
4123.1072912901190648
 20
159.4209116154299011
 30
0.0
 40
0.0150007827205586
 50
14.4290992637420299
 51
89.9925189242444361
  0
LINE
  5
8A2E
  8
0
 10
4123.0819820019623876
 20
159.4359123980225945
 30
0.0
 11
4123.1072932487622893
 21
159.4359123980225945
 31
0.0
  0
LINE
  5
8A2F
  8
0
 10
4123.1028811687619964
 20
159.2634123981225969
 30
0.0
 11
4123.142252556765925
 21
159.2634123981225969
 31
0.0
  0
LINE
  5
8A30
  8
0
 10
4122.6422512475619442
 20
159.2484123980225945
 30
0.0
 11
4122.6422512475619442
 21
159.2582549177226099
 31
0.0
  0
ARC
  5
8A31
  8
0
 10
4135.266253953172054
 20
160.1106171224226102
 30
0.0
 40
0.0590551180999981
 50
237.7690473491942953
 51
168.4630409869822074
  0
ARC
  5
8A32
  8
0
 10
4134.927671275972898
 20
160.1106171224226102
 30
0.0
 40
0.0590551180999994
 50
11.5369590130177695
 51
168.4630409869822074
  0
ARC
  5
8A33
  8
0
 10
4135.0694035594733577
 20
160.1106171224226102
 30
0.0
 40
0.0590551181000006
 50
11.5369590130177695
 51
168.4630409869822074
  0
ARC
  5
8A34
  8
0
 10
4135.1332964198882109
 20
160.1162000429548868
 30
0.0
 40
0.0141088284039944
 50
26.1953765663797711
 51
88.2329092331811751
  0
ARC
  5
8A35
  8
0
 10
4135.1899677193650859
 20
160.1166774611724009
 30
0.0
 40
0.0136484813930965
 50
94.1995211011114009
 51
155.080556952578803
  0
ARC
  5
8A36
  8
0
 10
4134.7886851355006002
 20
160.1155146747705942
 30
0.0
 40
0.0149514840038742
 50
27.5417089429855295
 51
81.5060193248652354
  0
ARC
  5
8A37
  8
0
 10
4134.8469040398349534
 20
160.1164290756692878
 30
0.0
 40
0.0138770858192167
 50
91.375676164969704
 51
154.3862492195601988
  0
LINE
  5
8A39
  8
0
 10
4122.3410566404727433
 20
158.500380439622603
 30
0.0
 11
4122.3410566404727433
 21
158.5554994744225894
 31
0.0
  0
LINE
  5
8A3A
  8
0
 10
4122.4591673389722928
 20
158.5003809019225969
 30
0.0
 11
4122.4591673389722928
 21
158.5554990121225956
 31
0.0
  0
LINE
  5
8A3B
  8
0
 10
4134.1520802624727366
 20
158.5554994744225894
 30
0.0
 11
4134.1520802624727366
 21
158.500380439622603
 31
0.0
  0
ENDSEC
  0
EOF
